ISO-10303-21;
HEADER;
FILE_DESCRIPTION (( 'STEP AP203' ),
    '1' );
FILE_NAME ('997989.step',
    '2021-12-03T13:01:02',
    ( '' ),
    ( '' ),
    'SwSTEP 2.0',
    'SolidWorks 2019',
    '' );
FILE_SCHEMA (( 'CONFIG_CONTROL_DESIGN' ));
ENDSEC;

DATA;
#1 = ADVANCED_FACE ( 'NONE', ( #44 ), #195, .T. ) ;
#2 = CARTESIAN_POINT ( 'NONE',  ( -0.2999999999999993228, 0.0000000000000000000, 0.2015030172275321108 ) ) ;
#3 =( NAMED_UNIT ( * ) SI_UNIT ( $, .STERADIAN. ) SOLID_ANGLE_UNIT ( ) );
#4 = VERTEX_POINT ( 'NONE', #334 ) ;
#5 = DATE_AND_TIME ( #214, #328 ) ;
#6 = VERTEX_POINT ( 'NONE', #287 ) ;
#7 = EDGE_LOOP ( 'NONE', ( #252 ) ) ;
#8 = AXIS2_PLACEMENT_3D ( 'NONE', #352, #76, #106 ) ;
#9 = VERTEX_POINT ( 'NONE', #201 ) ;
#10 = ORIENTED_EDGE ( 'NONE', *, *, #99, .F. ) ;
#11 = ORIENTED_EDGE ( 'NONE', *, *, #87, .F. ) ;
#12 = DIRECTION ( 'NONE',  ( 3.209883240645392796E-31, 1.000000000000000000, 9.035018104045869462E-17 ) ) ;
#13 = DIRECTION ( 'NONE',  ( 0.0000000000000000000, 1.000000000000000000, 0.0000000000000000000 ) ) ;
#14 = APPROVAL_ROLE ( '' ) ;
#15 = DIRECTION ( 'NONE',  ( -3.491481338843133355E-15, 1.224646799147353207E-16, -1.000000000000000000 ) ) ;
#16 = COORDINATED_UNIVERSAL_TIME_OFFSET ( 1, 0, .AHEAD. ) ;
#17 = DIRECTION ( 'NONE',  ( -3.491481338843133355E-15, 1.224646799147353207E-16, -1.000000000000000000 ) ) ;
#18 = CIRCLE ( 'NONE', #45, 0.3000000000000000444 ) ;
#19 = EDGE_CURVE ( 'NONE', #278, #278, #361, .T. ) ;
#20 = DIRECTION ( 'NONE',  ( -3.548879674468427571E-31, -1.000000000000000000, -1.016439536705160407E-16 ) ) ;
#21 = ORIENTED_EDGE ( 'NONE', *, *, #107, .T. ) ;
#22 = FACE_OUTER_BOUND ( 'NONE', #128, .T. ) ;
#23 = COORDINATED_UNIVERSAL_TIME_OFFSET ( 1, 0, .AHEAD. ) ;
#24 = ORIENTED_EDGE ( 'NONE', *, *, #99, .T. ) ;
#25 = CYLINDRICAL_SURFACE ( 'NONE', #219, 0.5000000000000000000 ) ;
#26 = VECTOR ( 'NONE', #121, 1000.000000000000000 ) ;
#27 = EDGE_CURVE ( 'NONE', #302, #66, #133, .T. ) ;
#28 = DATE_TIME_ROLE ( 'creation_date' ) ;
#29 = EDGE_LOOP ( 'NONE', ( #290 ) ) ;
#30 = CARTESIAN_POINT ( 'NONE',  ( -0.2999999999999996558, 0.2794754660134743940, 0.1022049553198486616 ) ) ;
#31 = PLANE ( 'NONE',  #310 ) ;
#32 = APPLICATION_PROTOCOL_DEFINITION ( 'international standard', 'config_control_design', 1994, #365 ) ;
#33 = DIRECTION ( 'NONE',  ( 0.0000000000000000000, 1.000000000000000000, 0.0000000000000000000 ) ) ;
#34 = AXIS2_PLACEMENT_3D ( 'NONE', #111, #79, #268 ) ;
#35 = VERTEX_POINT ( 'NONE', #378 ) ;
#36 = ORIENTED_EDGE ( 'NONE', *, *, #335, .T. ) ;
#37 = CC_DESIGN_PERSON_AND_ORGANIZATION_ASSIGNMENT ( #52, #389, ( #192 ) ) ;
#38 = CARTESIAN_POINT ( 'NONE',  ( 7.035440243705112382E-16, 0.3000000000000000444, 0.2015030172275310838 ) ) ;
#39 = EDGE_CURVE ( 'NONE', #66, #35, #46, .T. ) ;
#40 = CIRCLE ( 'NONE', #292, 1.200000000000004396 ) ;
#41 = DIRECTION ( 'NONE',  ( -3.491481338843133355E-15, 1.224646799147353207E-16, -1.000000000000000000 ) ) ;
#42 = DIRECTION ( 'NONE',  ( -1.000000000000000000, 0.0000000000000000000, 3.491481338843132961E-15 ) ) ;
#43 = EDGE_CURVE ( 'NONE', #4, #4, #260, .T. ) ;
#44 = FACE_OUTER_BOUND ( 'NONE', #59, .T. ) ;
#45 = AXIS2_PLACEMENT_3D ( 'NONE', #293, #135, #42 ) ;
#46 = LINE ( 'NONE', #345, #392 ) ;
#47 = LINE ( 'NONE', #83, #185 ) ;
#48 = LINE ( 'NONE', #300, #353 ) ;
#49 = DESIGN_CONTEXT ( 'detailed design', #365, 'design' ) ;
#50 = ADVANCED_FACE ( 'NONE', ( #159, #73 ), #225, .T. ) ;
#51 = CARTESIAN_POINT ( 'NONE',  ( -0.2999999999999982681, 0.0000000000000000000, 0.5000000000000011102 ) ) ;
#52 = PERSON_AND_ORGANIZATION ( #57, #232 ) ;
#53 = CARTESIAN_POINT ( 'NONE',  ( 1.595606971851311880E-13, -5.596635872103403844E-15, 45.69999999999999574 ) ) ;
#54 = PERSON_AND_ORGANIZATION_ROLE ( 'creator' ) ;
#55 = VERTEX_POINT ( 'NONE', #165 ) ;
#56 = DIRECTION ( 'NONE',  ( 1.000000000000000000, 0.0000000000000000000, -3.491481338843133355E-15 ) ) ;
#57 = PERSON ( 'UNSPECIFIED', 'UNSPECIFIED', 'UNSPECIFIED', ('UNSPECIFIED'), ('UNSPECIFIED'), ('UNSPECIFIED') ) ;
#58 = CALENDAR_DATE ( 2021, 3, 12 ) ;
#59 = EDGE_LOOP ( 'NONE', ( #155 ) ) ;
#60 = DIRECTION ( 'NONE',  ( -3.491481338843133355E-15, 0.0000000000000000000, -1.000000000000000000 ) ) ;
#61 = CONICAL_SURFACE ( 'NONE', #286, 0.3340741737109301779, 0.2617993877991428020 ) ;
#62 = CC_DESIGN_APPROVAL ( #285, ( #77 ) ) ;
#63 = CYLINDRICAL_SURFACE ( 'NONE', #119, 0.3000000000000000444 ) ;
#64 = CARTESIAN_POINT ( 'NONE',  ( 2.307908781651452348E-14, 1.499999999999996003, 6.610113466670151539 ) ) ;
#65 = CYLINDRICAL_SURFACE ( 'NONE', #103, 1.500000000000000444 ) ;
#66 = VERTEX_POINT ( 'NONE', #291 ) ;
#67 = CIRCLE ( 'NONE', #226, 0.3000000000000000444 ) ;
#68 = AXIS2_PLACEMENT_3D ( 'NONE', #124, #188, #146 ) ;
#69 = ORIENTED_EDGE ( 'NONE', *, *, #143, .T. ) ;
#70 = DIRECTION ( 'NONE',  ( -3.491481338843133355E-15, 0.0000000000000000000, -1.000000000000000000 ) ) ;
#71 = APPROVAL_PERSON_ORGANIZATION ( #153, #285, #279 ) ;
#72 = CARTESIAN_POINT ( 'NONE',  ( -0.2999999999999982681, 0.0000000000000000000, 0.5000000000000011102 ) ) ;
#73 = FACE_OUTER_BOUND ( 'NONE', #390, .T. ) ;
#74 = ORIENTED_EDGE ( 'NONE', *, *, #27, .F. ) ;
#75 = AXIS2_PLACEMENT_3D ( 'NONE', #269, #17, #298 ) ;
#76 = DIRECTION ( 'NONE',  ( -3.491481338843133355E-15, 1.224646799147353207E-16, -1.000000000000000000 ) ) ;
#77 = PRODUCT_DEFINITION ( 'UNKNOWN', '', #166, #49 ) ;
#78 = DATE_TIME_ROLE ( 'classification_date' ) ;
#79 = DIRECTION ( 'NONE',  ( -3.491481338843133355E-15, 1.224646799147353207E-16, -1.000000000000000000 ) ) ;
#80 = DATE_AND_TIME ( #116, #227 ) ;
#81 = CARTESIAN_POINT ( 'NONE',  ( 1.175853647621663661E-31, 0.5000000000000000000, 3.367778697655221258E-17 ) ) ;
#82 = APPROVAL_DATE_TIME ( #265, #253 ) ;
#83 = CARTESIAN_POINT ( 'NONE',  ( -0.3000000000000000444, 0.3999999999999999667, 1.096430273618834224E-15 ) ) ;
#84 = CIRCLE ( 'NONE', #34, 0.3000000000000002109 ) ;
#85 = APPROVAL_STATUS ( 'not_yet_approved' ) ;
#86 = ORIENTED_EDGE ( 'NONE', *, *, #377, .T. ) ;
#87 = EDGE_CURVE ( 'NONE', #333, #35, #371, .T. ) ;
#88 = DIRECTION ( 'NONE',  ( 0.0000000000000000000, -1.000000000000000000, 0.0000000000000000000 ) ) ;
#89 = APPLICATION_PROTOCOL_DEFINITION ( 'international standard', 'config_control_design', 1994, #317 ) ;
#90 = CARTESIAN_POINT ( 'NONE',  ( -0.2999999999999997669, 0.3403601881750946134, 0.05949201941018793932 ) ) ;
#91 = FACE_OUTER_BOUND ( 'NONE', #191, .T. ) ;
#92 = AXIS2_PLACEMENT_3D ( 'NONE', #319, #258, #228 ) ;
#93 = CARTESIAN_POINT ( 'NONE',  ( 1.595606971851311880E-13, 1.499999999999998668, 45.69999999999999574 ) ) ;
#94 = FACE_OUTER_BOUND ( 'NONE', #381, .T. ) ;
#95 = ORIENTED_EDGE ( 'NONE', *, *, #217, .T. ) ;
#96 = ORIENTED_EDGE ( 'NONE', *, *, #19, .F. ) ;
#97 = TOROIDAL_SURFACE ( 'NONE', #337, 1.300000000000000266, 1.000000000000000000 ) ;
#98 = APPROVAL_PERSON_ORGANIZATION ( #171, #294, #14 ) ;
#99 = EDGE_CURVE ( 'NONE', #6, #349, #18, .T. ) ;
#100 = ORIENTED_EDGE ( 'NONE', *, *, #308, .T. ) ;
#101 = EDGE_LOOP ( 'NONE', ( #312 ) ) ;
#102 = DIRECTION ( 'NONE',  ( -3.491481338843133355E-15, 1.224646799147353207E-16, -1.000000000000000000 ) ) ;
#103 = AXIS2_PLACEMENT_3D ( 'NONE', #277, #218, #220 ) ;
#104 = LOCAL_TIME ( 14, 1, 2.000000000000000000, #169 ) ;
#105 = DIRECTION ( 'NONE',  ( -3.491481338843133355E-15, 1.224646799147353207E-16, -1.000000000000000000 ) ) ;
#106 = DIRECTION ( 'NONE',  ( 4.333342374871280669E-31, 1.000000000000000000, 1.219727444046192488E-16 ) ) ;
#107 = EDGE_CURVE ( 'NONE', #302, #6, #257, .T. ) ;
#108 = LINE ( 'NONE', #72, #386 ) ;
#109 = CONICAL_SURFACE ( 'NONE', #208, 1.500000000000004441, 0.7853981633974453924 ) ;
#110 = EDGE_CURVE ( 'NONE', #350, #6, #108, .T. ) ;
#111 = CARTESIAN_POINT ( 'NONE',  ( 6.982962677686266711E-15, -2.449293598294706414E-16, 2.000000000000000000 ) ) ;
#112 = PERSON_AND_ORGANIZATION ( #57, #232 ) ;
#113 = CARTESIAN_POINT ( 'NONE',  ( 1.606081415867841091E-13, -5.633375276077824704E-15, 46.00000000000000000 ) ) ;
#114 = PLANE ( 'NONE',  #321 ) ;
#115 = ADVANCED_FACE ( 'NONE', ( #382 ), #196, .T. ) ;
#116 = CALENDAR_DATE ( 2021, 3, 12 ) ;
#117 = ORIENTED_EDGE ( 'NONE', *, *, #244, .F. ) ;
#118 = DIRECTION ( 'NONE',  ( -3.491481338843133355E-15, 0.0000000000000000000, -1.000000000000000000 ) ) ;
#119 = AXIS2_PLACEMENT_3D ( 'NONE', #187, #249, #152 ) ;
#120 = COORDINATED_UNIVERSAL_TIME_OFFSET ( 1, 0, .AHEAD. ) ;
#121 = DIRECTION ( 'NONE',  ( 3.844619647340796608E-31, 1.000000000000000000, 1.101142831430590441E-16 ) ) ;
#122 = VERTEX_POINT ( 'NONE', #93 ) ;
#123 = CARTESIAN_POINT ( 'NONE',  ( -0.2999999999999999889, 0.3999999999999999667, 0.01500000000000112181 ) ) ;
#124 = CARTESIAN_POINT ( 'NONE',  ( 0.0000000000000000000, 0.0000000000000000000, 0.0000000000000000000 ) ) ;
#125 = VERTEX_POINT ( 'NONE', #177 ) ;
#126 = ADVANCED_FACE ( 'NONE', ( #376, #229 ), #97, .F. ) ;
#127 = AXIS2_PLACEMENT_3D ( 'NONE', #296, #15, #138 ) ;
#128 = EDGE_LOOP ( 'NONE', ( #129, #136, #74, #117 ) ) ;
#129 = ORIENTED_EDGE ( 'NONE', *, *, #87, .T. ) ;
#130 = CARTESIAN_POINT ( 'NONE',  ( 0.0000000000000000000, 0.0000000000000000000, 0.0000000000000000000 ) ) ;
#131 = DIRECTION ( 'NONE',  ( 4.275831445896958607E-31, 1.000000000000000000, 1.224646799147353207E-16 ) ) ;
#132 = EDGE_LOOP ( 'NONE', ( #282 ) ) ;
#133 = CIRCLE ( 'NONE', #92, 0.5000000000000000000 ) ;
#134 = LOCAL_TIME ( 14, 1, 2.000000000000000000, #16 ) ;
#135 = DIRECTION ( 'NONE',  ( 3.491481338843133355E-15, -0.0000000000000000000, 1.000000000000000000 ) ) ;
#136 = ORIENTED_EDGE ( 'NONE', *, *, #39, .F. ) ;
#137 = SECURITY_CLASSIFICATION_LEVEL ( 'unclassified' ) ;
#138 = DIRECTION ( 'NONE',  ( 0.0000000000000000000, 1.000000000000000000, 0.0000000000000000000 ) ) ;
#139 = CALENDAR_DATE ( 2021, 3, 12 ) ;
#140 = AXIS2_PLACEMENT_3D ( 'NONE', #262, #102, #13 ) ;
#141 = FACE_OUTER_BOUND ( 'NONE', #239, .T. ) ;
#142 = DIRECTION ( 'NONE',  ( 4.275831445896958607E-31, 1.000000000000000000, 1.224646799147353207E-16 ) ) ;
#143 = EDGE_CURVE ( 'NONE', #349, #66, #224, .T. ) ;
#144 = ORIENTED_EDGE ( 'NONE', *, *, #186, .F. ) ;
#145 = CARTESIAN_POINT ( 'NONE',  ( 0.0000000000000000000, 0.0000000000000000000, 0.0000000000000000000 ) ) ;
#146 = DIRECTION ( 'NONE',  ( 1.000000000000000000, 0.0000000000000000000, 0.0000000000000000000 ) ) ;
#147 = B_SPLINE_CURVE_WITH_KNOTS ( 'NONE', 3,
 ( #2, #151, #370, #30, #90, #123 ),
 .UNSPECIFIED., .F., .F.,
 ( 4, 2, 4 ),
 ( 0.0006189401293541915358, 0.0008420887852314228039, 0.001065237441108654072 ),
 .UNSPECIFIED. ) ;
#148 = DIRECTION ( 'NONE',  ( -3.491481338843133355E-15, 0.0000000000000000000, -1.000000000000000000 ) ) ;
#149 = PERSON_AND_ORGANIZATION ( #57, #232 ) ;
#150 = PRODUCT_RELATED_PRODUCT_CATEGORY ( 'detail', '', ( #336 ) ) ;
#151 = CARTESIAN_POINT ( 'NONE',  ( -0.2999999999999994338, 0.07439615244401370786, 0.2015030172275325548 ) ) ;
#152 = DIRECTION ( 'NONE',  ( -1.000000000000000000, 0.0000000000000000000, 3.614007241618347587E-15 ) ) ;
#153 = PERSON_AND_ORGANIZATION ( #57, #232 ) ;
#154 = FACE_OUTER_BOUND ( 'NONE', #243, .T. ) ;
#155 = ORIENTED_EDGE ( 'NONE', *, *, #19, .T. ) ;
#156 = AXIS2_PLACEMENT_3D ( 'NONE', #338, #309, #33 ) ;
#157 = ORIENTED_EDGE ( 'NONE', *, *, #110, .T. ) ;
#158 = ORIENTED_EDGE ( 'NONE', *, *, #186, .T. ) ;
#159 = FACE_OUTER_BOUND ( 'NONE', #221, .T. ) ;
#160 = CLOSED_SHELL ( 'NONE', ( #267, #115, #163, #222, #383, #168, #367 ) ) ;
#161 = CC_DESIGN_DATE_AND_TIME_ASSIGNMENT ( #356, #78, ( #192 ) ) ;
#162 = DIRECTION ( 'NONE',  ( 4.391289247650261546E-31, 1.000000000000000000, 1.224646799147353207E-16 ) ) ;
#163 = ADVANCED_FACE ( 'NONE', ( #355 ), #114, .T. ) ;
#164 = CARTESIAN_POINT ( 'NONE',  ( 7.035440243705123229E-16, -2.467700250662303432E-17, 0.2015030172275314169 ) ) ;
#165 = CARTESIAN_POINT ( 'NONE',  ( 7.035440243705122243E-16, -0.3000000000000000444, 0.2015030172275313891 ) ) ;
#166 = PRODUCT_DEFINITION_FORMATION_WITH_SPECIFIED_SOURCE ( 'ANY', '', #336, .NOT_KNOWN. ) ;
#167 = DIRECTION ( 'NONE',  ( -3.491481338843133355E-15, 1.224646799147353207E-16, -1.000000000000000000 ) ) ;
#168 = ADVANCED_FACE ( 'NONE', ( #210 ), #326, .F. ) ;
#169 = COORDINATED_UNIVERSAL_TIME_OFFSET ( 1, 0, .AHEAD. ) ;
#170 = DIRECTION ( 'NONE',  ( 0.0000000000000000000, 1.000000000000000000, 0.0000000000000000000 ) ) ;
#171 = PERSON_AND_ORGANIZATION ( #57, #232 ) ;
#172 = DIRECTION ( 'NONE',  ( 3.491481338843133355E-15, -1.224646799147353207E-16, 1.000000000000000000 ) ) ;
#173 = PERSON_AND_ORGANIZATION ( #57, #232 ) ;
#174 = AXIS2_PLACEMENT_3D ( 'NONE', #245, #172, #213 ) ;
#175 = DIRECTION ( 'NONE',  ( 0.0000000000000000000, 1.000000000000000000, 0.0000000000000000000 ) ) ;
#176 = LINE ( 'NONE', #207, #254 ) ;
#177 = CARTESIAN_POINT ( 'NONE',  ( 1.606081415867841091E-13, 1.199999999999998845, 46.00000000000000000 ) ) ;
#178 = EDGE_LOOP ( 'NONE', ( #363 ) ) ;
#179 = DIRECTION ( 'NONE',  ( 4.275831445896958607E-31, 1.000000000000000000, 1.224646799147353207E-16 ) ) ;
#180 = CC_DESIGN_PERSON_AND_ORGANIZATION_ASSIGNMENT ( #112, #204, ( #166 ) ) ;
#181 = DATE_AND_TIME ( #58, #288 ) ;
#182 = ORIENTED_EDGE ( 'NONE', *, *, #324, .T. ) ;
#183 = PRODUCT_DEFINITION_SHAPE ( 'NONE', 'NONE',  #77 ) ;
#184 = DIRECTION ( 'NONE',  ( 1.000000000000000000, 0.0000000000000000000, -3.491481338843133355E-15 ) ) ;
#185 = VECTOR ( 'NONE', #301, 1000.000000000000000 ) ;
#186 = EDGE_CURVE ( 'NONE', #55, #350, #67, .T. ) ;
#187 = CARTESIAN_POINT ( 'NONE',  ( 1.745740669421566678E-15, 0.0000000000000000000, 0.5000000000000000000 ) ) ;
#188 = DIRECTION ( 'NONE',  ( 0.0000000000000000000, 0.0000000000000000000, 1.000000000000000000 ) ) ;
#189 = CARTESIAN_POINT ( 'NONE',  ( -2.839103739574742144E-31, -0.3000000000000000444, -8.131516293641283255E-17 ) ) ;
#190 = CIRCLE ( 'NONE', #75, 0.3000000000000000444 ) ;
#191 = EDGE_LOOP ( 'NONE', ( #182 ) ) ;
#192 = SECURITY_CLASSIFICATION ( '', '', #137 ) ;
#193 = EDGE_LOOP ( 'NONE', ( #95, #313, #69, #250, #330 ) ) ;
#194 = ORIENTED_EDGE ( 'NONE', *, *, #197, .T. ) ;
#195 = PLANE ( 'NONE',  #380 ) ;
#196 = CONICAL_SURFACE ( 'NONE', #8, 0.5000000000000000000, 0.8203047484373373610 ) ;
#197 = EDGE_CURVE ( 'NONE', #9, #35, #176, .T. ) ;
#198 = APPROVAL_PERSON_ORGANIZATION ( #149, #253, #359 ) ;
#199 = DIRECTION ( 'NONE',  ( 3.491481338843133355E-15, -0.0000000000000000000, 1.000000000000000000 ) ) ;
#200 = DIRECTION ( 'NONE',  ( -3.491481338843133355E-15, 1.224646799147353207E-16, -1.000000000000000000 ) ) ;
#201 = CARTESIAN_POINT ( 'NONE',  ( 7.035440243705096605E-16, 0.3000000000000000444, 0.2015030172275306397 ) ) ;
#202 = AXIS2_PLACEMENT_3D ( 'NONE', #230, #167, #347 ) ;
#203 = CARTESIAN_POINT ( 'NONE',  ( -0.3000000000000000444, 0.3999999999999999667, 1.047444401652940007E-15 ) ) ;
#204 = PERSON_AND_ORGANIZATION_ROLE ( 'creator' ) ;
#205 = FACE_OUTER_BOUND ( 'NONE', #132, .T. ) ;
#206 = EDGE_CURVE ( 'NONE', #350, #9, #190, .T. ) ;
#207 = CARTESIAN_POINT ( 'NONE',  ( 1.680301730802310780E-15, -5.893705096847604409E-17, 0.4812575430688286193 ) ) ;
#208 = AXIS2_PLACEMENT_3D ( 'NONE', #53, #385, #175 ) ;
#209 = CC_DESIGN_APPROVAL ( #294, ( #192 ) ) ;
#210 = FACE_OUTER_BOUND ( 'NONE', #255, .T. ) ;
#211 = PERSON_AND_ORGANIZATION ( #57, #232 ) ;
#212 = EDGE_LOOP ( 'NONE', ( #86 ) ) ;
#213 = DIRECTION ( 'NONE',  ( -4.275831445896958607E-31, -1.000000000000000000, -1.224646799147353207E-16 ) ) ;
#214 = CALENDAR_DATE ( 2021, 3, 12 ) ;
#215 = ORIENTED_EDGE ( 'NONE', *, *, #348, .F. ) ;
#216 = CARTESIAN_POINT ( 'NONE',  ( 7.035440243705124215E-16, 0.3000000000000000444, 0.2015030172275314446 ) ) ;
#217 = EDGE_CURVE ( 'NONE', #9, #55, #48, .T. ) ;
#218 = DIRECTION ( 'NONE',  ( -3.491481338843133355E-15, 1.224646799147353207E-16, -1.000000000000000000 ) ) ;
#219 = AXIS2_PLACEMENT_3D ( 'NONE', #145, #272, #142 ) ;
#220 = DIRECTION ( 'NONE',  ( 4.275831445896958607E-31, 1.000000000000000000, 1.224646799147353207E-16 ) ) ;
#221 = EDGE_LOOP ( 'NONE', ( #36 ) ) ;
#222 = ADVANCED_FACE ( 'NONE', ( #141 ), #238, .T. ) ;
#223 = ORIENTED_EDGE ( 'NONE', *, *, #206, .T. ) ;
#224 = LINE ( 'NONE', #289, #26 ) ;
#225 = CYLINDRICAL_SURFACE ( 'NONE', #346, 0.3000000000000001554 ) ;
#226 = AXIS2_PLACEMENT_3D ( 'NONE', #303, #360, #233 ) ;
#227 = LOCAL_TIME ( 14, 1, 2.000000000000000000, #235 ) ;
#228 = DIRECTION ( 'NONE',  ( 4.275831445896958607E-31, 1.000000000000000000, 1.224646799147353207E-16 ) ) ;
#229 = FACE_OUTER_BOUND ( 'NONE', #29, .T. ) ;
#230 = CARTESIAN_POINT ( 'NONE',  ( 5.237222008264704840E-17, -1.836970198721031521E-18, 0.01500000000000001332 ) ) ;
#231 = VECTOR ( 'NONE', #118, 1000.000000000000000 ) ;
#232 = ORGANIZATION ( 'UNSPECIFIED', 'UNSPECIFIED', '' ) ;
#233 = DIRECTION ( 'NONE',  ( 3.209883240645392796E-31, 1.000000000000000000, 9.035018104045869462E-17 ) ) ;
#234 = CC_DESIGN_PERSON_AND_ORGANIZATION_ASSIGNMENT ( #211, #54, ( #77 ) ) ;
#235 = COORDINATED_UNIVERSAL_TIME_OFFSET ( 1, 0, .AHEAD. ) ;
#236 = PLANE ( 'NONE',  #362 ) ;
#237 = APPROVAL_STATUS ( 'not_yet_approved' ) ;
#238 = PLANE ( 'NONE',  #174 ) ;
#239 = EDGE_LOOP ( 'NONE', ( #144, #342, #271 ) ) ;
#240 = AXIS2_PLACEMENT_3D ( 'NONE', #164, #316, #12 ) ;
#241 = ADVANCED_BREP_SHAPE_REPRESENTATION ( '997989', ( #251, #379, #68 ), #311 ) ;
#242 = FACE_OUTER_BOUND ( 'NONE', #212, .T. ) ;
#243 = EDGE_LOOP ( 'NONE', ( #283, #158, #157, #24 ) ) ;
#244 = EDGE_CURVE ( 'NONE', #333, #302, #47, .T. ) ;
#245 = CARTESIAN_POINT ( 'NONE',  ( 7.035440243705112382E-16, 0.3000000000000000444, 0.2015030172275310838 ) ) ;
#246 =( LENGTH_UNIT ( ) NAMED_UNIT ( * ) SI_UNIT ( .MILLI., .METRE. ) );
#247 = CARTESIAN_POINT ( 'NONE',  ( -0.2999999999999993228, 0.0000000000000000000, 0.2015030172275321108 ) ) ;
#248 = CARTESIAN_POINT ( 'NONE',  ( 6.982962677686266711E-15, 0.2999999999999999334, 2.000000000000000000 ) ) ;
#249 = DIRECTION ( 'NONE',  ( -3.491481338843133355E-15, 0.0000000000000000000, -1.000000000000000000 ) ) ;
#250 = ORIENTED_EDGE ( 'NONE', *, *, #39, .T. ) ;
#251 = MANIFOLD_SOLID_BREP ( 'Corps-Déplacer/Copier1[1]', #160 ) ;
#252 = ORIENTED_EDGE ( 'NONE', *, *, #43, .T. ) ;
#253 = APPROVAL ( #270, 'UNSPECIFIED' ) ;
#254 = VECTOR ( 'NONE', #325, 999.9999999999998863 ) ;
#255 = EDGE_LOOP ( 'NONE', ( #304, #343, #21, #284 ) ) ;
#256 = ADVANCED_FACE ( 'NONE', ( #276, #329 ), #109, .T. ) ;
#257 = LINE ( 'NONE', #384, #275 ) ;
#258 = DIRECTION ( 'NONE',  ( -3.491481338843133355E-15, 1.224646799147353207E-16, -1.000000000000000000 ) ) ;
#259 = DIRECTION ( 'NONE',  ( 4.275831445896957731E-31, 1.000000000000000000, 1.224646799147352961E-16 ) ) ;
#260 = CIRCLE ( 'NONE', #140, 0.3340741737109301779 ) ;
#261 = DIRECTION ( 'NONE',  ( 0.0000000000000000000, -1.000000000000000000, 0.0000000000000000000 ) ) ;
#262 = CARTESIAN_POINT ( 'NONE',  ( 7.886624543798894112E-15, -2.766255513437875081E-16, 2.258819045102514078 ) ) ;
#263 = CC_DESIGN_PERSON_AND_ORGANIZATION_ASSIGNMENT ( #173, #387, ( #166 ) ) ;
#264 = CARTESIAN_POINT ( 'NONE',  ( -0.2999999999999999889, 0.3999999999999999667, 0.01500000000000112181 ) ) ;
#265 = DATE_AND_TIME ( #139, #134 ) ;
#266 = CLOSED_SHELL ( 'NONE', ( #1, #50, #126, #297, #351, #256, #339 ) ) ;
#267 = ADVANCED_FACE ( 'NONE', ( #22 ), #25, .T. ) ;
#268 = DIRECTION ( 'NONE',  ( 0.0000000000000000000, 1.000000000000000000, 0.0000000000000000000 ) ) ;
#269 = CARTESIAN_POINT ( 'NONE',  ( 7.035440243705123229E-16, -2.467700250662303432E-17, 0.2015030172275314169 ) ) ;
#270 = APPROVAL_STATUS ( 'not_yet_approved' ) ;
#271 = ORIENTED_EDGE ( 'NONE', *, *, #206, .F. ) ;
#272 = DIRECTION ( 'NONE',  ( -3.491481338843133355E-15, 1.224646799147353207E-16, -1.000000000000000000 ) ) ;
#273 = MECHANICAL_CONTEXT ( 'NONE', #317, 'mechanical' ) ;
#274 = ORIENTED_EDGE ( 'NONE', *, *, #143, .F. ) ;
#275 = VECTOR ( 'NONE', #261, 1000.000000000000000 ) ;
#276 = FACE_BOUND ( 'NONE', #366, .T. ) ;
#277 = CARTESIAN_POINT ( 'NONE',  ( 0.0000000000000000000, 0.0000000000000000000, 0.0000000000000000000 ) ) ;
#278 = VERTEX_POINT ( 'NONE', #216 ) ;
#279 = APPROVAL_ROLE ( '' ) ;
#280 = EDGE_CURVE ( 'NONE', #55, #349, #396, .T. ) ;
#281 = CC_DESIGN_APPROVAL ( #253, ( #166 ) ) ;
#282 = ORIENTED_EDGE ( 'NONE', *, *, #308, .F. ) ;
#283 = ORIENTED_EDGE ( 'NONE', *, *, #280, .F. ) ;
#284 = ORIENTED_EDGE ( 'NONE', *, *, #110, .F. ) ;
#285 = APPROVAL ( #85, 'UNSPECIFIED' ) ;
#286 = AXIS2_PLACEMENT_3D ( 'NONE', #368, #388, #88 ) ;
#287 = CARTESIAN_POINT ( 'NONE',  ( -0.3000000000000000444, 0.0000000000000000000, 1.047444401652940007E-15 ) ) ;
#288 = LOCAL_TIME ( 14, 1, 2.000000000000000000, #23 ) ;
#289 = CARTESIAN_POINT ( 'NONE',  ( 2.365919782978951696E-32, 0.5000000000000000000, 6.776263578034402713E-18 ) ) ;
#290 = ORIENTED_EDGE ( 'NONE', *, *, #335, .F. ) ;
#291 = CARTESIAN_POINT ( 'NONE',  ( 2.365919782978951696E-32, 0.5000000000000000000, 6.776263578034402713E-18 ) ) ;
#292 = AXIS2_PLACEMENT_3D ( 'NONE', #113, #331, #170 ) ;
#293 = CARTESIAN_POINT ( 'NONE',  ( 0.0000000000000000000, 0.0000000000000000000, 0.0000000000000000000 ) ) ;
#294 = APPROVAL ( #237, 'UNSPECIFIED' ) ;
#295 = CALENDAR_DATE ( 2021, 3, 12 ) ;
#296 = CARTESIAN_POINT ( 'NONE',  ( 1.595606971851311880E-13, -5.596635872103403844E-15, 45.69999999999999574 ) ) ;
#297 = ADVANCED_FACE ( 'NONE', ( #242, #364 ), #61, .T. ) ;
#298 = DIRECTION ( 'NONE',  ( 3.209883240645392796E-31, 1.000000000000000000, 9.035018104045869462E-17 ) ) ;
#299 = CIRCLE ( 'NONE', #127, 1.500000000000004441 ) ;
#300 = CARTESIAN_POINT ( 'NONE',  ( 7.035440243705097591E-16, 0.5000000000000000000, 0.2015030172275306675 ) ) ;
#301 = DIRECTION ( 'NONE',  ( -3.491481338843133355E-15, 1.224646799147353207E-16, -1.000000000000000000 ) ) ;
#302 = VERTEX_POINT ( 'NONE', #203 ) ;
#303 = CARTESIAN_POINT ( 'NONE',  ( 7.035440243705123229E-16, -2.467700250662303432E-17, 0.2015030172275314169 ) ) ;
#304 = ORIENTED_EDGE ( 'NONE', *, *, #348, .T. ) ;
#305 = DIRECTION ( 'NONE',  ( -4.275831445896958607E-31, -1.000000000000000000, -1.224646799147353207E-16 ) ) ;
#306 = DIRECTION ( 'NONE',  ( 3.491481338843133355E-15, -1.224646799147353207E-16, 1.000000000000000000 ) ) ;
#307 = PERSON_AND_ORGANIZATION_ROLE ( 'design_owner' ) ;
#308 = EDGE_CURVE ( 'NONE', #125, #125, #40, .T. ) ;
#309 = DIRECTION ( 'NONE',  ( -3.491481338843133355E-15, 1.224646799147353207E-16, -1.000000000000000000 ) ) ;
#310 = AXIS2_PLACEMENT_3D ( 'NONE', #341, #184, #60 ) ;
#311 =( GEOMETRIC_REPRESENTATION_CONTEXT ( 3 ) GLOBAL_UNCERTAINTY_ASSIGNED_CONTEXT ( ( #357 ) ) GLOBAL_UNIT_ASSIGNED_CONTEXT ( ( #246, #369, #3 ) ) REPRESENTATION_CONTEXT ( 'NONE', 'WORKASPACE' ) );
#312 = ORIENTED_EDGE ( 'NONE', *, *, #324, .F. ) ;
#313 = ORIENTED_EDGE ( 'NONE', *, *, #280, .T. ) ;
#314 = CARTESIAN_POINT ( 'NONE',  ( 6.982962677686266711E-15, -2.168404344971008868E-16, 2.000000000000000000 ) ) ;
#315 = CC_DESIGN_SECURITY_CLASSIFICATION ( #192, ( #166 ) ) ;
#316 = DIRECTION ( 'NONE',  ( -3.491481338843133355E-15, 1.224646799147353207E-16, -1.000000000000000000 ) ) ;
#317 = APPLICATION_CONTEXT ( 'configuration controlled 3d designs of mechanical parts and assemblies' ) ;
#318 = EDGE_LOOP ( 'NONE', ( #394, #274, #10, #375 ) ) ;
#319 = CARTESIAN_POINT ( 'NONE',  ( -1.924124150653631066E-31, 6.748919021978357867E-33, -5.510910596163088939E-17 ) ) ;
#320 = CC_DESIGN_DATE_AND_TIME_ASSIGNMENT ( #181, #28, ( #77 ) ) ;
#321 = AXIS2_PLACEMENT_3D ( 'NONE', #81, #323, #179 ) ;
#322 = APPROVAL_DATE_TIME ( #80, #294 ) ;
#323 = DIRECTION ( 'NONE',  ( -3.491481338843133355E-15, 1.224646799147353207E-16, -1.000000000000000000 ) ) ;
#324 = EDGE_CURVE ( 'NONE', #122, #122, #299, .T. ) ;
#325 = DIRECTION ( 'NONE',  ( -2.381184547279827482E-15, 0.7313537016191723472, -0.6819983600624965892 ) ) ;
#326 = PLANE ( 'NONE',  #374 ) ;
#327 = CIRCLE ( 'NONE', #156, 1.499999999999996669 ) ;
#328 = LOCAL_TIME ( 14, 1, 2.000000000000000000, #120 ) ;
#329 = FACE_OUTER_BOUND ( 'NONE', #101, .T. ) ;
#330 = ORIENTED_EDGE ( 'NONE', *, *, #197, .F. ) ;
#331 = DIRECTION ( 'NONE',  ( -3.491481338843133355E-15, 1.224646799147353207E-16, -1.000000000000000000 ) ) ;
#332 = APPROVAL_DATE_TIME ( #5, #285 ) ;
#333 = VERTEX_POINT ( 'NONE', #264 ) ;
#334 = CARTESIAN_POINT ( 'NONE',  ( 7.886624543798894112E-15, 0.3340741737109299558, 2.258819045102514078 ) ) ;
#335 = EDGE_CURVE ( 'NONE', #340, #340, #84, .T. ) ;
#336 = PRODUCT ( '997989', '997989', '', ( #273 ) ) ;
#337 = AXIS2_PLACEMENT_3D ( 'NONE', #314, #41, #162 ) ;
#338 = CARTESIAN_POINT ( 'NONE',  ( 2.307908781651452348E-14, -8.095054298958415160E-16, 6.610113466670151539 ) ) ;
#339 = ADVANCED_FACE ( 'NONE', ( #205 ), #236, .T. ) ;
#340 = VERTEX_POINT ( 'NONE', #248 ) ;
#341 = CARTESIAN_POINT ( 'NONE',  ( 0.0000000000000000000, 0.0000000000000000000, 0.0000000000000000000 ) ) ;
#342 = ORIENTED_EDGE ( 'NONE', *, *, #217, .F. ) ;
#343 = ORIENTED_EDGE ( 'NONE', *, *, #244, .T. ) ;
#344 = EDGE_LOOP ( 'NONE', ( #223, #194, #11, #215 ) ) ;
#345 = CARTESIAN_POINT ( 'NONE',  ( 7.035440243705097591E-16, 0.5000000000000000000, 0.2015030172275306675 ) ) ;
#346 = AXIS2_PLACEMENT_3D ( 'NONE', #130, #200, #259 ) ;
#347 = DIRECTION ( 'NONE',  ( 4.333342374871280669E-31, 1.000000000000000000, 1.219727444046192488E-16 ) ) ;
#348 = EDGE_CURVE ( 'NONE', #350, #333, #147, .T. ) ;
#349 = VERTEX_POINT ( 'NONE', #189 ) ;
#350 = VERTEX_POINT ( 'NONE', #247 ) ;
#351 = ADVANCED_FACE ( 'NONE', ( #91, #94 ), #65, .T. ) ;
#352 = CARTESIAN_POINT ( 'NONE',  ( 5.237222008264704840E-17, -1.836970198721031521E-18, 0.01500000000000001332 ) ) ;
#353 = VECTOR ( 'NONE', #20, 1000.000000000000000 ) ;
#354 = SHAPE_DEFINITION_REPRESENTATION ( #183, #241 ) ;
#355 = FACE_OUTER_BOUND ( 'NONE', #318, .T. ) ;
#356 = DATE_AND_TIME ( #295, #104 ) ;
#357 = UNCERTAINTY_MEASURE_WITH_UNIT (LENGTH_MEASURE( 1.000000000000000082E-05 ), #246, 'distance_accuracy_value', 'NONE');
#358 = CARTESIAN_POINT ( 'NONE',  ( 1.606081415867841091E-13, -5.633375276077824704E-15, 46.00000000000000000 ) ) ;
#359 = APPROVAL_ROLE ( '' ) ;
#360 = DIRECTION ( 'NONE',  ( -3.491481338843133355E-15, 1.224646799147353207E-16, -1.000000000000000000 ) ) ;
#361 = CIRCLE ( 'NONE', #240, 0.3000000000000000444 ) ;
#362 = AXIS2_PLACEMENT_3D ( 'NONE', #358, #306, #305 ) ;
#363 = ORIENTED_EDGE ( 'NONE', *, *, #43, .F. ) ;
#364 = FACE_BOUND ( 'NONE', #178, .T. ) ;
#365 = APPLICATION_CONTEXT ( 'configuration controlled 3d designs of mechanical parts and assemblies' ) ;
#366 = EDGE_LOOP ( 'NONE', ( #100 ) ) ;
#367 = ADVANCED_FACE ( 'NONE', ( #372 ), #31, .T. ) ;
#368 = CARTESIAN_POINT ( 'NONE',  ( 7.886624543798894112E-15, -2.766255513437875081E-16, 2.258819045102514078 ) ) ;
#369 =( NAMED_UNIT ( * ) PLANE_ANGLE_UNIT ( ) SI_UNIT ( $, .RADIAN. ) );
#370 = CARTESIAN_POINT ( 'NONE',  ( -0.2999999999999995448, 0.1477771010601811874, 0.1734415491245232255 ) ) ;
#371 = CIRCLE ( 'NONE', #202, 0.5000000000000000000 ) ;
#372 = FACE_OUTER_BOUND ( 'NONE', #193, .T. ) ;
#373 = ORIENTED_EDGE ( 'NONE', *, *, #377, .F. ) ;
#374 = AXIS2_PLACEMENT_3D ( 'NONE', #51, #56, #148 ) ;
#375 = ORIENTED_EDGE ( 'NONE', *, *, #107, .F. ) ;
#376 = FACE_OUTER_BOUND ( 'NONE', #7, .T. ) ;
#377 = EDGE_CURVE ( 'NONE', #397, #397, #327, .T. ) ;
#378 = CARTESIAN_POINT ( 'NONE',  ( 5.237222008264751679E-17, 0.5000000000000000000, 0.01500000000000014863 ) ) ;
#379 = MANIFOLD_SOLID_BREP ( 'Corps-Déplacer/Copier1[2]', #266 ) ;
#380 = AXIS2_PLACEMENT_3D ( 'NONE', #38, #105, #131 ) ;
#381 = EDGE_LOOP ( 'NONE', ( #373 ) ) ;
#382 = FACE_OUTER_BOUND ( 'NONE', #344, .T. ) ;
#383 = ADVANCED_FACE ( 'NONE', ( #154 ), #63, .T. ) ;
#384 = CARTESIAN_POINT ( 'NONE',  ( -0.3000000000000000444, 0.0000000000000000000, 1.047444401652940007E-15 ) ) ;
#385 = DIRECTION ( 'NONE',  ( -3.491481338843133355E-15, 1.224646799147353207E-16, -1.000000000000000000 ) ) ;
#386 = VECTOR ( 'NONE', #70, 1000.000000000000000 ) ;
#387 = PERSON_AND_ORGANIZATION_ROLE ( 'design_supplier' ) ;
#388 = DIRECTION ( 'NONE',  ( 3.491481338843133355E-15, -1.224646799147353207E-16, 1.000000000000000000 ) ) ;
#389 = PERSON_AND_ORGANIZATION_ROLE ( 'classification_officer' ) ;
#390 = EDGE_LOOP ( 'NONE', ( #96 ) ) ;
#391 = CARTESIAN_POINT ( 'NONE',  ( 7.035440243705094632E-16, -0.3000000000000000444, 0.2015030172275305842 ) ) ;
#392 = VECTOR ( 'NONE', #199, 1000.000000000000000 ) ;
#393 = PERSON_AND_ORGANIZATION ( #57, #232 ) ;
#394 = ORIENTED_EDGE ( 'NONE', *, *, #27, .T. ) ;
#395 = CC_DESIGN_PERSON_AND_ORGANIZATION_ASSIGNMENT ( #393, #307, ( #336 ) ) ;
#396 = LINE ( 'NONE', #391, #231 ) ;
#397 = VERTEX_POINT ( 'NONE', #64 ) ;
ENDSEC;
END-ISO-10303-21;
