ISO-10303-21;
HEADER;
FILE_DESCRIPTION (( 'STEP AP203' ),
    '1' );
FILE_NAME ('997988.step',
    '2021-12-03T13:01:02',
    ( '' ),
    ( '' ),
    'SwSTEP 2.0',
    'SolidWorks 2019',
    '' );
FILE_SCHEMA (( 'CONFIG_CONTROL_DESIGN' ));
ENDSEC;

DATA;
#1 = CARTESIAN_POINT ( 'NONE',  ( 0.0000000000000000000, 0.0000000000000000000, 0.0000000000000000000 ) ) ;
#2 = FACE_OUTER_BOUND ( 'NONE', #245, .T. ) ;
#3 = CC_DESIGN_SECURITY_CLASSIFICATION ( #171, ( #148 ) ) ;
#4 = CARTESIAN_POINT ( 'NONE',  ( 7.035440243705097591E-16, 0.5000000000000000000, 0.2015030172275306675 ) ) ;
#5 = CARTESIAN_POINT ( 'NONE',  ( 4.395143204955762335E-15, -1.541608714290522121E-16, 1.258819045102514522 ) ) ;
#6 = DIRECTION ( 'NONE',  ( -3.491481338843133355E-15, 1.224646799147353207E-16, -1.000000000000000000 ) ) ;
#7 = AXIS2_PLACEMENT_3D ( 'NONE', #275, #315, #130 ) ;
#8 = DIRECTION ( 'NONE',  ( -4.275831445896958607E-31, -1.000000000000000000, -1.224646799147353207E-16 ) ) ;
#9 = VERTEX_POINT ( 'NONE', #261 ) ;
#10 = CARTESIAN_POINT ( 'NONE',  ( -0.2999999999999999889, 0.3999999999999999667, 0.01500000000000112181 ) ) ;
#11 = AXIS2_PLACEMENT_3D ( 'NONE', #292, #13, #202 ) ;
#12 = PLANE ( 'NONE',  #204 ) ;
#13 = DIRECTION ( 'NONE',  ( -3.491481338843133355E-15, 1.224646799147353207E-16, -1.000000000000000000 ) ) ;
#14 = CARTESIAN_POINT ( 'NONE',  ( 0.0000000000000000000, 0.0000000000000000000, 0.0000000000000000000 ) ) ;
#15 = B_SPLINE_CURVE_WITH_KNOTS ( 'NONE', 3,
 ( #351, #106, #262, #289, #136, #10 ),
 .UNSPECIFIED., .F., .F.,
 ( 4, 2, 4 ),
 ( 0.0006189401293541915358, 0.0008420887852314228039, 0.001065237441108654072 ),
 .UNSPECIFIED. ) ;
#16 = ORIENTED_EDGE ( 'NONE', *, *, #348, .F. ) ;
#17 = PERSON_AND_ORGANIZATION_ROLE ( 'design_owner' ) ;
#18 = DATE_TIME_ROLE ( 'classification_date' ) ;
#19 = ADVANCED_FACE ( 'NONE', ( #2, #36 ), #128, .T. ) ;
#20 = ORIENTED_EDGE ( 'NONE', *, *, #111, .T. ) ;
#21 = AXIS2_PLACEMENT_3D ( 'NONE', #342, #60, #194 ) ;
#22 = PERSON_AND_ORGANIZATION ( #382, #379 ) ;
#23 = ORIENTED_EDGE ( 'NONE', *, *, #258, .T. ) ;
#24 = CARTESIAN_POINT ( 'NONE',  ( 1.606081415867841091E-13, -5.633375276077824704E-15, 46.00000000000000000 ) ) ;
#25 = SECURITY_CLASSIFICATION_LEVEL ( 'unclassified' ) ;
#26 = ORIENTED_EDGE ( 'NONE', *, *, #197, .T. ) ;
#27 = FACE_OUTER_BOUND ( 'NONE', #355, .T. ) ;
#28 = PERSON_AND_ORGANIZATION ( #382, #379 ) ;
#29 = ORIENTED_EDGE ( 'NONE', *, *, #345, .F. ) ;
#30 = TOROIDAL_SURFACE ( 'NONE', #7, 1.300000000000000266, 1.000000000000000000 ) ;
#31 = CC_DESIGN_DATE_AND_TIME_ASSIGNMENT ( #328, #302, ( #208 ) ) ;
#32 = DIRECTION ( 'NONE',  ( 4.275831445896958607E-31, 1.000000000000000000, 1.224646799147353207E-16 ) ) ;
#33 = APPROVAL_DATE_TIME ( #53, #290 ) ;
#34 = EDGE_LOOP ( 'NONE', ( #324, #159, #179, #249 ) ) ;
#35 = CLOSED_SHELL ( 'NONE', ( #365, #190, #219, #173, #270, #55, #42 ) ) ;
#36 = FACE_OUTER_BOUND ( 'NONE', #239, .T. ) ;
#37 = DIRECTION ( 'NONE',  ( 1.000000000000000000, 0.0000000000000000000, -3.491481338843133355E-15 ) ) ;
#38 = DIRECTION ( 'NONE',  ( -3.491481338843133355E-15, 1.224646799147353207E-16, -1.000000000000000000 ) ) ;
#39 = DIRECTION ( 'NONE',  ( 3.491481338843133355E-15, -1.224646799147353207E-16, 1.000000000000000000 ) ) ;
#40 = EDGE_CURVE ( 'NONE', #277, #311, #288, .T. ) ;
#41 = DIRECTION ( 'NONE',  ( -3.491481338843133355E-15, 1.224646799147353207E-16, -1.000000000000000000 ) ) ;
#42 = ADVANCED_FACE ( 'NONE', ( #336 ), #162, .T. ) ;
#43 = APPROVAL_PERSON_ORGANIZATION ( #150, #137, #359 ) ;
#44 = VERTEX_POINT ( 'NONE', #226 ) ;
#45 = LINE ( 'NONE', #347, #330 ) ;
#46 = DIRECTION ( 'NONE',  ( 0.0000000000000000000, 1.000000000000000000, 0.0000000000000000000 ) ) ;
#47 = VERTEX_POINT ( 'NONE', #74 ) ;
#48 = CLOSED_SHELL ( 'NONE', ( #178, #19, #248, #126, #282, #69, #383 ) ) ;
#49 = ORIENTED_EDGE ( 'NONE', *, *, #167, .T. ) ;
#50 = PRODUCT ( '997988', '997988', '', ( #206 ) ) ;
#51 = PERSON_AND_ORGANIZATION ( #382, #379 ) ;
#52 = VERTEX_POINT ( 'NONE', #70 ) ;
#53 = DATE_AND_TIME ( #327, #129 ) ;
#54 = UNCERTAINTY_MEASURE_WITH_UNIT (LENGTH_MEASURE( 1.000000000000000082E-05 ), #240, 'distance_accuracy_value', 'NONE');
#55 = ADVANCED_FACE ( 'NONE', ( #218 ), #310, .F. ) ;
#56 = EDGE_LOOP ( 'NONE', ( #118, #86, #29, #213 ) ) ;
#57 = AXIS2_PLACEMENT_3D ( 'NONE', #246, #364, #376 ) ;
#58 = COORDINATED_UNIVERSAL_TIME_OFFSET ( 1, 0, .AHEAD. ) ;
#59 = VERTEX_POINT ( 'NONE', #222 ) ;
#60 = DIRECTION ( 'NONE',  ( -3.491481338843133355E-15, 1.224646799147353207E-16, -1.000000000000000000 ) ) ;
#61 = PERSON_AND_ORGANIZATION_ROLE ( 'creator' ) ;
#62 = ORIENTED_EDGE ( 'NONE', *, *, #371, .T. ) ;
#63 = CARTESIAN_POINT ( 'NONE',  ( 7.035440243705112382E-16, 0.3000000000000000444, 0.2015030172275310838 ) ) ;
#64 = DATE_AND_TIME ( #247, #368 ) ;
#65 = LINE ( 'NONE', #189, #100 ) ;
#66 = CIRCLE ( 'NONE', #165, 0.5000000000000000000 ) ;
#67 = EDGE_LOOP ( 'NONE', ( #274, #89, #366 ) ) ;
#68 = VECTOR ( 'NONE', #362, 1000.000000000000000 ) ;
#69 = ADVANCED_FACE ( 'NONE', ( #339, #127 ), #278, .T. ) ;
#70 = CARTESIAN_POINT ( 'NONE',  ( 7.035440243705122243E-16, -0.3000000000000000444, 0.2015030172275313891 ) ) ;
#71 = CARTESIAN_POINT ( 'NONE',  ( 7.035440243705112382E-16, 0.3000000000000000444, 0.2015030172275310838 ) ) ;
#72 = AXIS2_PLACEMENT_3D ( 'NONE', #90, #38, #155 ) ;
#73 = FACE_OUTER_BOUND ( 'NONE', #83, .T. ) ;
#74 = CARTESIAN_POINT ( 'NONE',  ( 1.606081415867841091E-13, 1.199999999999998845, 46.00000000000000000 ) ) ;
#75 = VECTOR ( 'NONE', #291, 999.9999999999998863 ) ;
#76 = CYLINDRICAL_SURFACE ( 'NONE', #158, 0.5000000000000000000 ) ;
#77 = CC_DESIGN_PERSON_AND_ORGANIZATION_ASSIGNMENT ( #156, #215, ( #171 ) ) ;
#78 = MANIFOLD_SOLID_BREP ( 'Corps-Déplacer/Copier1[1]', #35 ) ;
#79 = CARTESIAN_POINT ( 'NONE',  ( 4.395143204955762335E-15, -1.541608714290522121E-16, 1.258819045102514522 ) ) ;
#80 = DIRECTION ( 'NONE',  ( 4.275831445896958607E-31, 1.000000000000000000, 1.224646799147353207E-16 ) ) ;
#81 = FACE_OUTER_BOUND ( 'NONE', #112, .T. ) ;
#82 = SHAPE_DEFINITION_REPRESENTATION ( #146, #92 ) ;
#83 = EDGE_LOOP ( 'NONE', ( #62 ) ) ;
#84 = APPROVAL_ROLE ( '' ) ;
#85 = EDGE_LOOP ( 'NONE', ( #357, #393, #298, #207 ) ) ;
#86 = ORIENTED_EDGE ( 'NONE', *, *, #319, .F. ) ;
#87 = AXIS2_PLACEMENT_3D ( 'NONE', #395, #123, #374 ) ;
#88 = DIRECTION ( 'NONE',  ( 3.491481338843133355E-15, -1.224646799147353207E-16, 1.000000000000000000 ) ) ;
#89 = ORIENTED_EDGE ( 'NONE', *, *, #167, .F. ) ;
#90 = CARTESIAN_POINT ( 'NONE',  ( 1.958760647767139013E-14, -6.870407499811061706E-16, 5.610113466670151539 ) ) ;
#91 = DIRECTION ( 'NONE',  ( 0.0000000000000000000, 1.000000000000000000, 0.0000000000000000000 ) ) ;
#92 = ADVANCED_BREP_SHAPE_REPRESENTATION ( '997988', ( #78, #212, #286 ), #313 ) ;
#93 = DIRECTION ( 'NONE',  ( 3.491481338843133355E-15, -0.0000000000000000000, 1.000000000000000000 ) ) ;
#94 = CIRCLE ( 'NONE', #386, 0.3000000000000000444 ) ;
#95 = ORIENTED_EDGE ( 'NONE', *, *, #377, .T. ) ;
#96 = DIRECTION ( 'NONE',  ( 0.0000000000000000000, 1.000000000000000000, 0.0000000000000000000 ) ) ;
#97 = FACE_OUTER_BOUND ( 'NONE', #154, .T. ) ;
#98 = VECTOR ( 'NONE', #343, 1000.000000000000000 ) ;
#99 = APPROVAL ( #238, 'UNSPECIFIED' ) ;
#100 = VECTOR ( 'NONE', #250, 1000.000000000000000 ) ;
#101 = FACE_OUTER_BOUND ( 'NONE', #267, .T. ) ;
#102 = DIRECTION ( 'NONE',  ( 4.333342374871280669E-31, 1.000000000000000000, 1.219727444046192488E-16 ) ) ;
#103 = FACE_OUTER_BOUND ( 'NONE', #56, .T. ) ;
#104 = CC_DESIGN_PERSON_AND_ORGANIZATION_ASSIGNMENT ( #28, #61, ( #148 ) ) ;
#105 = AXIS2_PLACEMENT_3D ( 'NONE', #71, #284, #32 ) ;
#106 = CARTESIAN_POINT ( 'NONE',  ( -0.2999999999999994338, 0.07439615244401370786, 0.2015030172275325548 ) ) ;
#107 = VERTEX_POINT ( 'NONE', #260 ) ;
#108 = DIRECTION ( 'NONE',  ( 3.491481338843133355E-15, -1.224646799147353207E-16, 1.000000000000000000 ) ) ;
#109 = DIRECTION ( 'NONE',  ( 1.000000000000000000, 0.0000000000000000000, 0.0000000000000000000 ) ) ;
#110 = LOCAL_TIME ( 14, 1, 2.000000000000000000, #58 ) ;
#111 = EDGE_CURVE ( 'NONE', #311, #216, #65, .T. ) ;
#112 = EDGE_LOOP ( 'NONE', ( #272 ) ) ;
#113 = APPLICATION_PROTOCOL_DEFINITION ( 'international standard', 'config_control_design', 1994, #157 ) ;
#114 = DESIGN_CONTEXT ( 'detailed design', #157, 'design' ) ;
#115 = CALENDAR_DATE ( 2021, 3, 12 ) ;
#116 = AXIS2_PLACEMENT_3D ( 'NONE', #279, #335, #191 ) ;
#117 = ORIENTED_EDGE ( 'NONE', *, *, #358, .T. ) ;
#118 = ORIENTED_EDGE ( 'NONE', *, *, #389, .T. ) ;
#119 = CC_DESIGN_DATE_AND_TIME_ASSIGNMENT ( #124, #18, ( #171 ) ) ;
#120 = DIRECTION ( 'NONE',  ( -3.491481338843133355E-15, 1.224646799147353207E-16, -1.000000000000000000 ) ) ;
#121 = CIRCLE ( 'NONE', #176, 1.200000000000004396 ) ;
#122 = EDGE_LOOP ( 'NONE', ( #303 ) ) ;
#123 = DIRECTION ( 'NONE',  ( -3.491481338843133355E-15, 1.224646799147353207E-16, -1.000000000000000000 ) ) ;
#124 = DATE_AND_TIME ( #115, #181 ) ;
#125 = EDGE_LOOP ( 'NONE', ( #117, #205, #183, #234 ) ) ;
#126 = ADVANCED_FACE ( 'NONE', ( #101, #273 ), #161, .T. ) ;
#127 = FACE_OUTER_BOUND ( 'NONE', #331, .T. ) ;
#128 = CYLINDRICAL_SURFACE ( 'NONE', #221, 0.3000000000000000444 ) ;
#129 = LOCAL_TIME ( 14, 1, 2.000000000000000000, #299 ) ;
#130 = DIRECTION ( 'NONE',  ( 4.333560346773609638E-31, 1.000000000000000000, 1.224646799147353207E-16 ) ) ;
#131 = DIRECTION ( 'NONE',  ( -3.491481338843133355E-15, 1.224646799147353207E-16, -1.000000000000000000 ) ) ;
#132 = APPLICATION_CONTEXT ( 'configuration controlled 3d designs of mechanical parts and assemblies' ) ;
#133 = CYLINDRICAL_SURFACE ( 'NONE', #57, 0.3000000000000000444 ) ;
#134 = APPROVAL_PERSON_ORGANIZATION ( #237, #290, #84 ) ;
#135 = AXIS2_PLACEMENT_3D ( 'NONE', #1, #37, #369 ) ;
#136 = CARTESIAN_POINT ( 'NONE',  ( -0.2999999999999997669, 0.3403601881750946134, 0.05949201941018793932 ) ) ;
#137 = APPROVAL ( #153, 'UNSPECIFIED' ) ;
#138 = CARTESIAN_POINT ( 'NONE',  ( -0.2999999999999993228, 0.0000000000000000000, 0.2015030172275321108 ) ) ;
#139 = DIRECTION ( 'NONE',  ( 4.275831445896958607E-31, 1.000000000000000000, 1.224646799147353207E-16 ) ) ;
#140 = CIRCLE ( 'NONE', #373, 0.3340741737109300669 ) ;
#141 = CARTESIAN_POINT ( 'NONE',  ( 1.606081415867841091E-13, -5.633375276077824704E-15, 46.00000000000000000 ) ) ;
#142 = DIRECTION ( 'NONE',  ( -3.491481338843133355E-15, 1.224646799147353207E-16, -1.000000000000000000 ) ) ;
#143 =( NAMED_UNIT ( * ) SI_UNIT ( $, .STERADIAN. ) SOLID_ANGLE_UNIT ( ) );
#144 = ORIENTED_EDGE ( 'NONE', *, *, #111, .F. ) ;
#145 = PERSON_AND_ORGANIZATION ( #382, #379 ) ;
#146 = PRODUCT_DEFINITION_SHAPE ( 'NONE', 'NONE',  #208 ) ;
#147 = DATE_AND_TIME ( #243, #110 ) ;
#148 = PRODUCT_DEFINITION_FORMATION_WITH_SPECIFIED_SOURCE ( 'ANY', '', #50, .NOT_KNOWN. ) ;
#149 = ORIENTED_EDGE ( 'NONE', *, *, #193, .F. ) ;
#150 = PERSON_AND_ORGANIZATION ( #382, #379 ) ;
#151 = ORIENTED_EDGE ( 'NONE', *, *, #200, .F. ) ;
#152 = DIRECTION ( 'NONE',  ( 0.0000000000000000000, 1.000000000000000000, 0.0000000000000000000 ) ) ;
#153 = APPROVAL_STATUS ( 'not_yet_approved' ) ;
#154 = EDGE_LOOP ( 'NONE', ( #296 ) ) ;
#155 = DIRECTION ( 'NONE',  ( 0.0000000000000000000, 1.000000000000000000, 0.0000000000000000000 ) ) ;
#156 = PERSON_AND_ORGANIZATION ( #382, #379 ) ;
#157 = APPLICATION_CONTEXT ( 'configuration controlled 3d designs of mechanical parts and assemblies' ) ;
#158 = AXIS2_PLACEMENT_3D ( 'NONE', #229, #142, #139 ) ;
#159 = ORIENTED_EDGE ( 'NONE', *, *, #348, .T. ) ;
#160 = COORDINATED_UNIVERSAL_TIME_OFFSET ( 1, 0, .AHEAD. ) ;
#161 = CONICAL_SURFACE ( 'NONE', #259, 0.3340741737109300669, 0.2617993877991427465 ) ;
#162 = PLANE ( 'NONE',  #135 ) ;
#163 = DIRECTION ( 'NONE',  ( 4.275831445896958607E-31, 1.000000000000000000, 1.224646799147352961E-16 ) ) ;
#164 = DIRECTION ( 'NONE',  ( -3.491481338843133355E-15, 1.224646799147353207E-16, -1.000000000000000000 ) ) ;
#165 = AXIS2_PLACEMENT_3D ( 'NONE', #381, #41, #102 ) ;
#166 = CARTESIAN_POINT ( 'NONE',  ( 7.035440243705094632E-16, -0.3000000000000000444, 0.2015030172275305842 ) ) ;
#167 = EDGE_CURVE ( 'NONE', #59, #52, #214, .T. ) ;
#168 = PLANE ( 'NONE',  #281 ) ;
#169 = CARTESIAN_POINT ( 'NONE',  ( 3.491481338843134933E-15, -1.224646799147353947E-16, 1.000000000000000444 ) ) ;
#170 = FACE_OUTER_BOUND ( 'NONE', #186, .T. ) ;
#171 = SECURITY_CLASSIFICATION ( '', '', #25 ) ;
#172 = CARTESIAN_POINT ( 'NONE',  ( 4.395143204955762335E-15, 0.3340741737109299558, 1.258819045102514522 ) ) ;
#173 = ADVANCED_FACE ( 'NONE', ( #187 ), #340, .T. ) ;
#174 = CARTESIAN_POINT ( 'NONE',  ( 7.035440243705097591E-16, 0.5000000000000000000, 0.2015030172275306675 ) ) ;
#175 = DIRECTION ( 'NONE',  ( -3.491481338843133355E-15, 1.224646799147353207E-16, -1.000000000000000000 ) ) ;
#176 = AXIS2_PLACEMENT_3D ( 'NONE', #24, #285, #152 ) ;
#177 = CARTESIAN_POINT ( 'NONE',  ( -0.2999999999999999889, 0.3999999999999999667, 0.01500000000000112181 ) ) ;
#178 = ADVANCED_FACE ( 'NONE', ( #97 ), #308, .T. ) ;
#179 = ORIENTED_EDGE ( 'NONE', *, *, #389, .F. ) ;
#180 = ORIENTED_EDGE ( 'NONE', *, *, #230, .F. ) ;
#181 = LOCAL_TIME ( 14, 1, 2.000000000000000000, #269 ) ;
#182 = CC_DESIGN_PERSON_AND_ORGANIZATION_ASSIGNMENT ( #396, #306, ( #208 ) ) ;
#183 = ORIENTED_EDGE ( 'NONE', *, *, #200, .T. ) ;
#184 = ORIENTED_EDGE ( 'NONE', *, *, #377, .F. ) ;
#185 = CARTESIAN_POINT ( 'NONE',  ( 2.365919782978951696E-32, 0.5000000000000000000, 6.776263578034402713E-18 ) ) ;
#186 = EDGE_LOOP ( 'NONE', ( #307 ) ) ;
#187 = FACE_OUTER_BOUND ( 'NONE', #67, .T. ) ;
#188 = APPROVAL_ROLE ( '' ) ;
#189 = CARTESIAN_POINT ( 'NONE',  ( 2.365919782978951696E-32, 0.5000000000000000000, 6.776263578034402713E-18 ) ) ;
#190 = ADVANCED_FACE ( 'NONE', ( #257 ), #361, .T. ) ;
#191 = DIRECTION ( 'NONE',  ( -3.491481338843133355E-15, 0.0000000000000000000, -1.000000000000000000 ) ) ;
#192 = CARTESIAN_POINT ( 'NONE',  ( 1.595606971851311880E-13, -5.596635872103403844E-15, 45.69999999999999574 ) ) ;
#193 = EDGE_CURVE ( 'NONE', #107, #107, #94, .T. ) ;
#194 = DIRECTION ( 'NONE',  ( 4.333342374871280669E-31, 1.000000000000000000, 1.219727444046192488E-16 ) ) ;
#195 = LINE ( 'NONE', #242, #300 ) ;
#196 = DIRECTION ( 'NONE',  ( -3.491481338843133355E-15, 1.224646799147353207E-16, -1.000000000000000000 ) ) ;
#197 = EDGE_CURVE ( 'NONE', #44, #44, #228, .T. ) ;
#198 = VERTEX_POINT ( 'NONE', #172 ) ;
#199 = AXIS2_PLACEMENT_3D ( 'NONE', #380, #232, #46 ) ;
#200 = EDGE_CURVE ( 'NONE', #329, #277, #195, .T. ) ;
#201 = CARTESIAN_POINT ( 'NONE',  ( -0.3000000000000000444, 0.3999999999999999667, 1.047444401652940007E-15 ) ) ;
#202 = DIRECTION ( 'NONE',  ( 4.275831445896958607E-31, 1.000000000000000000, 1.224646799147353207E-16 ) ) ;
#203 = CARTESIAN_POINT ( 'NONE',  ( 0.0000000000000000000, 0.0000000000000000000, 0.0000000000000000000 ) ) ;
#204 = AXIS2_PLACEMENT_3D ( 'NONE', #141, #108, #8 ) ;
#205 = ORIENTED_EDGE ( 'NONE', *, *, #297, .T. ) ;
#206 = MECHANICAL_CONTEXT ( 'NONE', #132, 'mechanical' ) ;
#207 = ORIENTED_EDGE ( 'NONE', *, *, #40, .T. ) ;
#208 = PRODUCT_DEFINITION ( 'UNKNOWN', '', #148, #114 ) ;
#209 = EDGE_LOOP ( 'NONE', ( #23 ) ) ;
#210 = APPROVAL_DATE_TIME ( #147, #99 ) ;
#211 = APPROVAL_PERSON_ORGANIZATION ( #22, #99, #188 ) ;
#212 = MANIFOLD_SOLID_BREP ( 'Corps-Déplacer/Copier1[2]', #48 ) ;
#213 = ORIENTED_EDGE ( 'NONE', *, *, #297, .F. ) ;
#214 = LINE ( 'NONE', #4, #68 ) ;
#215 = PERSON_AND_ORGANIZATION_ROLE ( 'classification_officer' ) ;
#216 = VERTEX_POINT ( 'NONE', #185 ) ;
#217 = DIRECTION ( 'NONE',  ( 0.0000000000000000000, -1.000000000000000000, 0.0000000000000000000 ) ) ;
#218 = FACE_OUTER_BOUND ( 'NONE', #125, .T. ) ;
#219 = ADVANCED_FACE ( 'NONE', ( #314 ), #168, .T. ) ;
#220 = ORIENTED_EDGE ( 'NONE', *, *, #345, .T. ) ;
#221 = AXIS2_PLACEMENT_3D ( 'NONE', #312, #367, #163 ) ;
#222 = CARTESIAN_POINT ( 'NONE',  ( 7.035440243705096605E-16, 0.3000000000000000444, 0.2015030172275306397 ) ) ;
#223 = CIRCLE ( 'NONE', #199, 1.500000000000004441 ) ;
#224 = CARTESIAN_POINT ( 'NONE',  ( 5.237222008264751679E-17, 0.5000000000000000000, 0.01500000000000014863 ) ) ;
#225 = DIRECTION ( 'NONE',  ( 4.275831445896958607E-31, 1.000000000000000000, 1.224646799147353207E-16 ) ) ;
#226 = CARTESIAN_POINT ( 'NONE',  ( 1.958760647767139013E-14, 1.499999999999996003, 5.610113466670151539 ) ) ;
#227 = CYLINDRICAL_SURFACE ( 'NONE', #346, 1.500000000000000444 ) ;
#228 = CIRCLE ( 'NONE', #72, 1.499999999999996669 ) ;
#229 = CARTESIAN_POINT ( 'NONE',  ( 0.0000000000000000000, 0.0000000000000000000, 0.0000000000000000000 ) ) ;
#230 = EDGE_CURVE ( 'NONE', #344, #344, #293, .T. ) ;
#231 = DIRECTION ( 'NONE',  ( -3.491481338843133355E-15, 0.0000000000000000000, -1.000000000000000000 ) ) ;
#232 = DIRECTION ( 'NONE',  ( -3.491481338843133355E-15, 1.224646799147353207E-16, -1.000000000000000000 ) ) ;
#233 = LOCAL_TIME ( 14, 1, 2.000000000000000000, #325 ) ;
#234 = ORIENTED_EDGE ( 'NONE', *, *, #337, .F. ) ;
#235 = EDGE_CURVE ( 'NONE', #52, #311, #372, .T. ) ;
#236 = AXIS2_PLACEMENT_3D ( 'NONE', #192, #164, #91 ) ;
#237 = PERSON_AND_ORGANIZATION ( #382, #379 ) ;
#238 = APPROVAL_STATUS ( 'not_yet_approved' ) ;
#239 = EDGE_LOOP ( 'NONE', ( #180 ) ) ;
#240 =( LENGTH_UNIT ( ) NAMED_UNIT ( * ) SI_UNIT ( .MILLI., .METRE. ) );
#241 = VERTEX_POINT ( 'NONE', #224 ) ;
#242 = CARTESIAN_POINT ( 'NONE',  ( -0.3000000000000000444, 0.0000000000000000000, 1.047444401652940007E-15 ) ) ;
#243 = CALENDAR_DATE ( 2021, 3, 12 ) ;
#244 = AXIS2_PLACEMENT_3D ( 'NONE', #305, #131, #255 ) ;
#245 = EDGE_LOOP ( 'NONE', ( #388 ) ) ;
#246 = CARTESIAN_POINT ( 'NONE',  ( 1.745740669421566678E-15, 0.0000000000000000000, 0.5000000000000000000 ) ) ;
#247 = CALENDAR_DATE ( 2021, 3, 12 ) ;
#248 = ADVANCED_FACE ( 'NONE', ( #73, #27 ), #30, .F. ) ;
#249 = ORIENTED_EDGE ( 'NONE', *, *, #358, .F. ) ;
#250 = DIRECTION ( 'NONE',  ( 3.844619647340796608E-31, 1.000000000000000000, 1.101142831430590441E-16 ) ) ;
#251 = VECTOR ( 'NONE', #231, 1000.000000000000000 ) ;
#252 = CARTESIAN_POINT ( 'NONE',  ( 0.0000000000000000000, 0.0000000000000000000, 0.0000000000000000000 ) ) ;
#253 = CC_DESIGN_PERSON_AND_ORGANIZATION_ASSIGNMENT ( #145, #17, ( #50 ) ) ;
#254 = FACE_OUTER_BOUND ( 'NONE', #85, .T. ) ;
#255 = DIRECTION ( 'NONE',  ( 3.209883240645392796E-31, 1.000000000000000000, 9.035018104045869462E-17 ) ) ;
#256 = EDGE_CURVE ( 'NONE', #52, #271, #352, .T. ) ;
#257 = FACE_OUTER_BOUND ( 'NONE', #34, .T. ) ;
#258 = EDGE_CURVE ( 'NONE', #47, #47, #121, .T. ) ;
#259 = AXIS2_PLACEMENT_3D ( 'NONE', #5, #39, #334 ) ;
#260 = CARTESIAN_POINT ( 'NONE',  ( 3.491481338843134933E-15, 0.2999999999999999334, 1.000000000000000444 ) ) ;
#261 = CARTESIAN_POINT ( 'NONE',  ( 1.595606971851311880E-13, 1.499999999999998668, 45.69999999999999574 ) ) ;
#262 = CARTESIAN_POINT ( 'NONE',  ( -0.2999999999999995448, 0.1477771010601811874, 0.1734415491245232255 ) ) ;
#263 = CC_DESIGN_APPROVAL ( #99, ( #148 ) ) ;
#264 = EDGE_CURVE ( 'NONE', #271, #59, #341, .T. ) ;
#265 = DIRECTION ( 'NONE',  ( -3.491481338843133355E-15, 1.224646799147353207E-16, -1.000000000000000000 ) ) ;
#266 = CARTESIAN_POINT ( 'NONE',  ( -0.2999999999999982681, 0.0000000000000000000, 0.5000000000000011102 ) ) ;
#267 = EDGE_LOOP ( 'NONE', ( #26 ) ) ;
#268 = CC_DESIGN_APPROVAL ( #137, ( #171 ) ) ;
#269 = COORDINATED_UNIVERSAL_TIME_OFFSET ( 1, 0, .AHEAD. ) ;
#270 = ADVANCED_FACE ( 'NONE', ( #254 ), #133, .T. ) ;
#271 = VERTEX_POINT ( 'NONE', #138 ) ;
#272 = ORIENTED_EDGE ( 'NONE', *, *, #258, .F. ) ;
#273 = FACE_BOUND ( 'NONE', #122, .T. ) ;
#274 = ORIENTED_EDGE ( 'NONE', *, *, #256, .F. ) ;
#275 = CARTESIAN_POINT ( 'NONE',  ( 3.491481338843133355E-15, -2.168404344971008868E-16, 1.000000000000000000 ) ) ;
#276 = PERSON_AND_ORGANIZATION_ROLE ( 'design_supplier' ) ;
#277 = VERTEX_POINT ( 'NONE', #318 ) ;
#278 = CONICAL_SURFACE ( 'NONE', #236, 1.500000000000004441, 0.7853981633974453924 ) ;
#279 = CARTESIAN_POINT ( 'NONE',  ( -0.2999999999999982681, 0.0000000000000000000, 0.5000000000000011102 ) ) ;
#280 = DIRECTION ( 'NONE',  ( -1.000000000000000000, 0.0000000000000000000, 3.491481338843132961E-15 ) ) ;
#281 = AXIS2_PLACEMENT_3D ( 'NONE', #370, #196, #225 ) ;
#282 = ADVANCED_FACE ( 'NONE', ( #316, #170 ), #227, .T. ) ;
#283 = CARTESIAN_POINT ( 'NONE',  ( 7.035440243705123229E-16, -2.467700250662303432E-17, 0.2015030172275314169 ) ) ;
#284 = DIRECTION ( 'NONE',  ( -3.491481338843133355E-15, 1.224646799147353207E-16, -1.000000000000000000 ) ) ;
#285 = DIRECTION ( 'NONE',  ( -3.491481338843133355E-15, 1.224646799147353207E-16, -1.000000000000000000 ) ) ;
#286 = AXIS2_PLACEMENT_3D ( 'NONE', #14, #390, #109 ) ;
#287 = CARTESIAN_POINT ( 'NONE',  ( 1.680301730802310780E-15, -5.893705096847604409E-17, 0.4812575430688286193 ) ) ;
#288 = CIRCLE ( 'NONE', #338, 0.3000000000000000444 ) ;
#289 = CARTESIAN_POINT ( 'NONE',  ( -0.2999999999999996558, 0.2794754660134743940, 0.1022049553198486616 ) ) ;
#290 = APPROVAL ( #356, 'UNSPECIFIED' ) ;
#291 = DIRECTION ( 'NONE',  ( -2.381184547279827482E-15, 0.7313537016191723472, -0.6819983600624965892 ) ) ;
#292 = CARTESIAN_POINT ( 'NONE',  ( -1.924124150653631066E-31, 6.748919021978357867E-33, -5.510910596163088939E-17 ) ) ;
#293 = CIRCLE ( 'NONE', #244, 0.3000000000000000444 ) ;
#294 = DIRECTION ( 'NONE',  ( -3.491481338843133355E-15, 1.224646799147353207E-16, -1.000000000000000000 ) ) ;
#295 = PRODUCT_RELATED_PRODUCT_CATEGORY ( 'detail', '', ( #50 ) ) ;
#296 = ORIENTED_EDGE ( 'NONE', *, *, #230, .T. ) ;
#297 = EDGE_CURVE ( 'NONE', #326, #329, #45, .T. ) ;
#298 = ORIENTED_EDGE ( 'NONE', *, *, #337, .T. ) ;
#299 = COORDINATED_UNIVERSAL_TIME_OFFSET ( 1, 0, .AHEAD. ) ;
#300 = VECTOR ( 'NONE', #217, 1000.000000000000000 ) ;
#301 = ORIENTED_EDGE ( 'NONE', *, *, #235, .T. ) ;
#302 = DATE_TIME_ROLE ( 'creation_date' ) ;
#303 = ORIENTED_EDGE ( 'NONE', *, *, #371, .F. ) ;
#304 = CC_DESIGN_PERSON_AND_ORGANIZATION_ASSIGNMENT ( #51, #276, ( #148 ) ) ;
#305 = CARTESIAN_POINT ( 'NONE',  ( 7.035440243705123229E-16, -2.467700250662303432E-17, 0.2015030172275314169 ) ) ;
#306 = PERSON_AND_ORGANIZATION_ROLE ( 'creator' ) ;
#307 = ORIENTED_EDGE ( 'NONE', *, *, #197, .F. ) ;
#308 = PLANE ( 'NONE',  #105 ) ;
#309 = VECTOR ( 'NONE', #349, 1000.000000000000000 ) ;
#310 = PLANE ( 'NONE',  #116 ) ;
#311 = VERTEX_POINT ( 'NONE', #321 ) ;
#312 = CARTESIAN_POINT ( 'NONE',  ( 0.0000000000000000000, 0.0000000000000000000, 0.0000000000000000000 ) ) ;
#313 =( GEOMETRIC_REPRESENTATION_CONTEXT ( 3 ) GLOBAL_UNCERTAINTY_ASSIGNED_CONTEXT ( ( #54 ) ) GLOBAL_UNIT_ASSIGNED_CONTEXT ( ( #240, #387, #143 ) ) REPRESENTATION_CONTEXT ( 'NONE', 'WORKASPACE' ) );
#314 = FACE_OUTER_BOUND ( 'NONE', #363, .T. ) ;
#315 = DIRECTION ( 'NONE',  ( -3.491481338843133355E-15, 1.224646799147353207E-16, -1.000000000000000000 ) ) ;
#316 = FACE_OUTER_BOUND ( 'NONE', #385, .T. ) ;
#317 = CC_DESIGN_APPROVAL ( #290, ( #208 ) ) ;
#318 = CARTESIAN_POINT ( 'NONE',  ( -0.3000000000000000444, 0.0000000000000000000, 1.047444401652940007E-15 ) ) ;
#319 = EDGE_CURVE ( 'NONE', #216, #241, #378, .T. ) ;
#320 = LINE ( 'NONE', #266, #251 ) ;
#321 = CARTESIAN_POINT ( 'NONE',  ( -2.839103739574742144E-31, -0.3000000000000000444, -8.131516293641283255E-17 ) ) ;
#322 = CARTESIAN_POINT ( 'NONE',  ( 7.035440243705124215E-16, 0.3000000000000000444, 0.2015030172275314446 ) ) ;
#323 = AXIS2_PLACEMENT_3D ( 'NONE', #283, #6, #392 ) ;
#324 = ORIENTED_EDGE ( 'NONE', *, *, #264, .T. ) ;
#325 = COORDINATED_UNIVERSAL_TIME_OFFSET ( 1, 0, .AHEAD. ) ;
#326 = VERTEX_POINT ( 'NONE', #177 ) ;
#327 = CALENDAR_DATE ( 2021, 3, 12 ) ;
#328 = DATE_AND_TIME ( #391, #233 ) ;
#329 = VERTEX_POINT ( 'NONE', #201 ) ;
#330 = VECTOR ( 'NONE', #175, 1000.000000000000000 ) ;
#331 = EDGE_LOOP ( 'NONE', ( #184 ) ) ;
#332 = DIRECTION ( 'NONE',  ( -4.275831445896958607E-31, -1.000000000000000000, -1.224646799147353207E-16 ) ) ;
#333 = ORIENTED_EDGE ( 'NONE', *, *, #319, .T. ) ;
#334 = DIRECTION ( 'NONE',  ( 0.0000000000000000000, -1.000000000000000000, 0.0000000000000000000 ) ) ;
#335 = DIRECTION ( 'NONE',  ( 1.000000000000000000, 0.0000000000000000000, -3.491481338843133355E-15 ) ) ;
#336 = FACE_OUTER_BOUND ( 'NONE', #360, .T. ) ;
#337 = EDGE_CURVE ( 'NONE', #271, #277, #320, .T. ) ;
#338 = AXIS2_PLACEMENT_3D ( 'NONE', #252, #93, #280 ) ;
#339 = FACE_BOUND ( 'NONE', #209, .T. ) ;
#340 = PLANE ( 'NONE',  #375 ) ;
#341 = CIRCLE ( 'NONE', #323, 0.3000000000000000444 ) ;
#342 = CARTESIAN_POINT ( 'NONE',  ( 5.237222008264704840E-17, -1.836970198721031521E-18, 0.01500000000000001332 ) ) ;
#343 = DIRECTION ( 'NONE',  ( -3.491481338843133355E-15, 0.0000000000000000000, -1.000000000000000000 ) ) ;
#344 = VERTEX_POINT ( 'NONE', #322 ) ;
#345 = EDGE_CURVE ( 'NONE', #329, #216, #394, .T. ) ;
#346 = AXIS2_PLACEMENT_3D ( 'NONE', #203, #294, #80 ) ;
#347 = CARTESIAN_POINT ( 'NONE',  ( -0.3000000000000000444, 0.3999999999999999667, 1.096430273618834224E-15 ) ) ;
#348 = EDGE_CURVE ( 'NONE', #59, #241, #350, .T. ) ;
#349 = DIRECTION ( 'NONE',  ( 3.491481338843133355E-15, -0.0000000000000000000, 1.000000000000000000 ) ) ;
#350 = LINE ( 'NONE', #287, #75 ) ;
#351 = CARTESIAN_POINT ( 'NONE',  ( -0.2999999999999993228, 0.0000000000000000000, 0.2015030172275321108 ) ) ;
#352 = CIRCLE ( 'NONE', #87, 0.3000000000000000444 ) ;
#353 = APPLICATION_PROTOCOL_DEFINITION ( 'international standard', 'config_control_design', 1994, #132 ) ;
#354 = APPROVAL_DATE_TIME ( #64, #137 ) ;
#355 = EDGE_LOOP ( 'NONE', ( #149 ) ) ;
#356 = APPROVAL_STATUS ( 'not_yet_approved' ) ;
#357 = ORIENTED_EDGE ( 'NONE', *, *, #235, .F. ) ;
#358 = EDGE_CURVE ( 'NONE', #271, #326, #15, .T. ) ;
#359 = APPROVAL_ROLE ( '' ) ;
#360 = EDGE_LOOP ( 'NONE', ( #49, #301, #20, #333, #16 ) ) ;
#361 = CONICAL_SURFACE ( 'NONE', #21, 0.5000000000000000000, 0.8203047484373373610 ) ;
#362 = DIRECTION ( 'NONE',  ( -3.548879674468427571E-31, -1.000000000000000000, -1.016439536705160407E-16 ) ) ;
#363 = EDGE_LOOP ( 'NONE', ( #220, #144, #397, #151 ) ) ;
#364 = DIRECTION ( 'NONE',  ( -3.491481338843133355E-15, 0.0000000000000000000, -1.000000000000000000 ) ) ;
#365 = ADVANCED_FACE ( 'NONE', ( #103 ), #76, .T. ) ;
#366 = ORIENTED_EDGE ( 'NONE', *, *, #264, .F. ) ;
#367 = DIRECTION ( 'NONE',  ( -3.491481338843133355E-15, 1.224646799147353207E-16, -1.000000000000000000 ) ) ;
#368 = LOCAL_TIME ( 14, 1, 2.000000000000000000, #160 ) ;
#369 = DIRECTION ( 'NONE',  ( -3.491481338843133355E-15, 0.0000000000000000000, -1.000000000000000000 ) ) ;
#370 = CARTESIAN_POINT ( 'NONE',  ( 1.175853647621663661E-31, 0.5000000000000000000, 3.367778697655221258E-17 ) ) ;
#371 = EDGE_CURVE ( 'NONE', #198, #198, #140, .T. ) ;
#372 = LINE ( 'NONE', #166, #98 ) ;
#373 = AXIS2_PLACEMENT_3D ( 'NONE', #79, #265, #384 ) ;
#374 = DIRECTION ( 'NONE',  ( 3.209883240645392796E-31, 1.000000000000000000, 9.035018104045869462E-17 ) ) ;
#375 = AXIS2_PLACEMENT_3D ( 'NONE', #63, #88, #332 ) ;
#376 = DIRECTION ( 'NONE',  ( -1.000000000000000000, 0.0000000000000000000, 3.614007241618347587E-15 ) ) ;
#377 = EDGE_CURVE ( 'NONE', #9, #9, #223, .T. ) ;
#378 = LINE ( 'NONE', #174, #309 ) ;
#379 = ORGANIZATION ( 'UNSPECIFIED', 'UNSPECIFIED', '' ) ;
#380 = CARTESIAN_POINT ( 'NONE',  ( 1.595606971851311880E-13, -5.596635872103403844E-15, 45.69999999999999574 ) ) ;
#381 = CARTESIAN_POINT ( 'NONE',  ( 5.237222008264704840E-17, -1.836970198721031521E-18, 0.01500000000000001332 ) ) ;
#382 = PERSON ( 'UNSPECIFIED', 'UNSPECIFIED', 'UNSPECIFIED', ('UNSPECIFIED'), ('UNSPECIFIED'), ('UNSPECIFIED') ) ;
#383 = ADVANCED_FACE ( 'NONE', ( #81 ), #12, .T. ) ;
#384 = DIRECTION ( 'NONE',  ( 0.0000000000000000000, 1.000000000000000000, 0.0000000000000000000 ) ) ;
#385 = EDGE_LOOP ( 'NONE', ( #95 ) ) ;
#386 = AXIS2_PLACEMENT_3D ( 'NONE', #169, #120, #96 ) ;
#387 =( NAMED_UNIT ( * ) PLANE_ANGLE_UNIT ( ) SI_UNIT ( $, .RADIAN. ) );
#388 = ORIENTED_EDGE ( 'NONE', *, *, #193, .T. ) ;
#389 = EDGE_CURVE ( 'NONE', #326, #241, #66, .T. ) ;
#390 = DIRECTION ( 'NONE',  ( 0.0000000000000000000, 0.0000000000000000000, 1.000000000000000000 ) ) ;
#391 = CALENDAR_DATE ( 2021, 3, 12 ) ;
#392 = DIRECTION ( 'NONE',  ( 3.209883240645392796E-31, 1.000000000000000000, 9.035018104045869462E-17 ) ) ;
#393 = ORIENTED_EDGE ( 'NONE', *, *, #256, .T. ) ;
#394 = CIRCLE ( 'NONE', #11, 0.5000000000000000000 ) ;
#395 = CARTESIAN_POINT ( 'NONE',  ( 7.035440243705123229E-16, -2.467700250662303432E-17, 0.2015030172275314169 ) ) ;
#396 = PERSON_AND_ORGANIZATION ( #382, #379 ) ;
#397 = ORIENTED_EDGE ( 'NONE', *, *, #40, .F. ) ;
ENDSEC;
END-ISO-10303-21;
