ISO-10303-21;
HEADER;
FILE_DESCRIPTION (( 'STEP AP203' ),
    '1' );
FILE_NAME ('997987.step',
    '2021-12-03T13:01:01',
    ( '' ),
    ( '' ),
    'SwSTEP 2.0',
    'SolidWorks 2019',
    '' );
FILE_SCHEMA (( 'CONFIG_CONTROL_DESIGN' ));
ENDSEC;

DATA;
#1 = DIRECTION ( 'NONE',  ( -2.381184547279827482E-15, 0.7313537016191721252, -0.6819983600624967002 ) ) ;
#2 = DIRECTION ( 'NONE',  ( 1.000000000000000000, 0.0000000000000000000, -3.491481338843133355E-15 ) ) ;
#3 = CIRCLE ( 'NONE', #389, 1.499999999999996669 ) ;
#4 = ADVANCED_FACE ( 'NONE', ( #25 ), #150, .F. ) ;
#5 = PERSON_AND_ORGANIZATION ( #71, #274 ) ;
#6 = LINE ( 'NONE', #334, #102 ) ;
#7 = FACE_OUTER_BOUND ( 'NONE', #252, .T. ) ;
#8 = EDGE_LOOP ( 'NONE', ( #180 ) ) ;
#9 = CARTESIAN_POINT ( 'NONE',  ( 1.606081415867841091E-13, -5.633375276077824704E-15, 46.00000000000000000 ) ) ;
#10 = CARTESIAN_POINT ( 'NONE',  ( 6.384268439417260154E-16, -2.239299927583283592E-17, 0.1828527155047783015 ) ) ;
#11 = ORIENTED_EDGE ( 'NONE', *, *, #49, .T. ) ;
#12 = DIRECTION ( 'NONE',  ( 0.0000000000000000000, 1.000000000000000000, 0.0000000000000000000 ) ) ;
#13 = EDGE_LOOP ( 'NONE', ( #42, #33, #171, #11, #348 ) ) ;
#14 = ORIENTED_EDGE ( 'NONE', *, *, #185, .F. ) ;
#15 = EDGE_LOOP ( 'NONE', ( #222 ) ) ;
#16 = EDGE_LOOP ( 'NONE', ( #346 ) ) ;
#17 = APPROVAL_PERSON_ORGANIZATION ( #26, #154, #338 ) ;
#18 = ADVANCED_FACE ( 'NONE', ( #304 ), #397, .T. ) ;
#19 = ADVANCED_FACE ( 'NONE', ( #236 ), #130, .T. ) ;
#20 = DIRECTION ( 'NONE',  ( -3.491481338843133355E-15, 0.0000000000000000000, -1.000000000000000000 ) ) ;
#21 = CARTESIAN_POINT ( 'NONE',  ( 0.0000000000000000000, 0.0000000000000000000, 0.0000000000000000000 ) ) ;
#22 = PERSON_AND_ORGANIZATION_ROLE ( 'design_supplier' ) ;
#23 = DIRECTION ( 'NONE',  ( 4.334323283789601077E-31, 1.000000000000000000, 1.224646799147353207E-16 ) ) ;
#24 = VECTOR ( 'NONE', #209, 1000.000000000000000 ) ;
#25 = FACE_OUTER_BOUND ( 'NONE', #379, .T. ) ;
#26 = PERSON_AND_ORGANIZATION ( #71, #274 ) ;
#27 = SECURITY_CLASSIFICATION_LEVEL ( 'unclassified' ) ;
#28 = EDGE_CURVE ( 'NONE', #291, #105, #196, .T. ) ;
#29 = DIRECTION ( 'NONE',  ( 4.275831445896958607E-31, 1.000000000000000000, 1.224646799147352961E-16 ) ) ;
#30 = ADVANCED_FACE ( 'NONE', ( #109, #328 ), #387, .T. ) ;
#31 = AXIS2_PLACEMENT_3D ( 'NONE', #230, #229, #357 ) ;
#32 = CC_DESIGN_APPROVAL ( #154, ( #309 ) ) ;
#33 = ORIENTED_EDGE ( 'NONE', *, *, #83, .T. ) ;
#34 = CARTESIAN_POINT ( 'NONE',  ( 6.384268439417259168E-16, -0.2700000000000000178, 0.1828527155047782737 ) ) ;
#35 = CARTESIAN_POINT ( 'NONE',  ( -0.2699999999999982414, 0.0000000000000000000, 0.5000000000000009992 ) ) ;
#36 = CARTESIAN_POINT ( 'NONE',  ( 7.188328276030269019E-15, -2.521326153608404489E-16, 2.058819045102514345 ) ) ;
#37 = CC_DESIGN_PERSON_AND_ORGANIZATION_ASSIGNMENT ( #331, #363, ( #395 ) ) ;
#38 = CIRCLE ( 'NONE', #107, 0.2700000000000000178 ) ;
#39 = CARTESIAN_POINT ( 'NONE',  ( 7.188328276030269019E-15, -2.521326153608404489E-16, 2.058819045102514345 ) ) ;
#40 = ORIENTED_EDGE ( 'NONE', *, *, #287, .F. ) ;
#41 = FACE_OUTER_BOUND ( 'NONE', #96, .T. ) ;
#42 = ORIENTED_EDGE ( 'NONE', *, *, #131, .T. ) ;
#43 = DIRECTION ( 'NONE',  ( 4.275831445896958607E-31, 1.000000000000000000, 1.224646799147353207E-16 ) ) ;
#44 = VERTEX_POINT ( 'NONE', #140 ) ;
#45 = CIRCLE ( 'NONE', #157, 1.500000000000004441 ) ;
#46 = ORIENTED_EDGE ( 'NONE', *, *, #131, .F. ) ;
#47 = DIRECTION ( 'NONE',  ( 4.275831445896957731E-31, 1.000000000000000000, 1.224646799147353207E-16 ) ) ;
#48 = EDGE_LOOP ( 'NONE', ( #292, #125, #77, #385 ) ) ;
#49 = EDGE_CURVE ( 'NONE', #280, #44, #203, .T. ) ;
#50 = AXIS2_PLACEMENT_3D ( 'NONE', #208, #85, #310 ) ;
#51 = VECTOR ( 'NONE', #137, 1000.000000000000000 ) ;
#52 = APPROVAL_STATUS ( 'not_yet_approved' ) ;
#53 = DIRECTION ( 'NONE',  ( -3.491481338843133355E-15, 1.224646799147353207E-16, -1.000000000000000000 ) ) ;
#54 = APPLICATION_CONTEXT ( 'configuration controlled 3d designs of mechanical parts and assemblies' ) ;
#55 = PERSON_AND_ORGANIZATION ( #71, #274 ) ;
#56 = DIRECTION ( 'NONE',  ( -3.491481338843133355E-15, 1.224646799147353207E-16, -1.000000000000000000 ) ) ;
#57 = AXIS2_PLACEMENT_3D ( 'NONE', #267, #116, #233 ) ;
#58 = CARTESIAN_POINT ( 'NONE',  ( -0.2699999999999999623, 0.3599999999999999867, 0.01500000000000101599 ) ) ;
#59 = COORDINATED_UNIVERSAL_TIME_OFFSET ( 1, 0, .AHEAD. ) ;
#60 = DIRECTION ( 'NONE',  ( 0.0000000000000000000, 1.000000000000000000, 0.0000000000000000000 ) ) ;
#61 = AXIS2_PLACEMENT_3D ( 'NONE', #183, #214, #284 ) ;
#62 = DIRECTION ( 'NONE',  ( -3.943199638298254121E-31, -1.000000000000000000, -1.129377263005734114E-16 ) ) ;
#63 = ORIENTED_EDGE ( 'NONE', *, *, #69, .F. ) ;
#64 = CARTESIAN_POINT ( 'NONE',  ( 2.365919782978951696E-32, 0.4500000000000000111, 6.776263578034402713E-18 ) ) ;
#65 = VECTOR ( 'NONE', #143, 1000.000000000000000 ) ;
#66 = DIRECTION ( 'NONE',  ( -1.000000000000000000, 0.0000000000000000000, 3.614007241618347587E-15 ) ) ;
#67 = PRODUCT_DEFINITION_SHAPE ( 'NONE', 'NONE',  #395 ) ;
#68 = ORIENTED_EDGE ( 'NONE', *, *, #275, .F. ) ;
#69 = EDGE_CURVE ( 'NONE', #173, #173, #3, .T. ) ;
#70 = CARTESIAN_POINT ( 'NONE',  ( 6.284666409917641617E-15, -2.204364238465236562E-16, 1.800000000000000488 ) ) ;
#71 = PERSON ( 'UNSPECIFIED', 'UNSPECIFIED', 'UNSPECIFIED', ('UNSPECIFIED'), ('UNSPECIFIED'), ('UNSPECIFIED') ) ;
#72 = ORIENTED_EDGE ( 'NONE', *, *, #135, .F. ) ;
#73 = CYLINDRICAL_SURFACE ( 'NONE', #225, 1.500000000000000444 ) ;
#74 = AXIS2_PLACEMENT_3D ( 'NONE', #240, #278, #119 ) ;
#75 = APPROVAL_PERSON_ORGANIZATION ( #179, #303, #367 ) ;
#76 = CARTESIAN_POINT ( 'NONE',  ( 6.384268439417238461E-16, 0.4500000000000000111, 0.1828527155047777186 ) ) ;
#77 = ORIENTED_EDGE ( 'NONE', *, *, #112, .F. ) ;
#78 =( NAMED_UNIT ( * ) PLANE_ANGLE_UNIT ( ) SI_UNIT ( $, .RADIAN. ) );
#79 = DIRECTION ( 'NONE',  ( -3.491481338843133355E-15, 1.224646799147353207E-16, -1.000000000000000000 ) ) ;
#80 = CARTESIAN_POINT ( 'NONE',  ( 1.606081415867841091E-13, 1.199999999999998845, 46.00000000000000000 ) ) ;
#81 = CARTESIAN_POINT ( 'NONE',  ( 6.284666409917640040E-15, -2.168404344971008868E-16, 1.800000000000000044 ) ) ;
#82 = CIRCLE ( 'NONE', #87, 0.2700000000000000178 ) ;
#83 = EDGE_CURVE ( 'NONE', #194, #253, #257, .T. ) ;
#84 = PERSON_AND_ORGANIZATION_ROLE ( 'design_owner' ) ;
#85 = DIRECTION ( 'NONE',  ( -3.491481338843133355E-15, 1.224646799147353207E-16, -1.000000000000000000 ) ) ;
#86 = COORDINATED_UNIVERSAL_TIME_OFFSET ( 1, 0, .AHEAD. ) ;
#87 = AXIS2_PLACEMENT_3D ( 'NONE', #10, #311, #317 ) ;
#88 = EDGE_LOOP ( 'NONE', ( #168 ) ) ;
#89 = DATE_AND_TIME ( #266, #249 ) ;
#90 = CARTESIAN_POINT ( 'NONE',  ( -0.2699999999999995182, 0.1329994572116951213, 0.1575973612070944163 ) ) ;
#91 = CALENDAR_DATE ( 2021, 3, 12 ) ;
#92 = CARTESIAN_POINT ( 'NONE',  ( 1.595606971851311880E-13, -5.596635872103403844E-15, 45.69999999999999574 ) ) ;
#93 = APPROVAL_DATE_TIME ( #237, #303 ) ;
#94 = LINE ( 'NONE', #308, #296 ) ;
#95 = AXIS2_PLACEMENT_3D ( 'NONE', #36, #187, #123 ) ;
#96 = EDGE_LOOP ( 'NONE', ( #186, #337, #244, #167 ) ) ;
#97 = ADVANCED_FACE ( 'NONE', ( #261, #110 ), #212, .F. ) ;
#98 = DIRECTION ( 'NONE',  ( 0.0000000000000000000, -1.000000000000000000, 0.0000000000000000000 ) ) ;
#99 = DIRECTION ( 'NONE',  ( 0.0000000000000000000, 1.000000000000000000, 0.0000000000000000000 ) ) ;
#100 = FACE_OUTER_BOUND ( 'NONE', #48, .T. ) ;
#101 = ORIENTED_EDGE ( 'NONE', *, *, #28, .F. ) ;
#102 = VECTOR ( 'NONE', #1, 1000.000000000000000 ) ;
#103 = DIRECTION ( 'NONE',  ( -3.491481338843133355E-15, 1.224646799147353207E-16, -1.000000000000000000 ) ) ;
#104 = ORIENTED_EDGE ( 'NONE', *, *, #128, .T. ) ;
#105 = VERTEX_POINT ( 'NONE', #324 ) ;
#106 = ORIENTED_EDGE ( 'NONE', *, *, #182, .T. ) ;
#107 = AXIS2_PLACEMENT_3D ( 'NONE', #345, #221, #163 ) ;
#108 = CARTESIAN_POINT ( 'NONE',  ( 1.595606971851311880E-13, 1.499999999999998668, 45.69999999999999574 ) ) ;
#109 = FACE_OUTER_BOUND ( 'NONE', #16, .T. ) ;
#110 = FACE_OUTER_BOUND ( 'NONE', #377, .T. ) ;
#111 = DIRECTION ( 'NONE',  ( -3.491481338843133355E-15, 1.224646799147353207E-16, -1.000000000000000000 ) ) ;
#112 = EDGE_CURVE ( 'NONE', #374, #44, #290, .T. ) ;
#113 = AXIS2_PLACEMENT_3D ( 'NONE', #126, #103, #132 ) ;
#114 = LOCAL_TIME ( 14, 1, 1.000000000000000000, #86 ) ;
#115 = PERSON_AND_ORGANIZATION ( #71, #274 ) ;
#116 = DIRECTION ( 'NONE',  ( -3.491481338843133355E-15, 1.224646799147353207E-16, -1.000000000000000000 ) ) ;
#117 = PERSON_AND_ORGANIZATION ( #71, #274 ) ;
#118 = DIRECTION ( 'NONE',  ( -4.275831445896958607E-31, -1.000000000000000000, -1.224646799147353207E-16 ) ) ;
#119 = DIRECTION ( 'NONE',  ( -3.491481338843133355E-15, 0.0000000000000000000, -1.000000000000000000 ) ) ;
#120 = CARTESIAN_POINT ( 'NONE',  ( -0.2699999999999993516, 0.06695660321485746858, 0.1828527155048607633 ) ) ;
#121 = COORDINATED_UNIVERSAL_TIME_OFFSET ( 1, 0, .AHEAD. ) ;
#122 = APPROVAL_STATUS ( 'not_yet_approved' ) ;
#123 = DIRECTION ( 'NONE',  ( 0.0000000000000000000, 1.000000000000000000, 0.0000000000000000000 ) ) ;
#124 = AXIS2_PLACEMENT_3D ( 'NONE', #371, #314, #155 ) ;
#125 = ORIENTED_EDGE ( 'NONE', *, *, #174, .T. ) ;
#126 = CARTESIAN_POINT ( 'NONE',  ( 6.384268439417260154E-16, -2.239299927583283592E-17, 0.1828527155047783015 ) ) ;
#127 = FACE_OUTER_BOUND ( 'NONE', #15, .T. ) ;
#128 = EDGE_CURVE ( 'NONE', #374, #291, #205, .T. ) ;
#129 = EDGE_LOOP ( 'NONE', ( #353, #46, #72 ) ) ;
#130 = PLANE ( 'NONE',  #362 ) ;
#131 = EDGE_CURVE ( 'NONE', #164, #194, #94, .T. ) ;
#132 = DIRECTION ( 'NONE',  ( 3.566536934050436538E-31, 1.000000000000000000, 1.003890900449541079E-16 ) ) ;
#133 = VERTEX_POINT ( 'NONE', #273 ) ;
#134 = EDGE_LOOP ( 'NONE', ( #322 ) ) ;
#135 = EDGE_CURVE ( 'NONE', #133, #164, #272, .T. ) ;
#136 = EDGE_CURVE ( 'NONE', #133, #105, #149, .T. ) ;
#137 = DIRECTION ( 'NONE',  ( 4.271799608156441746E-31, 1.000000000000000000, 1.223492034922878459E-16 ) ) ;
#138 = AXIS2_PLACEMENT_3D ( 'NONE', #35, #2, #270 ) ;
#139 = VERTEX_POINT ( 'NONE', #198 ) ;
#140 = CARTESIAN_POINT ( 'NONE',  ( 5.237222008264718399E-17, 0.4500000000000000111, 0.01500000000000005322 ) ) ;
#141 = CC_DESIGN_PERSON_AND_ORGANIZATION_ASSIGNMENT ( #117, #147, ( #239 ) ) ;
#142 = VERTEX_POINT ( 'NONE', #80 ) ;
#143 = DIRECTION ( 'NONE',  ( 3.491481338843133355E-15, -0.0000000000000000000, 1.000000000000000000 ) ) ;
#144 = COORDINATED_UNIVERSAL_TIME_OFFSET ( 1, 0, .AHEAD. ) ;
#145 = AXIS2_PLACEMENT_3D ( 'NONE', #156, #347, #12 ) ;
#146 = APPROVAL_PERSON_ORGANIZATION ( #115, #201, #231 ) ;
#147 = PERSON_AND_ORGANIZATION_ROLE ( 'classification_officer' ) ;
#148 = PRODUCT_RELATED_PRODUCT_CATEGORY ( 'detail', '', ( #323 ) ) ;
#149 = LINE ( 'NONE', #177, #24 ) ;
#150 = PLANE ( 'NONE',  #138 ) ;
#151 = PERSON_AND_ORGANIZATION ( #71, #274 ) ;
#152 = CIRCLE ( 'NONE', #57, 1.200000000000004396 ) ;
#153 = APPROVAL_DATE_TIME ( #335, #154 ) ;
#154 = APPROVAL ( #122, 'UNSPECIFIED' ) ;
#155 = DIRECTION ( 'NONE',  ( 4.275831445896958607E-31, 1.000000000000000000, 1.224646799147352961E-16 ) ) ;
#156 = CARTESIAN_POINT ( 'NONE',  ( 1.595606971851311880E-13, -5.596635872103403844E-15, 45.69999999999999574 ) ) ;
#157 = AXIS2_PLACEMENT_3D ( 'NONE', #92, #56, #60 ) ;
#158 = CARTESIAN_POINT ( 'NONE',  ( -0.2700000000000000178, 0.3599999999999999867, 9.426999614876458482E-16 ) ) ;
#159 = ORIENTED_EDGE ( 'NONE', *, *, #28, .T. ) ;
#160 = CC_DESIGN_PERSON_AND_ORGANIZATION_ASSIGNMENT ( #55, #22, ( #309 ) ) ;
#161 = CARTESIAN_POINT ( 'NONE',  ( 1.745740669421566678E-15, 0.0000000000000000000, 0.5000000000000000000 ) ) ;
#162 = ORIENTED_EDGE ( 'NONE', *, *, #232, .T. ) ;
#163 = DIRECTION ( 'NONE',  ( -1.000000000000000000, 0.0000000000000000000, 3.491481338843132566E-15 ) ) ;
#164 = VERTEX_POINT ( 'NONE', #366 ) ;
#165 = CONICAL_SURFACE ( 'NONE', #145, 1.500000000000004441, 0.7853981633974453924 ) ;
#166 = ADVANCED_FACE ( 'NONE', ( #277 ), #364, .T. ) ;
#167 = ORIENTED_EDGE ( 'NONE', *, *, #263, .T. ) ;
#168 = ORIENTED_EDGE ( 'NONE', *, *, #355, .T. ) ;
#169 =( NAMED_UNIT ( * ) SI_UNIT ( $, .STERADIAN. ) SOLID_ANGLE_UNIT ( ) );
#170 = DIRECTION ( 'NONE',  ( 4.275831445896958607E-31, 1.000000000000000000, 1.224646799147353207E-16 ) ) ;
#171 = ORIENTED_EDGE ( 'NONE', *, *, #380, .T. ) ;
#172 = DIRECTION ( 'NONE',  ( -3.491481338843133355E-15, 1.224646799147353207E-16, -1.000000000000000000 ) ) ;
#173 = VERTEX_POINT ( 'NONE', #386 ) ;
#174 = EDGE_CURVE ( 'NONE', #164, #44, #6, .T. ) ;
#175 = DATE_AND_TIME ( #306, #184 ) ;
#176 = SHAPE_DEFINITION_REPRESENTATION ( #67, #358 ) ;
#177 = CARTESIAN_POINT ( 'NONE',  ( -0.2699999999999982414, 0.0000000000000000000, 0.5000000000000009992 ) ) ;
#178 =( GEOMETRIC_REPRESENTATION_CONTEXT ( 3 ) GLOBAL_UNCERTAINTY_ASSIGNED_CONTEXT ( ( #227 ) ) GLOBAL_UNIT_ASSIGNED_CONTEXT ( ( #388, #78, #169 ) ) REPRESENTATION_CONTEXT ( 'NONE', 'WORKASPACE' ) );
#179 = PERSON_AND_ORGANIZATION ( #71, #274 ) ;
#180 = ORIENTED_EDGE ( 'NONE', *, *, #287, .T. ) ;
#181 = LINE ( 'NONE', #382, #51 ) ;
#182 = EDGE_CURVE ( 'NONE', #133, #374, #211, .T. ) ;
#183 = CARTESIAN_POINT ( 'NONE',  ( 5.237222008264706689E-17, -1.836970198721031906E-18, 0.01500000000000001853 ) ) ;
#184 = LOCAL_TIME ( 14, 1, 1.000000000000000000, #59 ) ;
#185 = EDGE_CURVE ( 'NONE', #195, #195, #45, .T. ) ;
#186 = ORIENTED_EDGE ( 'NONE', *, *, #83, .F. ) ;
#187 = DIRECTION ( 'NONE',  ( -3.491481338843133355E-15, 1.224646799147353207E-16, -1.000000000000000000 ) ) ;
#188 = EDGE_LOOP ( 'NONE', ( #162, #228, #224, #101 ) ) ;
#189 = DIRECTION ( 'NONE',  ( -3.491481338843133355E-15, 1.224646799147353207E-16, -1.000000000000000000 ) ) ;
#190 = EDGE_LOOP ( 'NONE', ( #368 ) ) ;
#191 = CARTESIAN_POINT ( 'NONE',  ( 0.0000000000000000000, 0.0000000000000000000, 0.0000000000000000000 ) ) ;
#192 = CC_DESIGN_DATE_AND_TIME_ASSIGNMENT ( #89, #392, ( #239 ) ) ;
#193 = VECTOR ( 'NONE', #20, 1000.000000000000000 ) ;
#194 = VERTEX_POINT ( 'NONE', #34 ) ;
#195 = VERTEX_POINT ( 'NONE', #108 ) ;
#196 = LINE ( 'NONE', #255, #238 ) ;
#197 = ORIENTED_EDGE ( 'NONE', *, *, #49, .F. ) ;
#198 = CARTESIAN_POINT ( 'NONE',  ( 6.384268439417261140E-16, 0.2700000000000000178, 0.1828527155047783292 ) ) ;
#199 = CARTESIAN_POINT ( 'NONE',  ( 6.384268439417249308E-16, 0.2700000000000000178, 0.1828527155047780239 ) ) ;
#200 = ORIENTED_EDGE ( 'NONE', *, *, #232, .F. ) ;
#201 = APPROVAL ( #207, 'UNSPECIFIED' ) ;
#202 = CIRCLE ( 'NONE', #283, 0.2700000000000000733 ) ;
#203 = LINE ( 'NONE', #76, #65 ) ;
#204 = EDGE_CURVE ( 'NONE', #142, #142, #152, .T. ) ;
#205 = LINE ( 'NONE', #330, #326 ) ;
#206 = CARTESIAN_POINT ( 'NONE',  ( 0.0000000000000000000, 0.0000000000000000000, 0.0000000000000000000 ) ) ;
#207 = APPROVAL_STATUS ( 'not_yet_approved' ) ;
#208 = CARTESIAN_POINT ( 'NONE',  ( 6.384268439417260154E-16, -2.239299927583283592E-17, 0.1828527155047783015 ) ) ;
#209 = DIRECTION ( 'NONE',  ( -3.491481338843133355E-15, 0.0000000000000000000, -1.000000000000000000 ) ) ;
#210 = CALENDAR_DATE ( 2021, 3, 12 ) ;
#211 = B_SPLINE_CURVE_WITH_KNOTS ( 'NONE', 3,
 ( #393, #120, #90, #336, #339, #58 ),
 .UNSPECIFIED., .F., .F.,
 ( 4, 2, 4 ),
 ( 0.0005570719008996510152, 0.0007579058484169498826, 0.0009587397959342489669 ),
 .UNSPECIFIED. ) ;
#212 = TOROIDAL_SURFACE ( 'NONE', #248, 1.270000000000000018, 1.000000000000000000 ) ;
#213 = PLANE ( 'NONE',  #265 ) ;
#214 = DIRECTION ( 'NONE',  ( -3.491481338843133355E-15, 1.224646799147353207E-16, -1.000000000000000000 ) ) ;
#215 = ADVANCED_FACE ( 'NONE', ( #361 ), #301, .T. ) ;
#216 = ADVANCED_FACE ( 'NONE', ( #235 ), #213, .T. ) ;
#217 = AXIS2_PLACEMENT_3D ( 'NONE', #21, #226, #47 ) ;
#218 = LOCAL_TIME ( 14, 1, 1.000000000000000000, #121 ) ;
#219 = EDGE_LOOP ( 'NONE', ( #14 ) ) ;
#220 = CC_DESIGN_PERSON_AND_ORGANIZATION_ASSIGNMENT ( #151, #84, ( #323 ) ) ;
#221 = DIRECTION ( 'NONE',  ( 3.491481338843133355E-15, -0.0000000000000000000, 1.000000000000000000 ) ) ;
#222 = ORIENTED_EDGE ( 'NONE', *, *, #204, .F. ) ;
#223 = CLOSED_SHELL ( 'NONE', ( #166, #349, #216, #215, #286, #4, #18 ) ) ;
#224 = ORIENTED_EDGE ( 'NONE', *, *, #263, .F. ) ;
#225 = AXIS2_PLACEMENT_3D ( 'NONE', #191, #281, #342 ) ;
#226 = DIRECTION ( 'NONE',  ( -3.491481338843133355E-15, 1.224646799147353207E-16, -1.000000000000000000 ) ) ;
#227 = UNCERTAINTY_MEASURE_WITH_UNIT (LENGTH_MEASURE( 1.000000000000000082E-05 ), #388, 'distance_accuracy_value', 'NONE');
#228 = ORIENTED_EDGE ( 'NONE', *, *, #380, .F. ) ;
#229 = DIRECTION ( 'NONE',  ( -3.491481338843133355E-15, 1.224646799147353207E-16, -1.000000000000000000 ) ) ;
#230 = CARTESIAN_POINT ( 'NONE',  ( 5.237222008264706689E-17, -1.836970198721031906E-18, 0.01500000000000001853 ) ) ;
#231 = APPROVAL_ROLE ( '' ) ;
#232 = EDGE_CURVE ( 'NONE', #291, #280, #243, .T. ) ;
#233 = DIRECTION ( 'NONE',  ( 0.0000000000000000000, 1.000000000000000000, 0.0000000000000000000 ) ) ;
#234 = DATE_AND_TIME ( #91, #313 ) ;
#235 = FACE_OUTER_BOUND ( 'NONE', #188, .T. ) ;
#236 = FACE_OUTER_BOUND ( 'NONE', #88, .T. ) ;
#237 = DATE_AND_TIME ( #210, #218 ) ;
#238 = VECTOR ( 'NONE', #258, 1000.000000000000000 ) ;
#239 = SECURITY_CLASSIFICATION ( '', '', #27 ) ;
#240 = CARTESIAN_POINT ( 'NONE',  ( 0.0000000000000000000, 0.0000000000000000000, 0.0000000000000000000 ) ) ;
#241 = PERSON_AND_ORGANIZATION_ROLE ( 'creator' ) ;
#242 = CARTESIAN_POINT ( 'NONE',  ( 1.068957861474239214E-31, 0.4500000000000000111, 3.061616997868382402E-17 ) ) ;
#243 = CIRCLE ( 'NONE', #124, 0.4500000000000000111 ) ;
#244 = ORIENTED_EDGE ( 'NONE', *, *, #136, .T. ) ;
#245 = FACE_OUTER_BOUND ( 'NONE', #134, .T. ) ;
#246 = EDGE_LOOP ( 'NONE', ( #40 ) ) ;
#247 = CARTESIAN_POINT ( 'NONE',  ( -2.839103739574742144E-31, -0.2700000000000000178, -8.131516293641283255E-17 ) ) ;
#248 = AXIS2_PLACEMENT_3D ( 'NONE', #81, #111, #23 ) ;
#249 = LOCAL_TIME ( 14, 1, 1.000000000000000000, #144 ) ;
#250 = EDGE_LOOP ( 'NONE', ( #63 ) ) ;
#251 = FACE_OUTER_BOUND ( 'NONE', #250, .T. ) ;
#252 = EDGE_LOOP ( 'NONE', ( #288 ) ) ;
#253 = VERTEX_POINT ( 'NONE', #247 ) ;
#254 = CARTESIAN_POINT ( 'NONE',  ( 7.188328276030269019E-15, 0.3040741737109298737, 2.058819045102514345 ) ) ;
#255 = CARTESIAN_POINT ( 'NONE',  ( -0.2700000000000000178, 0.0000000000000000000, 9.426999614876458482E-16 ) ) ;
#256 = CIRCLE ( 'NONE', #113, 0.2700000000000000178 ) ;
#257 = LINE ( 'NONE', #293, #193 ) ;
#258 = DIRECTION ( 'NONE',  ( 0.0000000000000000000, -1.000000000000000000, 0.0000000000000000000 ) ) ;
#259 = ORIENTED_EDGE ( 'NONE', *, *, #204, .T. ) ;
#260 = CARTESIAN_POINT ( 'NONE',  ( 6.284666409917641617E-15, 0.2699999999999998512, 1.800000000000000488 ) ) ;
#261 = FACE_OUTER_BOUND ( 'NONE', #8, .T. ) ;
#262 = CC_DESIGN_DATE_AND_TIME_ASSIGNMENT ( #175, #300, ( #395 ) ) ;
#263 = EDGE_CURVE ( 'NONE', #105, #253, #38, .T. ) ;
#264 = APPLICATION_CONTEXT ( 'configuration controlled 3d designs of mechanical parts and assemblies' ) ;
#265 = AXIS2_PLACEMENT_3D ( 'NONE', #242, #189, #43 ) ;
#266 = CALENDAR_DATE ( 2021, 3, 12 ) ;
#267 = CARTESIAN_POINT ( 'NONE',  ( 1.606081415867841091E-13, -5.633375276077824704E-15, 46.00000000000000000 ) ) ;
#268 = DIRECTION ( 'NONE',  ( 1.000000000000000000, 0.0000000000000000000, 0.0000000000000000000 ) ) ;
#269 = CARTESIAN_POINT ( 'NONE',  ( 6.384268439417249308E-16, 0.2700000000000000178, 0.1828527155047780239 ) ) ;
#270 = DIRECTION ( 'NONE',  ( -3.491481338843133355E-15, 0.0000000000000000000, -1.000000000000000000 ) ) ;
#271 = DIRECTION ( 'NONE',  ( -3.491481338843133355E-15, 1.224646799147353207E-16, -1.000000000000000000 ) ) ;
#272 = CIRCLE ( 'NONE', #50, 0.2700000000000000178 ) ;
#273 = CARTESIAN_POINT ( 'NONE',  ( -0.2699999999999993516, 0.0000000000000000000, 0.1828527155047789399 ) ) ;
#274 = ORGANIZATION ( 'UNSPECIFIED', 'UNSPECIFIED', '' ) ;
#275 = EDGE_CURVE ( 'NONE', #295, #295, #202, .T. ) ;
#276 = APPROVAL_DATE_TIME ( #234, #201 ) ;
#277 = FACE_OUTER_BOUND ( 'NONE', #315, .T. ) ;
#278 = DIRECTION ( 'NONE',  ( 1.000000000000000000, 0.0000000000000000000, -3.491481338843133355E-15 ) ) ;
#279 = EDGE_CURVE ( 'NONE', #194, #133, #82, .T. ) ;
#280 = VERTEX_POINT ( 'NONE', #64 ) ;
#281 = DIRECTION ( 'NONE',  ( -3.491481338843133355E-15, 1.224646799147353207E-16, -1.000000000000000000 ) ) ;
#282 = PLANE ( 'NONE',  #369 ) ;
#283 = AXIS2_PLACEMENT_3D ( 'NONE', #70, #343, #99 ) ;
#284 = DIRECTION ( 'NONE',  ( 4.279844320860524021E-31, 1.000000000000000000, 1.242314989306307082E-16 ) ) ;
#285 = FACE_OUTER_BOUND ( 'NONE', #219, .T. ) ;
#286 = ADVANCED_FACE ( 'NONE', ( #41 ), #378, .T. ) ;
#287 = EDGE_CURVE ( 'NONE', #320, #320, #356, .T. ) ;
#288 = ORIENTED_EDGE ( 'NONE', *, *, #69, .T. ) ;
#289 = DIRECTION ( 'NONE',  ( -4.275831445896958607E-31, -1.000000000000000000, -1.224646799147353207E-16 ) ) ;
#290 = CIRCLE ( 'NONE', #31, 0.4500000000000000111 ) ;
#291 = VERTEX_POINT ( 'NONE', #158 ) ;
#292 = ORIENTED_EDGE ( 'NONE', *, *, #135, .T. ) ;
#293 = CARTESIAN_POINT ( 'NONE',  ( 6.384268439417235502E-16, -0.2700000000000000178, 0.1828527155047776354 ) ) ;
#294 = EDGE_LOOP ( 'NONE', ( #259 ) ) ;
#295 = VERTEX_POINT ( 'NONE', #260 ) ;
#296 = VECTOR ( 'NONE', #62, 1000.000000000000000 ) ;
#297 = CONICAL_SURFACE ( 'NONE', #344, 0.3040741737109301512, 0.2617993877991426910 ) ;
#298 = APPLICATION_PROTOCOL_DEFINITION ( 'international standard', 'config_control_design', 1994, #54 ) ;
#299 = MANIFOLD_SOLID_BREP ( 'Corps-Déplacer/Copier1[2]', #390 ) ;
#300 = DATE_TIME_ROLE ( 'creation_date' ) ;
#301 = PLANE ( 'NONE',  #376 ) ;
#302 = DIRECTION ( 'NONE',  ( 0.0000000000000000000, 0.0000000000000000000, 1.000000000000000000 ) ) ;
#303 = APPROVAL ( #52, 'UNSPECIFIED' ) ;
#304 = FACE_OUTER_BOUND ( 'NONE', #13, .T. ) ;
#305 = MANIFOLD_SOLID_BREP ( 'Corps-Déplacer/Copier1[1]', #223 ) ;
#306 = CALENDAR_DATE ( 2021, 3, 12 ) ;
#307 = AXIS2_PLACEMENT_3D ( 'NONE', #161, #316, #66 ) ;
#308 = CARTESIAN_POINT ( 'NONE',  ( 6.384268439417238461E-16, 0.4500000000000000111, 0.1828527155047777186 ) ) ;
#309 = PRODUCT_DEFINITION_FORMATION_WITH_SPECIFIED_SOURCE ( 'ANY', '', #323, .NOT_KNOWN. ) ;
#310 = DIRECTION ( 'NONE',  ( 3.566536934050436538E-31, 1.000000000000000000, 1.003890900449541079E-16 ) ) ;
#311 = DIRECTION ( 'NONE',  ( -3.491481338843133355E-15, 1.224646799147353207E-16, -1.000000000000000000 ) ) ;
#312 = FACE_BOUND ( 'NONE', #294, .T. ) ;
#313 = LOCAL_TIME ( 14, 1, 1.000000000000000000, #359 ) ;
#314 = DIRECTION ( 'NONE',  ( -3.491481338843133355E-15, 1.224646799147353207E-16, -1.000000000000000000 ) ) ;
#315 = EDGE_LOOP ( 'NONE', ( #351, #197, #200, #319 ) ) ;
#316 = DIRECTION ( 'NONE',  ( -3.491481338843133355E-15, 0.0000000000000000000, -1.000000000000000000 ) ) ;
#317 = DIRECTION ( 'NONE',  ( 3.566536934050436538E-31, 1.000000000000000000, 1.003890900449541079E-16 ) ) ;
#318 = CC_DESIGN_APPROVAL ( #303, ( #395 ) ) ;
#319 = ORIENTED_EDGE ( 'NONE', *, *, #128, .F. ) ;
#320 = VERTEX_POINT ( 'NONE', #254 ) ;
#321 = DIRECTION ( 'NONE',  ( 0.0000000000000000000, 1.000000000000000000, 0.0000000000000000000 ) ) ;
#322 = ORIENTED_EDGE ( 'NONE', *, *, #185, .T. ) ;
#323 = PRODUCT ( '997987', '997987', '', ( #365 ) ) ;
#324 = CARTESIAN_POINT ( 'NONE',  ( -0.2700000000000000178, 0.0000000000000000000, 9.426999614876458482E-16 ) ) ;
#325 = DESIGN_CONTEXT ( 'detailed design', #264, 'design' ) ;
#326 = VECTOR ( 'NONE', #53, 1000.000000000000000 ) ;
#327 = CC_DESIGN_PERSON_AND_ORGANIZATION_ASSIGNMENT ( #5, #241, ( #309 ) ) ;
#328 = FACE_OUTER_BOUND ( 'NONE', #190, .T. ) ;
#329 = APPLICATION_PROTOCOL_DEFINITION ( 'international standard', 'config_control_design', 1994, #264 ) ;
#330 = CARTESIAN_POINT ( 'NONE',  ( -0.2700000000000000178, 0.3599999999999999867, 9.867872462569505646E-16 ) ) ;
#331 = PERSON_AND_ORGANIZATION ( #71, #274 ) ;
#332 = CC_DESIGN_APPROVAL ( #201, ( #239 ) ) ;
#333 = CALENDAR_DATE ( 2021, 3, 12 ) ;
#334 = CARTESIAN_POINT ( 'NONE',  ( 1.517508779730344568E-15, -5.322704289150054965E-17, 0.4346317887619458586 ) ) ;
#335 = DATE_AND_TIME ( #333, #114 ) ;
#336 = CARTESIAN_POINT ( 'NONE',  ( -0.2699999999999996847, 0.2515279043906227807, 0.09348446507890260937 ) ) ;
#337 = ORIENTED_EDGE ( 'NONE', *, *, #279, .T. ) ;
#338 = APPROVAL_ROLE ( '' ) ;
#339 = CARTESIAN_POINT ( 'NONE',  ( -0.2699999999999997957, 0.3063241585656220067, 0.05504282552010321405 ) ) ;
#340 = AXIS2_PLACEMENT_3D ( 'NONE', #206, #271, #29 ) ;
#341 = CARTESIAN_POINT ( 'NONE',  ( -0.2699999999999999623, 0.3599999999999999867, 0.01500000000000101599 ) ) ;
#342 = DIRECTION ( 'NONE',  ( 4.275831445896958607E-31, 1.000000000000000000, 1.224646799147353207E-16 ) ) ;
#343 = DIRECTION ( 'NONE',  ( -3.491481338843133355E-15, 1.224646799147353207E-16, -1.000000000000000000 ) ) ;
#344 = AXIS2_PLACEMENT_3D ( 'NONE', #39, #370, #98 ) ;
#345 = CARTESIAN_POINT ( 'NONE',  ( 0.0000000000000000000, 0.0000000000000000000, 0.0000000000000000000 ) ) ;
#346 = ORIENTED_EDGE ( 'NONE', *, *, #275, .T. ) ;
#347 = DIRECTION ( 'NONE',  ( -3.491481338843133355E-15, 1.224646799147353207E-16, -1.000000000000000000 ) ) ;
#348 = ORIENTED_EDGE ( 'NONE', *, *, #174, .F. ) ;
#349 = ADVANCED_FACE ( 'NONE', ( #100 ), #383, .T. ) ;
#350 = ADVANCED_FACE ( 'NONE', ( #312, #285 ), #165, .T. ) ;
#351 = ORIENTED_EDGE ( 'NONE', *, *, #112, .T. ) ;
#352 = CARTESIAN_POINT ( 'NONE',  ( 2.277170312125315274E-14, -7.987238261401287265E-16, 6.522074990897222868 ) ) ;
#353 = ORIENTED_EDGE ( 'NONE', *, *, #279, .F. ) ;
#354 = ADVANCED_FACE ( 'NONE', ( #127 ), #282, .T. ) ;
#355 = EDGE_CURVE ( 'NONE', #139, #139, #256, .T. ) ;
#356 = CIRCLE ( 'NONE', #95, 0.3040741737109301512 ) ;
#357 = DIRECTION ( 'NONE',  ( 4.279844320860524021E-31, 1.000000000000000000, 1.242314989306307082E-16 ) ) ;
#358 = ADVANCED_BREP_SHAPE_REPRESENTATION ( '997987', ( #305, #299, #391 ), #178 ) ;
#359 = COORDINATED_UNIVERSAL_TIME_OFFSET ( 1, 0, .AHEAD. ) ;
#360 = ADVANCED_FACE ( 'NONE', ( #245, #251 ), #73, .T. ) ;
#361 = FACE_OUTER_BOUND ( 'NONE', #129, .T. ) ;
#362 = AXIS2_PLACEMENT_3D ( 'NONE', #199, #79, #170 ) ;
#363 = PERSON_AND_ORGANIZATION_ROLE ( 'creator' ) ;
#364 = CYLINDRICAL_SURFACE ( 'NONE', #340, 0.4500000000000000111 ) ;
#365 = MECHANICAL_CONTEXT ( 'NONE', #54, 'mechanical' ) ;
#366 = CARTESIAN_POINT ( 'NONE',  ( 6.384268439417237475E-16, 0.2700000000000000733, 0.1828527155047776909 ) ) ;
#367 = APPROVAL_ROLE ( '' ) ;
#368 = ORIENTED_EDGE ( 'NONE', *, *, #355, .F. ) ;
#369 = AXIS2_PLACEMENT_3D ( 'NONE', #9, #375, #289 ) ;
#370 = DIRECTION ( 'NONE',  ( 3.491481338843133355E-15, -1.224646799147353207E-16, 1.000000000000000000 ) ) ;
#371 = CARTESIAN_POINT ( 'NONE',  ( -1.710332578358783267E-31, 5.999039130647430431E-33, -4.898587196589412459E-17 ) ) ;
#372 = FACE_BOUND ( 'NONE', #246, .T. ) ;
#373 = ADVANCED_FACE ( 'NONE', ( #7, #372 ), #297, .T. ) ;
#374 = VERTEX_POINT ( 'NONE', #341 ) ;
#375 = DIRECTION ( 'NONE',  ( 3.491481338843133355E-15, -1.224646799147353207E-16, 1.000000000000000000 ) ) ;
#376 = AXIS2_PLACEMENT_3D ( 'NONE', #269, #396, #118 ) ;
#377 = EDGE_LOOP ( 'NONE', ( #68 ) ) ;
#378 = CYLINDRICAL_SURFACE ( 'NONE', #307, 0.2700000000000000178 ) ;
#379 = EDGE_LOOP ( 'NONE', ( #106, #104, #159, #381 ) ) ;
#380 = EDGE_CURVE ( 'NONE', #253, #280, #181, .T. ) ;
#381 = ORIENTED_EDGE ( 'NONE', *, *, #136, .F. ) ;
#382 = CARTESIAN_POINT ( 'NONE',  ( 2.365919782978951696E-32, 0.4500000000000000111, 6.776263578034402713E-18 ) ) ;
#383 = CONICAL_SURFACE ( 'NONE', #61, 0.4500000000000000111, 0.8203047484373372500 ) ;
#384 = CC_DESIGN_SECURITY_CLASSIFICATION ( #239, ( #309 ) ) ;
#385 = ORIENTED_EDGE ( 'NONE', *, *, #182, .F. ) ;
#386 = CARTESIAN_POINT ( 'NONE',  ( 2.277170312125315274E-14, 1.499999999999996003, 6.522074990897222868 ) ) ;
#387 = CYLINDRICAL_SURFACE ( 'NONE', #217, 0.2700000000000000733 ) ;
#388 =( LENGTH_UNIT ( ) NAMED_UNIT ( * ) SI_UNIT ( .MILLI., .METRE. ) );
#389 = AXIS2_PLACEMENT_3D ( 'NONE', #352, #172, #321 ) ;
#390 = CLOSED_SHELL ( 'NONE', ( #19, #30, #97, #373, #360, #350, #354 ) ) ;
#391 = AXIS2_PLACEMENT_3D ( 'NONE', #394, #302, #268 ) ;
#392 = DATE_TIME_ROLE ( 'classification_date' ) ;
#393 = CARTESIAN_POINT ( 'NONE',  ( -0.2699999999999993516, 0.0000000000000000000, 0.1828527155047789399 ) ) ;
#394 = CARTESIAN_POINT ( 'NONE',  ( 0.0000000000000000000, 0.0000000000000000000, 0.0000000000000000000 ) ) ;
#395 = PRODUCT_DEFINITION ( 'UNKNOWN', '', #309, #325 ) ;
#396 = DIRECTION ( 'NONE',  ( 3.491481338843133355E-15, -1.224646799147353207E-16, 1.000000000000000000 ) ) ;
#397 = PLANE ( 'NONE',  #74 ) ;
ENDSEC;
END-ISO-10303-21;
