ISO-10303-21;
HEADER;
FILE_DESCRIPTION (( 'STEP AP203' ),
    '1' );
FILE_NAME ('997986.step',
    '2021-12-03T13:01:00',
    ( '' ),
    ( '' ),
    'SwSTEP 2.0',
    'SolidWorks 2019',
    '' );
FILE_SCHEMA (( 'CONFIG_CONTROL_DESIGN' ));
ENDSEC;

DATA;
#1 = CC_DESIGN_PERSON_AND_ORGANIZATION_ASSIGNMENT ( #115, #387, ( #212 ) ) ;
#2 = CARTESIAN_POINT ( 'NONE',  ( 6.384268439417237475E-16, 0.2700000000000000733, 0.1828527155047776909 ) ) ;
#3 = CARTESIAN_POINT ( 'NONE',  ( -0.2700000000000000178, 0.0000000000000000000, 9.426999614876458482E-16 ) ) ;
#4 = ORIENTED_EDGE ( 'NONE', *, *, #190, .F. ) ;
#5 = ORGANIZATION ( 'UNSPECIFIED', 'UNSPECIFIED', '' ) ;
#6 = DIRECTION ( 'NONE',  ( -3.491481338843133355E-15, 1.224646799147353207E-16, -1.000000000000000000 ) ) ;
#7 = ORIENTED_EDGE ( 'NONE', *, *, #268, .F. ) ;
#8 = LINE ( 'NONE', #335, #239 ) ;
#9 = ORIENTED_EDGE ( 'NONE', *, *, #187, .T. ) ;
#10 = CARTESIAN_POINT ( 'NONE',  ( 5.237222008264706689E-17, -1.836970198721031906E-18, 0.01500000000000001853 ) ) ;
#11 = EDGE_LOOP ( 'NONE', ( #41 ) ) ;
#12 = DIRECTION ( 'NONE',  ( -3.491481338843133355E-15, 1.224646799147353207E-16, -1.000000000000000000 ) ) ;
#13 = CIRCLE ( 'NONE', #237, 1.200000000000004396 ) ;
#14 = APPROVAL_PERSON_ORGANIZATION ( #263, #123, #166 ) ;
#15 = DIRECTION ( 'NONE',  ( 3.491481338843133355E-15, -1.224646799147353207E-16, 1.000000000000000000 ) ) ;
#16 = DIRECTION ( 'NONE',  ( -2.381184547279827482E-15, 0.7313537016191721252, -0.6819983600624967002 ) ) ;
#17 = DIRECTION ( 'NONE',  ( -3.491481338843133355E-15, 1.224646799147353207E-16, -1.000000000000000000 ) ) ;
#18 = ORIENTED_EDGE ( 'NONE', *, *, #347, .T. ) ;
#19 = CIRCLE ( 'NONE', #102, 0.3040741737109301512 ) ;
#20 = DATE_AND_TIME ( #52, #393 ) ;
#21 = DIRECTION ( 'NONE',  ( -3.491481338843133355E-15, 1.224646799147353207E-16, -1.000000000000000000 ) ) ;
#22 = EDGE_CURVE ( 'NONE', #67, #343, #376, .T. ) ;
#23 = PERSON_AND_ORGANIZATION_ROLE ( 'design_supplier' ) ;
#24 = DIRECTION ( 'NONE',  ( 0.0000000000000000000, 1.000000000000000000, 0.0000000000000000000 ) ) ;
#25 = PERSON_AND_ORGANIZATION ( #176, #5 ) ;
#26 = PLANE ( 'NONE',  #364 ) ;
#27 = DIRECTION ( 'NONE',  ( 1.000000000000000000, 0.0000000000000000000, -3.491481338843133355E-15 ) ) ;
#28 = AXIS2_PLACEMENT_3D ( 'NONE', #66, #251, #370 ) ;
#29 = FACE_BOUND ( 'NONE', #279, .T. ) ;
#30 =( LENGTH_UNIT ( ) NAMED_UNIT ( * ) SI_UNIT ( .MILLI., .METRE. ) );
#31 = ADVANCED_FACE ( 'NONE', ( #243 ), #238, .F. ) ;
#32 = EDGE_CURVE ( 'NONE', #291, #67, #148, .T. ) ;
#33 = AXIS2_PLACEMENT_3D ( 'NONE', #85, #27, #244 ) ;
#34 = CC_DESIGN_APPROVAL ( #123, ( #93 ) ) ;
#35 = APPLICATION_CONTEXT ( 'configuration controlled 3d designs of mechanical parts and assemblies' ) ;
#36 = LINE ( 'NONE', #126, #161 ) ;
#37 = DIRECTION ( 'NONE',  ( 0.0000000000000000000, 1.000000000000000000, 0.0000000000000000000 ) ) ;
#38 = ORIENTED_EDGE ( 'NONE', *, *, #68, .T. ) ;
#39 = SECURITY_CLASSIFICATION ( '', '', #141 ) ;
#40 = ADVANCED_FACE ( 'NONE', ( #274 ), #69, .T. ) ;
#41 = ORIENTED_EDGE ( 'NONE', *, *, #104, .T. ) ;
#42 = DIRECTION ( 'NONE',  ( 0.0000000000000000000, -1.000000000000000000, 0.0000000000000000000 ) ) ;
#43 = VERTEX_POINT ( 'NONE', #152 ) ;
#44 = DIRECTION ( 'NONE',  ( -4.275831445896958607E-31, -1.000000000000000000, -1.224646799147353207E-16 ) ) ;
#45 = ORIENTED_EDGE ( 'NONE', *, *, #190, .T. ) ;
#46 = CARTESIAN_POINT ( 'NONE',  ( 6.384268439417238461E-16, 0.4500000000000000111, 0.1828527155047777186 ) ) ;
#47 = VECTOR ( 'NONE', #42, 1000.000000000000000 ) ;
#48 = CARTESIAN_POINT ( 'NONE',  ( 1.606081415867841091E-13, -5.633375276077824704E-15, 46.00000000000000000 ) ) ;
#49 = PERSON_AND_ORGANIZATION ( #176, #5 ) ;
#50 = DIRECTION ( 'NONE',  ( 3.566536934050436538E-31, 1.000000000000000000, 1.003890900449541079E-16 ) ) ;
#51 = EDGE_LOOP ( 'NONE', ( #4 ) ) ;
#52 = CALENDAR_DATE ( 2021, 3, 12 ) ;
#53 = CARTESIAN_POINT ( 'NONE',  ( 3.142333204958820020E-15, -2.168404344971008868E-16, 0.9000000000000000222 ) ) ;
#54 = CC_DESIGN_PERSON_AND_ORGANIZATION_ASSIGNMENT ( #81, #356, ( #39 ) ) ;
#55 = CIRCLE ( 'NONE', #273, 0.2700000000000001843 ) ;
#56 = PERSON_AND_ORGANIZATION_ROLE ( 'creator' ) ;
#57 = CARTESIAN_POINT ( 'NONE',  ( -0.2699999999999993516, 0.0000000000000000000, 0.1828527155047789399 ) ) ;
#58 = MECHANICAL_CONTEXT ( 'NONE', #35, 'mechanical' ) ;
#59 = CARTESIAN_POINT ( 'NONE',  ( 2.365919782978951696E-32, 0.4500000000000000111, 6.776263578034402713E-18 ) ) ;
#60 = CARTESIAN_POINT ( 'NONE',  ( 6.384268439417249308E-16, 0.2700000000000000178, 0.1828527155047780239 ) ) ;
#61 = LOCAL_TIME ( 14, 1, 0.0000000000000000000, #359 ) ;
#62 = CARTESIAN_POINT ( 'NONE',  ( -0.2699999999999997957, 0.3063241585656220067, 0.05504282552010321405 ) ) ;
#63 = EDGE_CURVE ( 'NONE', #312, #103, #185, .T. ) ;
#64 = EDGE_LOOP ( 'NONE', ( #365 ) ) ;
#65 = PRODUCT_DEFINITION_FORMATION_WITH_SPECIFIED_SOURCE ( 'ANY', '', #212, .NOT_KNOWN. ) ;
#66 = CARTESIAN_POINT ( 'NONE',  ( 0.0000000000000000000, 0.0000000000000000000, 0.0000000000000000000 ) ) ;
#67 = VERTEX_POINT ( 'NONE', #331 ) ;
#68 = EDGE_CURVE ( 'NONE', #394, #394, #13, .T. ) ;
#69 = PLANE ( 'NONE',  #112 ) ;
#70 = CARTESIAN_POINT ( 'NONE',  ( 1.745740669421566678E-15, 0.0000000000000000000, 0.5000000000000000000 ) ) ;
#71 = ORIENTED_EDGE ( 'NONE', *, *, #172, .F. ) ;
#72 = DIRECTION ( 'NONE',  ( 3.491481338843133355E-15, -0.0000000000000000000, 1.000000000000000000 ) ) ;
#73 = EDGE_CURVE ( 'NONE', #285, #43, #36, .T. ) ;
#74 = ORIENTED_EDGE ( 'NONE', *, *, #104, .F. ) ;
#75 = CARTESIAN_POINT ( 'NONE',  ( 0.0000000000000000000, 0.0000000000000000000, 0.0000000000000000000 ) ) ;
#76 = VERTEX_POINT ( 'NONE', #2 ) ;
#77 = CIRCLE ( 'NONE', #162, 1.500000000000004441 ) ;
#78 = CARTESIAN_POINT ( 'NONE',  ( 6.384268439417260154E-16, -2.239299927583283592E-17, 0.1828527155047783015 ) ) ;
#79 = APPROVAL_ROLE ( '' ) ;
#80 = EDGE_CURVE ( 'NONE', #43, #343, #8, .T. ) ;
#81 = PERSON_AND_ORGANIZATION ( #176, #5 ) ;
#82 = DIRECTION ( 'NONE',  ( 4.275831445896958607E-31, 1.000000000000000000, 1.224646799147353207E-16 ) ) ;
#83 = AXIS2_PLACEMENT_3D ( 'NONE', #322, #264, #324 ) ;
#84 = CARTESIAN_POINT ( 'NONE',  ( -0.2699999999999993516, 0.06695660321485746858, 0.1828527155048607633 ) ) ;
#85 = CARTESIAN_POINT ( 'NONE',  ( -0.2699999999999982414, 0.0000000000000000000, 0.5000000000000009992 ) ) ;
#86 = DATE_AND_TIME ( #107, #321 ) ;
#87 = DIRECTION ( 'NONE',  ( -3.491481338843133355E-15, 1.224646799147353207E-16, -1.000000000000000000 ) ) ;
#88 = CARTESIAN_POINT ( 'NONE',  ( 6.384268439417259168E-16, -0.2700000000000000178, 0.1828527155047782737 ) ) ;
#89 = AXIS2_PLACEMENT_3D ( 'NONE', #70, #259, #257 ) ;
#90 = CARTESIAN_POINT ( 'NONE',  ( -0.2699999999999996847, 0.2515279043906227807, 0.09348446507890260937 ) ) ;
#91 = CARTESIAN_POINT ( 'NONE',  ( 6.384268439417249308E-16, 0.2700000000000000178, 0.1828527155047780239 ) ) ;
#92 = CYLINDRICAL_SURFACE ( 'NONE', #28, 0.4500000000000000111 ) ;
#93 = PRODUCT_DEFINITION ( 'UNKNOWN', '', #65, #232 ) ;
#94 = EDGE_LOOP ( 'NONE', ( #18, #124, #127, #310, #96 ) ) ;
#95 = EDGE_LOOP ( 'NONE', ( #378, #258, #186 ) ) ;
#96 = ORIENTED_EDGE ( 'NONE', *, *, #187, .F. ) ;
#97 = DIRECTION ( 'NONE',  ( -3.491481338843133355E-15, 1.224646799147353207E-16, -1.000000000000000000 ) ) ;
#98 = ORIENTED_EDGE ( 'NONE', *, *, #32, .T. ) ;
#99 = CARTESIAN_POINT ( 'NONE',  ( 1.517508779730344568E-15, -5.322704289150054965E-17, 0.4346317887619458586 ) ) ;
#100 = FACE_BOUND ( 'NONE', #51, .T. ) ;
#101 = CARTESIAN_POINT ( 'NONE',  ( 5.237222008264706689E-17, -1.836970198721031906E-18, 0.01500000000000001853 ) ) ;
#102 = AXIS2_PLACEMENT_3D ( 'NONE', #129, #97, #342 ) ;
#103 = VERTEX_POINT ( 'NONE', #3 ) ;
#104 = EDGE_CURVE ( 'NONE', #301, #301, #345, .T. ) ;
#105 = DATE_TIME_ROLE ( 'classification_date' ) ;
#106 = ADVANCED_BREP_SHAPE_REPRESENTATION ( '997986', ( #297, #288, #223 ), #339 ) ;
#107 = CALENDAR_DATE ( 2021, 3, 12 ) ;
#108 = CARTESIAN_POINT ( 'NONE',  ( 1.595606971851311880E-13, -5.596635872103403844E-15, 45.69999999999999574 ) ) ;
#109 = COORDINATED_UNIVERSAL_TIME_OFFSET ( 1, 0, .AHEAD. ) ;
#110 = DIRECTION ( 'NONE',  ( 4.275831445896957731E-31, 1.000000000000000000, 1.224646799147353207E-16 ) ) ;
#111 = ADVANCED_FACE ( 'NONE', ( #368 ), #92, .T. ) ;
#112 = AXIS2_PLACEMENT_3D ( 'NONE', #91, #215, #191 ) ;
#113 = TOROIDAL_SURFACE ( 'NONE', #278, 1.270000000000000240, 1.000000000000000000 ) ;
#114 = VERTEX_POINT ( 'NONE', #325 ) ;
#115 = PERSON_AND_ORGANIZATION ( #176, #5 ) ;
#116 = CARTESIAN_POINT ( 'NONE',  ( 6.384268439417261140E-16, 0.2700000000000000178, 0.1828527155047783292 ) ) ;
#117 = CARTESIAN_POINT ( 'NONE',  ( 1.606081415867841091E-13, 1.199999999999998845, 46.00000000000000000 ) ) ;
#118 = CLOSED_SHELL ( 'NONE', ( #111, #135, #221, #40, #119, #31, #396 ) ) ;
#119 = ADVANCED_FACE ( 'NONE', ( #155 ), #372, .T. ) ;
#120 = CC_DESIGN_SECURITY_CLASSIFICATION ( #39, ( #65 ) ) ;
#121 = DIRECTION ( 'NONE',  ( 4.271799608156441746E-31, 1.000000000000000000, 1.223492034922878459E-16 ) ) ;
#122 = B_SPLINE_CURVE_WITH_KNOTS ( 'NONE', 3,
 ( #358, #84, #360, #90, #62, #209 ),
 .UNSPECIFIED., .F., .F.,
 ( 4, 2, 4 ),
 ( 0.0005570719008996510152, 0.0007579058484169498826, 0.0009587397959342489669 ),
 .UNSPECIFIED. ) ;
#123 = APPROVAL ( #265, 'UNSPECIFIED' ) ;
#124 = ORIENTED_EDGE ( 'NONE', *, *, #73, .T. ) ;
#125 = CONICAL_SURFACE ( 'NONE', #216, 1.500000000000004441, 0.7853981633974453924 ) ;
#126 = CARTESIAN_POINT ( 'NONE',  ( 6.384268439417235502E-16, -0.2700000000000000178, 0.1828527155047776354 ) ) ;
#127 = ORIENTED_EDGE ( 'NONE', *, *, #80, .T. ) ;
#128 = ORIENTED_EDGE ( 'NONE', *, *, #22, .F. ) ;
#129 = CARTESIAN_POINT ( 'NONE',  ( 4.045995071071448210E-15, -1.419144034375786578E-16, 1.158819045102514433 ) ) ;
#130 = PRODUCT_RELATED_PRODUCT_CATEGORY ( 'detail', '', ( #212 ) ) ;
#131 = CIRCLE ( 'NONE', #314, 0.2700000000000000178 ) ;
#132 = ORIENTED_EDGE ( 'NONE', *, *, #256, .T. ) ;
#133 = CARTESIAN_POINT ( 'NONE',  ( 3.142333204958821203E-15, -1.102182119232618281E-16, 0.9000000000000003553 ) ) ;
#134 = CARTESIAN_POINT ( 'NONE',  ( 4.045995071071448210E-15, -1.419144034375786578E-16, 1.158819045102514433 ) ) ;
#135 = ADVANCED_FACE ( 'NONE', ( #228 ), #169, .T. ) ;
#136 = AXIS2_PLACEMENT_3D ( 'NONE', #134, #15, #284 ) ;
#137 = APPROVAL_PERSON_ORGANIZATION ( #49, #374, #79 ) ;
#138 = COORDINATED_UNIVERSAL_TIME_OFFSET ( 1, 0, .AHEAD. ) ;
#139 = PLANE ( 'NONE',  #357 ) ;
#140 = ADVANCED_FACE ( 'NONE', ( #344, #100 ), #302, .T. ) ;
#141 = SECURITY_CLASSIFICATION_LEVEL ( 'unclassified' ) ;
#142 = FACE_OUTER_BOUND ( 'NONE', #250, .T. ) ;
#143 = DATE_AND_TIME ( #295, #61 ) ;
#144 = DIRECTION ( 'NONE',  ( 1.000000000000000000, 0.0000000000000000000, -3.491481338843133355E-15 ) ) ;
#145 = CIRCLE ( 'NONE', #305, 0.2700000000000000178 ) ;
#146 = VERTEX_POINT ( 'NONE', #271 ) ;
#147 = CC_DESIGN_PERSON_AND_ORGANIZATION_ASSIGNMENT ( #385, #168, ( #93 ) ) ;
#148 = LINE ( 'NONE', #247, #355 ) ;
#149 = CIRCLE ( 'NONE', #83, 0.2700000000000000178 ) ;
#150 = EDGE_CURVE ( 'NONE', #343, #158, #379, .T. ) ;
#151 = ORIENTED_EDGE ( 'NONE', *, *, #63, .T. ) ;
#152 = CARTESIAN_POINT ( 'NONE',  ( -2.839103739574742144E-31, -0.2700000000000000178, -8.131516293641283255E-17 ) ) ;
#153 = EDGE_LOOP ( 'NONE', ( #7 ) ) ;
#154 = AXIS2_PLACEMENT_3D ( 'NONE', #10, #193, #200 ) ;
#155 = FACE_OUTER_BOUND ( 'NONE', #192, .T. ) ;
#156 = ORIENTED_EDGE ( 'NONE', *, *, #68, .F. ) ;
#157 = DIRECTION ( 'NONE',  ( 3.491481338843133355E-15, -1.224646799147353207E-16, 1.000000000000000000 ) ) ;
#158 = VERTEX_POINT ( 'NONE', #290 ) ;
#159 = DIRECTION ( 'NONE',  ( -3.491481338843133355E-15, 1.224646799147353207E-16, -1.000000000000000000 ) ) ;
#160 = ORIENTED_EDGE ( 'NONE', *, *, #63, .F. ) ;
#161 = VECTOR ( 'NONE', #222, 1000.000000000000000 ) ;
#162 = AXIS2_PLACEMENT_3D ( 'NONE', #167, #17, #24 ) ;
#163 = DIRECTION ( 'NONE',  ( 0.0000000000000000000, 1.000000000000000000, 0.0000000000000000000 ) ) ;
#164 = CC_DESIGN_DATE_AND_TIME_ASSIGNMENT ( #199, #105, ( #39 ) ) ;
#165 = CARTESIAN_POINT ( 'NONE',  ( 1.068957861474239214E-31, 0.4500000000000000111, 3.061616997868382402E-17 ) ) ;
#166 = APPROVAL_ROLE ( '' ) ;
#167 = CARTESIAN_POINT ( 'NONE',  ( 1.595606971851311880E-13, -5.596635872103403844E-15, 45.69999999999999574 ) ) ;
#168 = PERSON_AND_ORGANIZATION_ROLE ( 'creator' ) ;
#169 = CONICAL_SURFACE ( 'NONE', #154, 0.4500000000000000111, 0.8203047484373372500 ) ;
#170 = CC_DESIGN_APPROVAL ( #374, ( #39 ) ) ;
#171 = FACE_OUTER_BOUND ( 'NONE', #64, .T. ) ;
#172 = EDGE_CURVE ( 'NONE', #67, #103, #198, .T. ) ;
#173 = APPLICATION_CONTEXT ( 'configuration controlled 3d designs of mechanical parts and assemblies' ) ;
#174 = APPLICATION_PROTOCOL_DEFINITION ( 'international standard', 'config_control_design', 1994, #35 ) ;
#175 = FACE_OUTER_BOUND ( 'NONE', #306, .T. ) ;
#176 = PERSON ( 'UNSPECIFIED', 'UNSPECIFIED', 'UNSPECIFIED', ('UNSPECIFIED'), ('UNSPECIFIED'), ('UNSPECIFIED') ) ;
#177 = LINE ( 'NONE', #300, #293 ) ;
#178 = UNCERTAINTY_MEASURE_WITH_UNIT (LENGTH_MEASURE( 1.000000000000000082E-05 ), #30, 'distance_accuracy_value', 'NONE');
#179 = CARTESIAN_POINT ( 'NONE',  ( 3.142333204958821203E-15, 0.2700000000000000733, 0.9000000000000003553 ) ) ;
#180 = DIRECTION ( 'NONE',  ( 4.275831445896958607E-31, 1.000000000000000000, 1.224646799147352961E-16 ) ) ;
#181 = DIRECTION ( 'NONE',  ( -3.491481338843133355E-15, 1.224646799147353207E-16, -1.000000000000000000 ) ) ;
#182 = VECTOR ( 'NONE', #214, 1000.000000000000000 ) ;
#183 = AXIS2_PLACEMENT_3D ( 'NONE', #326, #266, #110 ) ;
#184 = CARTESIAN_POINT ( 'NONE',  ( 1.606081415867841091E-13, -5.633375276077824704E-15, 46.00000000000000000 ) ) ;
#185 = LINE ( 'NONE', #366, #182 ) ;
#186 = ORIENTED_EDGE ( 'NONE', *, *, #197, .F. ) ;
#187 = EDGE_CURVE ( 'NONE', #76, #158, #202, .T. ) ;
#188 = EDGE_LOOP ( 'NONE', ( #227 ) ) ;
#189 = AXIS2_PLACEMENT_3D ( 'NONE', #308, #276, #248 ) ;
#190 = EDGE_CURVE ( 'NONE', #114, #114, #19, .T. ) ;
#191 = DIRECTION ( 'NONE',  ( -4.275831445896958607E-31, -1.000000000000000000, -1.224646799147353207E-16 ) ) ;
#192 = EDGE_LOOP ( 'NONE', ( #371, #132, #151, #340 ) ) ;
#193 = DIRECTION ( 'NONE',  ( -3.491481338843133355E-15, 1.224646799147353207E-16, -1.000000000000000000 ) ) ;
#194 = ORIENTED_EDGE ( 'NONE', *, *, #172, .T. ) ;
#195 = DIRECTION ( 'NONE',  ( 4.275831445896958607E-31, 1.000000000000000000, 1.224646799147353207E-16 ) ) ;
#196 = ORIENTED_EDGE ( 'NONE', *, *, #242, .F. ) ;
#197 = EDGE_CURVE ( 'NONE', #312, #76, #145, .T. ) ;
#198 = LINE ( 'NONE', #375, #47 ) ;
#199 = DATE_AND_TIME ( #201, #206 ) ;
#200 = DIRECTION ( 'NONE',  ( 4.279844320860524021E-31, 1.000000000000000000, 1.242314989306307082E-16 ) ) ;
#201 = CALENDAR_DATE ( 2021, 3, 12 ) ;
#202 = LINE ( 'NONE', #99, #334 ) ;
#203 = PERSON_AND_ORGANIZATION ( #176, #5 ) ;
#204 = DIRECTION ( 'NONE',  ( 3.491481338843133355E-15, -0.0000000000000000000, 1.000000000000000000 ) ) ;
#205 = AXIS2_PLACEMENT_3D ( 'NONE', #319, #225, #180 ) ;
#206 = LOCAL_TIME ( 14, 1, 0.0000000000000000000, #138 ) ;
#207 = FACE_OUTER_BOUND ( 'NONE', #94, .T. ) ;
#208 = CALENDAR_DATE ( 2021, 3, 12 ) ;
#209 = CARTESIAN_POINT ( 'NONE',  ( -0.2699999999999999623, 0.3599999999999999867, 0.01500000000000101599 ) ) ;
#210 = EDGE_LOOP ( 'NONE', ( #219, #98, #194, #160 ) ) ;
#211 = FACE_OUTER_BOUND ( 'NONE', #188, .T. ) ;
#212 = PRODUCT ( '997986', '997986', '', ( #58 ) ) ;
#213 = EDGE_CURVE ( 'NONE', #245, #245, #55, .T. ) ;
#214 = DIRECTION ( 'NONE',  ( -3.491481338843133355E-15, 0.0000000000000000000, -1.000000000000000000 ) ) ;
#215 = DIRECTION ( 'NONE',  ( 3.491481338843133355E-15, -1.224646799147353207E-16, 1.000000000000000000 ) ) ;
#216 = AXIS2_PLACEMENT_3D ( 'NONE', #108, #388, #397 ) ;
#217 = PRODUCT_DEFINITION_SHAPE ( 'NONE', 'NONE',  #93 ) ;
#218 = EDGE_LOOP ( 'NONE', ( #45 ) ) ;
#219 = ORIENTED_EDGE ( 'NONE', *, *, #382, .T. ) ;
#220 = ADVANCED_FACE ( 'NONE', ( #315 ), #381, .T. ) ;
#221 = ADVANCED_FACE ( 'NONE', ( #253 ), #233, .T. ) ;
#222 = DIRECTION ( 'NONE',  ( -3.491481338843133355E-15, 0.0000000000000000000, -1.000000000000000000 ) ) ;
#223 = AXIS2_PLACEMENT_3D ( 'NONE', #323, #292, #231 ) ;
#224 = FACE_OUTER_BOUND ( 'NONE', #369, .T. ) ;
#225 = DIRECTION ( 'NONE',  ( -3.491481338843133355E-15, 1.224646799147353207E-16, -1.000000000000000000 ) ) ;
#226 = ADVANCED_FACE ( 'NONE', ( #289, #224 ), #350, .T. ) ;
#227 = ORIENTED_EDGE ( 'NONE', *, *, #213, .T. ) ;
#228 = FACE_OUTER_BOUND ( 'NONE', #254, .T. ) ;
#229 = LOCAL_TIME ( 14, 1, 0.0000000000000000000, #351 ) ;
#230 = DIRECTION ( 'NONE',  ( -3.491481338843133355E-15, 1.224646799147353207E-16, -1.000000000000000000 ) ) ;
#231 = DIRECTION ( 'NONE',  ( 1.000000000000000000, 0.0000000000000000000, 0.0000000000000000000 ) ) ;
#232 = DESIGN_CONTEXT ( 'detailed design', #173, 'design' ) ;
#233 = PLANE ( 'NONE',  #249 ) ;
#234 = APPROVAL_STATUS ( 'not_yet_approved' ) ;
#235 = CARTESIAN_POINT ( 'NONE',  ( 0.0000000000000000000, 0.0000000000000000000, 0.0000000000000000000 ) ) ;
#236 = DIRECTION ( 'NONE',  ( -1.000000000000000000, 0.0000000000000000000, 3.491481338843132566E-15 ) ) ;
#237 = AXIS2_PLACEMENT_3D ( 'NONE', #184, #181, #37 ) ;
#238 = PLANE ( 'NONE',  #33 ) ;
#239 = VECTOR ( 'NONE', #121, 1000.000000000000000 ) ;
#240 = APPLICATION_PROTOCOL_DEFINITION ( 'international standard', 'config_control_design', 1994, #173 ) ;
#241 = CARTESIAN_POINT ( 'NONE',  ( -0.2699999999999999623, 0.3599999999999999867, 0.01500000000000101599 ) ) ;
#242 = EDGE_CURVE ( 'NONE', #291, #158, #327, .T. ) ;
#243 = FACE_OUTER_BOUND ( 'NONE', #210, .T. ) ;
#244 = DIRECTION ( 'NONE',  ( -3.491481338843133355E-15, 0.0000000000000000000, -1.000000000000000000 ) ) ;
#245 = VERTEX_POINT ( 'NONE', #179 ) ;
#246 = CIRCLE ( 'NONE', #384, 0.2700000000000000178 ) ;
#247 = CARTESIAN_POINT ( 'NONE',  ( -0.2700000000000000178, 0.3599999999999999867, 9.867872462569505646E-16 ) ) ;
#248 = DIRECTION ( 'NONE',  ( 0.0000000000000000000, 1.000000000000000000, 0.0000000000000000000 ) ) ;
#249 = AXIS2_PLACEMENT_3D ( 'NONE', #165, #159, #287 ) ;
#250 = EDGE_LOOP ( 'NONE', ( #309 ) ) ;
#251 = DIRECTION ( 'NONE',  ( -3.491481338843133355E-15, 1.224646799147353207E-16, -1.000000000000000000 ) ) ;
#252 = EDGE_LOOP ( 'NONE', ( #313, #373, #128, #336 ) ) ;
#253 = FACE_OUTER_BOUND ( 'NONE', #280, .T. ) ;
#254 = EDGE_LOOP ( 'NONE', ( #275, #9, #196, #281 ) ) ;
#255 = AXIS2_PLACEMENT_3D ( 'NONE', #101, #230, #348 ) ;
#256 = EDGE_CURVE ( 'NONE', #285, #312, #131, .T. ) ;
#257 = DIRECTION ( 'NONE',  ( -1.000000000000000000, 0.0000000000000000000, 3.614007241618347587E-15 ) ) ;
#258 = ORIENTED_EDGE ( 'NONE', *, *, #347, .F. ) ;
#259 = DIRECTION ( 'NONE',  ( -3.491481338843133355E-15, 0.0000000000000000000, -1.000000000000000000 ) ) ;
#260 = DIRECTION ( 'NONE',  ( -3.491481338843133355E-15, 1.224646799147353207E-16, -1.000000000000000000 ) ) ;
#261 = COORDINATED_UNIVERSAL_TIME_OFFSET ( 1, 0, .AHEAD. ) ;
#262 = CC_DESIGN_PERSON_AND_ORGANIZATION_ASSIGNMENT ( #203, #56, ( #65 ) ) ;
#263 = PERSON_AND_ORGANIZATION ( #176, #5 ) ;
#264 = DIRECTION ( 'NONE',  ( -3.491481338843133355E-15, 1.224646799147353207E-16, -1.000000000000000000 ) ) ;
#265 = APPROVAL_STATUS ( 'not_yet_approved' ) ;
#266 = DIRECTION ( 'NONE',  ( -3.491481338843133355E-15, 1.224646799147353207E-16, -1.000000000000000000 ) ) ;
#267 = DIRECTION ( 'NONE',  ( -3.491481338843133355E-15, 0.0000000000000000000, -1.000000000000000000 ) ) ;
#268 = EDGE_CURVE ( 'NONE', #146, #146, #77, .T. ) ;
#269 = ADVANCED_FACE ( 'NONE', ( #363, #175 ), #113, .F. ) ;
#270 = APPROVAL_DATE_TIME ( #20, #374 ) ;
#271 = CARTESIAN_POINT ( 'NONE',  ( 1.595606971851311880E-13, 1.499999999999998668, 45.69999999999999574 ) ) ;
#272 = CARTESIAN_POINT ( 'NONE',  ( 0.0000000000000000000, 0.0000000000000000000, 0.0000000000000000000 ) ) ;
#273 = AXIS2_PLACEMENT_3D ( 'NONE', #133, #12, #163 ) ;
#274 = FACE_OUTER_BOUND ( 'NONE', #95, .T. ) ;
#275 = ORIENTED_EDGE ( 'NONE', *, *, #197, .T. ) ;
#276 = DIRECTION ( 'NONE',  ( -3.491481338843133355E-15, 1.224646799147353207E-16, -1.000000000000000000 ) ) ;
#277 = ORIENTED_EDGE ( 'NONE', *, *, #80, .F. ) ;
#278 = AXIS2_PLACEMENT_3D ( 'NONE', #53, #87, #294 ) ;
#279 = EDGE_LOOP ( 'NONE', ( #38 ) ) ;
#280 = EDGE_LOOP ( 'NONE', ( #337, #277, #332, #71 ) ) ;
#281 = ORIENTED_EDGE ( 'NONE', *, *, #382, .F. ) ;
#282 = EDGE_CURVE ( 'NONE', #395, #395, #149, .T. ) ;
#283 = ADVANCED_FACE ( 'NONE', ( #171 ), #139, .T. ) ;
#284 = DIRECTION ( 'NONE',  ( 0.0000000000000000000, -1.000000000000000000, 0.0000000000000000000 ) ) ;
#285 = VERTEX_POINT ( 'NONE', #88 ) ;
#286 = APPROVAL_PERSON_ORGANIZATION ( #25, #346, #361 ) ;
#287 = DIRECTION ( 'NONE',  ( 4.275831445896958607E-31, 1.000000000000000000, 1.224646799147353207E-16 ) ) ;
#288 = MANIFOLD_SOLID_BREP ( 'Corps-Déplacer/Copier1[2]', #338 ) ;
#289 = FACE_OUTER_BOUND ( 'NONE', #380, .T. ) ;
#290 = CARTESIAN_POINT ( 'NONE',  ( 5.237222008264718399E-17, 0.4500000000000000111, 0.01500000000000005322 ) ) ;
#291 = VERTEX_POINT ( 'NONE', #241 ) ;
#292 = DIRECTION ( 'NONE',  ( 0.0000000000000000000, 0.0000000000000000000, 1.000000000000000000 ) ) ;
#293 = VECTOR ( 'NONE', #352, 1000.000000000000000 ) ;
#294 = DIRECTION ( 'NONE',  ( 4.363569202735921436E-31, 1.000000000000000000, 1.224646799147353207E-16 ) ) ;
#295 = CALENDAR_DATE ( 2021, 3, 12 ) ;
#296 = FACE_OUTER_BOUND ( 'NONE', #153, .T. ) ;
#297 = MANIFOLD_SOLID_BREP ( 'Corps-Déplacer/Copier1[1]', #118 ) ;
#298 = ADVANCED_FACE ( 'NONE', ( #29, #296 ), #125, .T. ) ;
#299 = DATE_AND_TIME ( #208, #229 ) ;
#300 = CARTESIAN_POINT ( 'NONE',  ( 6.384268439417238461E-16, 0.4500000000000000111, 0.1828527155047777186 ) ) ;
#301 = VERTEX_POINT ( 'NONE', #362 ) ;
#302 = CONICAL_SURFACE ( 'NONE', #136, 0.3040741737109301512, 0.2617993877991429130 ) ;
#303 =( NAMED_UNIT ( * ) SI_UNIT ( $, .STERADIAN. ) SOLID_ANGLE_UNIT ( ) );
#304 = CC_DESIGN_PERSON_AND_ORGANIZATION_ASSIGNMENT ( #349, #23, ( #65 ) ) ;
#305 = AXIS2_PLACEMENT_3D ( 'NONE', #311, #386, #383 ) ;
#306 = EDGE_LOOP ( 'NONE', ( #328 ) ) ;
#307 = ORIENTED_EDGE ( 'NONE', *, *, #268, .T. ) ;
#308 = CARTESIAN_POINT ( 'NONE',  ( 1.962936991629431695E-14, -6.885056142168664423E-16, 5.622074990897218960 ) ) ;
#309 = ORIENTED_EDGE ( 'NONE', *, *, #282, .F. ) ;
#310 = ORIENTED_EDGE ( 'NONE', *, *, #150, .T. ) ;
#311 = CARTESIAN_POINT ( 'NONE',  ( 6.384268439417260154E-16, -2.239299927583283592E-17, 0.1828527155047783015 ) ) ;
#312 = VERTEX_POINT ( 'NONE', #57 ) ;
#313 = ORIENTED_EDGE ( 'NONE', *, *, #242, .T. ) ;
#314 = AXIS2_PLACEMENT_3D ( 'NONE', #78, #317, #50 ) ;
#315 = FACE_OUTER_BOUND ( 'NONE', #341, .T. ) ;
#316 = APPROVAL_DATE_TIME ( #86, #123 ) ;
#317 = DIRECTION ( 'NONE',  ( -3.491481338843133355E-15, 1.224646799147353207E-16, -1.000000000000000000 ) ) ;
#318 = DATE_TIME_ROLE ( 'creation_date' ) ;
#319 = CARTESIAN_POINT ( 'NONE',  ( -1.710332578358783267E-31, 5.999039130647430431E-33, -4.898587196589412459E-17 ) ) ;
#320 = SHAPE_DEFINITION_REPRESENTATION ( #217, #106 ) ;
#321 = LOCAL_TIME ( 14, 1, 0.0000000000000000000, #261 ) ;
#322 = CARTESIAN_POINT ( 'NONE',  ( 6.384268439417260154E-16, -2.239299927583283592E-17, 0.1828527155047783015 ) ) ;
#323 = CARTESIAN_POINT ( 'NONE',  ( 0.0000000000000000000, 0.0000000000000000000, 0.0000000000000000000 ) ) ;
#324 = DIRECTION ( 'NONE',  ( 3.566536934050436538E-31, 1.000000000000000000, 1.003890900449541079E-16 ) ) ;
#325 = CARTESIAN_POINT ( 'NONE',  ( 4.045995071071448210E-15, 0.3040741737109299847, 1.158819045102514433 ) ) ;
#326 = CARTESIAN_POINT ( 'NONE',  ( 0.0000000000000000000, 0.0000000000000000000, 0.0000000000000000000 ) ) ;
#327 = CIRCLE ( 'NONE', #255, 0.4500000000000000111 ) ;
#328 = ORIENTED_EDGE ( 'NONE', *, *, #213, .F. ) ;
#329 =( NAMED_UNIT ( * ) PLANE_ANGLE_UNIT ( ) SI_UNIT ( $, .RADIAN. ) );
#330 = CC_DESIGN_DATE_AND_TIME_ASSIGNMENT ( #299, #318, ( #93 ) ) ;
#331 = CARTESIAN_POINT ( 'NONE',  ( -0.2700000000000000178, 0.3599999999999999867, 9.426999614876458482E-16 ) ) ;
#332 = ORIENTED_EDGE ( 'NONE', *, *, #353, .F. ) ;
#333 = VECTOR ( 'NONE', #72, 1000.000000000000000 ) ;
#334 = VECTOR ( 'NONE', #16, 1000.000000000000000 ) ;
#335 = CARTESIAN_POINT ( 'NONE',  ( 2.365919782978951696E-32, 0.4500000000000000111, 6.776263578034402713E-18 ) ) ;
#336 = ORIENTED_EDGE ( 'NONE', *, *, #32, .F. ) ;
#337 = ORIENTED_EDGE ( 'NONE', *, *, #22, .T. ) ;
#338 = CLOSED_SHELL ( 'NONE', ( #283, #354, #269, #140, #226, #298, #220 ) ) ;
#339 =( GEOMETRIC_REPRESENTATION_CONTEXT ( 3 ) GLOBAL_UNCERTAINTY_ASSIGNED_CONTEXT ( ( #178 ) ) GLOBAL_UNIT_ASSIGNED_CONTEXT ( ( #30, #329, #303 ) ) REPRESENTATION_CONTEXT ( 'NONE', 'WORKASPACE' ) );
#340 = ORIENTED_EDGE ( 'NONE', *, *, #353, .T. ) ;
#341 = EDGE_LOOP ( 'NONE', ( #156 ) ) ;
#342 = DIRECTION ( 'NONE',  ( 0.0000000000000000000, 1.000000000000000000, 0.0000000000000000000 ) ) ;
#343 = VERTEX_POINT ( 'NONE', #59 ) ;
#344 = FACE_OUTER_BOUND ( 'NONE', #11, .T. ) ;
#345 = CIRCLE ( 'NONE', #189, 1.499999999999996669 ) ;
#346 = APPROVAL ( #234, 'UNSPECIFIED' ) ;
#347 = EDGE_CURVE ( 'NONE', #76, #285, #177, .T. ) ;
#348 = DIRECTION ( 'NONE',  ( 4.279844320860524021E-31, 1.000000000000000000, 1.242314989306307082E-16 ) ) ;
#349 = PERSON_AND_ORGANIZATION ( #176, #5 ) ;
#350 = CYLINDRICAL_SURFACE ( 'NONE', #391, 1.500000000000000444 ) ;
#351 = COORDINATED_UNIVERSAL_TIME_OFFSET ( 1, 0, .AHEAD. ) ;
#352 = DIRECTION ( 'NONE',  ( -3.943199638298254121E-31, -1.000000000000000000, -1.129377263005734114E-16 ) ) ;
#353 = EDGE_CURVE ( 'NONE', #103, #43, #246, .T. ) ;
#354 = ADVANCED_FACE ( 'NONE', ( #211, #142 ), #390, .T. ) ;
#355 = VECTOR ( 'NONE', #6, 1000.000000000000000 ) ;
#356 = PERSON_AND_ORGANIZATION_ROLE ( 'classification_officer' ) ;
#357 = AXIS2_PLACEMENT_3D ( 'NONE', #60, #21, #82 ) ;
#358 = CARTESIAN_POINT ( 'NONE',  ( -0.2699999999999993516, 0.0000000000000000000, 0.1828527155047789399 ) ) ;
#359 = COORDINATED_UNIVERSAL_TIME_OFFSET ( 1, 0, .AHEAD. ) ;
#360 = CARTESIAN_POINT ( 'NONE',  ( -0.2699999999999995182, 0.1329994572116951213, 0.1575973612070944163 ) ) ;
#361 = APPROVAL_ROLE ( '' ) ;
#362 = CARTESIAN_POINT ( 'NONE',  ( 1.962936991629431695E-14, 1.499999999999996003, 5.622074990897218960 ) ) ;
#363 = FACE_OUTER_BOUND ( 'NONE', #218, .T. ) ;
#364 = AXIS2_PLACEMENT_3D ( 'NONE', #272, #144, #267 ) ;
#365 = ORIENTED_EDGE ( 'NONE', *, *, #282, .T. ) ;
#366 = CARTESIAN_POINT ( 'NONE',  ( -0.2699999999999982414, 0.0000000000000000000, 0.5000000000000009992 ) ) ;
#367 = AXIS2_PLACEMENT_3D ( 'NONE', #48, #157, #44 ) ;
#368 = FACE_OUTER_BOUND ( 'NONE', #252, .T. ) ;
#369 = EDGE_LOOP ( 'NONE', ( #74 ) ) ;
#370 = DIRECTION ( 'NONE',  ( 4.275831445896958607E-31, 1.000000000000000000, 1.224646799147352961E-16 ) ) ;
#371 = ORIENTED_EDGE ( 'NONE', *, *, #73, .F. ) ;
#372 = CYLINDRICAL_SURFACE ( 'NONE', #89, 0.2700000000000000178 ) ;
#373 = ORIENTED_EDGE ( 'NONE', *, *, #150, .F. ) ;
#374 = APPROVAL ( #389, 'UNSPECIFIED' ) ;
#375 = CARTESIAN_POINT ( 'NONE',  ( -0.2700000000000000178, 0.0000000000000000000, 9.426999614876458482E-16 ) ) ;
#376 = CIRCLE ( 'NONE', #205, 0.4500000000000000111 ) ;
#377 = CC_DESIGN_APPROVAL ( #346, ( #65 ) ) ;
#378 = ORIENTED_EDGE ( 'NONE', *, *, #256, .F. ) ;
#379 = LINE ( 'NONE', #46, #333 ) ;
#380 = EDGE_LOOP ( 'NONE', ( #307 ) ) ;
#381 = PLANE ( 'NONE',  #367 ) ;
#382 = EDGE_CURVE ( 'NONE', #312, #291, #122, .T. ) ;
#383 = DIRECTION ( 'NONE',  ( 3.566536934050436538E-31, 1.000000000000000000, 1.003890900449541079E-16 ) ) ;
#384 = AXIS2_PLACEMENT_3D ( 'NONE', #235, #204, #236 ) ;
#385 = PERSON_AND_ORGANIZATION ( #176, #5 ) ;
#386 = DIRECTION ( 'NONE',  ( -3.491481338843133355E-15, 1.224646799147353207E-16, -1.000000000000000000 ) ) ;
#387 = PERSON_AND_ORGANIZATION_ROLE ( 'design_owner' ) ;
#388 = DIRECTION ( 'NONE',  ( -3.491481338843133355E-15, 1.224646799147353207E-16, -1.000000000000000000 ) ) ;
#389 = APPROVAL_STATUS ( 'not_yet_approved' ) ;
#390 = CYLINDRICAL_SURFACE ( 'NONE', #183, 0.2700000000000000733 ) ;
#391 = AXIS2_PLACEMENT_3D ( 'NONE', #75, #260, #195 ) ;
#392 = APPROVAL_DATE_TIME ( #143, #346 ) ;
#393 = LOCAL_TIME ( 14, 1, 0.0000000000000000000, #109 ) ;
#394 = VERTEX_POINT ( 'NONE', #117 ) ;
#395 = VERTEX_POINT ( 'NONE', #116 ) ;
#396 = ADVANCED_FACE ( 'NONE', ( #207 ), #26, .T. ) ;
#397 = DIRECTION ( 'NONE',  ( 0.0000000000000000000, 1.000000000000000000, 0.0000000000000000000 ) ) ;
ENDSEC;
END-ISO-10303-21;
