ISO-10303-21;
HEADER;
FILE_DESCRIPTION (( 'STEP AP203' ),
    '1' );
FILE_NAME ('997985.step',
    '2021-12-03T13:01:00',
    ( '' ),
    ( '' ),
    'SwSTEP 2.0',
    'SolidWorks 2019',
    '' );
FILE_SCHEMA (( 'CONFIG_CONTROL_DESIGN' ));
ENDSEC;

DATA;
#1 = EDGE_CURVE ( 'NONE', #219, #346, #299, .T. ) ;
#2 = CARTESIAN_POINT ( 'NONE',  ( -0.2400000000000000189, 0.0000000000000000000, 8.379555213223519855E-16 ) ) ;
#3 = AXIS2_PLACEMENT_3D ( 'NONE', #47, #108, #53 ) ;
#4 = CALENDAR_DATE ( 2021, 3, 12 ) ;
#5 = CIRCLE ( 'NONE', #359, 0.2400000000000000189 ) ;
#6 = ORIENTED_EDGE ( 'NONE', *, *, #111, .T. ) ;
#7 = VERTEX_POINT ( 'NONE', #76 ) ;
#8 = PERSON_AND_ORGANIZATION ( #144, #59 ) ;
#9 = FACE_OUTER_BOUND ( 'NONE', #62, .T. ) ;
#10 = DIRECTION ( 'NONE',  ( -1.000000000000000000, 0.0000000000000000000, 3.614007241618347587E-15 ) ) ;
#11 = EDGE_LOOP ( 'NONE', ( #133 ) ) ;
#12 = DATE_AND_TIME ( #67, #270 ) ;
#13 = VECTOR ( 'NONE', #117, 1000.000000000000000 ) ;
#14 = DIRECTION ( 'NONE',  ( 0.0000000000000000000, 1.000000000000000000, 0.0000000000000000000 ) ) ;
#15 = EDGE_LOOP ( 'NONE', ( #227 ) ) ;
#16 = CARTESIAN_POINT ( 'NONE',  ( 5.733096635129386233E-16, 0.2399999999999999911, 0.1642024137820249641 ) ) ;
#17 = CARTESIAN_POINT ( 'NONE',  ( -0.2399999999999982703, 0.0000000000000000000, 0.5000000000000008882 ) ) ;
#18 = AXIS2_PLACEMENT_3D ( 'NONE', #348, #325, #10 ) ;
#19 = FACE_BOUND ( 'NONE', #320, .T. ) ;
#20 = EDGE_CURVE ( 'NONE', #197, #188, #229, .T. ) ;
#21 = CARTESIAN_POINT ( 'NONE',  ( -0.2400000000000000189, 0.3200000000000000067, 8.379555213223519855E-16 ) ) ;
#22 =( GEOMETRIC_REPRESENTATION_CONTEXT ( 3 ) GLOBAL_UNCERTAINTY_ASSIGNED_CONTEXT ( ( #23 ) ) GLOBAL_UNIT_ASSIGNED_CONTEXT ( ( #396, #135, #375 ) ) REPRESENTATION_CONTEXT ( 'NONE', 'WORKASPACE' ) );
#23 = UNCERTAINTY_MEASURE_WITH_UNIT (LENGTH_MEASURE( 1.000000000000000082E-05 ), #396, 'distance_accuracy_value', 'NONE');
#24 = DIRECTION ( 'NONE',  ( 3.491481338843133355E-15, -1.224646799147353207E-16, 1.000000000000000000 ) ) ;
#25 = DIRECTION ( 'NONE',  ( 4.335106656618519598E-31, 1.000000000000000000, 1.224646799147353207E-16 ) ) ;
#26 = CARTESIAN_POINT ( 'NONE',  ( 5.733096635129393136E-16, -2.010899604504263445E-17, 0.1642024137820251584 ) ) ;
#27 = ORIENTED_EDGE ( 'NONE', *, *, #1, .T. ) ;
#28 = VERTEX_POINT ( 'NONE', #155 ) ;
#29 = CARTESIAN_POINT ( 'NONE',  ( 5.733096635129380317E-16, 0.4000000000000000222, 0.1642024137820247698 ) ) ;
#30 = CC_DESIGN_APPROVAL ( #280, ( #160 ) ) ;
#31 = ADVANCED_FACE ( 'NONE', ( #202 ), #351, .T. ) ;
#32 = DIRECTION ( 'NONE',  ( 1.000000000000000000, 0.0000000000000000000, -3.491481338843133355E-15 ) ) ;
#33 = DATE_AND_TIME ( #70, #267 ) ;
#34 = ADVANCED_FACE ( 'NONE', ( #83, #112 ), #179, .T. ) ;
#35 = ORIENTED_EDGE ( 'NONE', *, *, #120, .F. ) ;
#36 = APPROVAL_ROLE ( '' ) ;
#37 = APPLICATION_CONTEXT ( 'configuration controlled 3d designs of mechanical parts and assemblies' ) ;
#38 = ORIENTED_EDGE ( 'NONE', *, *, #111, .F. ) ;
#39 = COORDINATED_UNIVERSAL_TIME_OFFSET ( 1, 0, .AHEAD. ) ;
#40 = ORIENTED_EDGE ( 'NONE', *, *, #390, .F. ) ;
#41 = DIRECTION ( 'NONE',  ( 1.000000000000000000, 0.0000000000000000000, 0.0000000000000000000 ) ) ;
#42 = DIRECTION ( 'NONE',  ( -3.491481338843133355E-15, 1.224646799147353207E-16, -1.000000000000000000 ) ) ;
#43 = ADVANCED_FACE ( 'NONE', ( #353 ), #326, .T. ) ;
#44 = ORIENTED_EDGE ( 'NONE', *, *, #140, .F. ) ;
#45 = PERSON_AND_ORGANIZATION ( #144, #59 ) ;
#46 = CARTESIAN_POINT ( 'NONE',  ( 0.0000000000000000000, 0.0000000000000000000, 0.0000000000000000000 ) ) ;
#47 = CARTESIAN_POINT ( 'NONE',  ( 1.606081415867841091E-13, -5.633375276077824704E-15, 46.00000000000000000 ) ) ;
#48 = EDGE_LOOP ( 'NONE', ( #331, #100, #126 ) ) ;
#49 = AXIS2_PLACEMENT_3D ( 'NONE', #121, #87, #123 ) ;
#50 = CARTESIAN_POINT ( 'NONE',  ( 6.490032008261641559E-15, -2.276396793778933897E-16, 1.858819045102514389 ) ) ;
#51 = DIRECTION ( 'NONE',  ( 3.491481338843133355E-15, -0.0000000000000000000, 1.000000000000000000 ) ) ;
#52 = DIRECTION ( 'NONE',  ( 3.491481338843133355E-15, -1.224646799147353207E-16, 1.000000000000000000 ) ) ;
#53 = DIRECTION ( 'NONE',  ( -4.275831445896958607E-31, -1.000000000000000000, -1.224646799147353207E-16 ) ) ;
#54 = TOROIDAL_SURFACE ( 'NONE', #288, 1.239999999999999991, 0.9999999999999995559 ) ;
#55 = CC_DESIGN_DATE_AND_TIME_ASSIGNMENT ( #33, #186, ( #160 ) ) ;
#56 = CARTESIAN_POINT ( 'NONE',  ( 5.586370142149013368E-15, -2.168404344971008868E-16, 1.600000000000000089 ) ) ;
#57 = FACE_OUTER_BOUND ( 'NONE', #317, .T. ) ;
#58 = APPROVAL ( #254, 'UNSPECIFIED' ) ;
#59 = ORGANIZATION ( 'UNSPECIFIED', 'UNSPECIFIED', '' ) ;
#60 = VERTEX_POINT ( 'NONE', #360 ) ;
#61 = ADVANCED_FACE ( 'NONE', ( #232 ), #319, .T. ) ;
#62 = EDGE_LOOP ( 'NONE', ( #75 ) ) ;
#63 = LINE ( 'NONE', #304, #209 ) ;
#64 = CALENDAR_DATE ( 2021, 3, 12 ) ;
#65 = PERSON_AND_ORGANIZATION ( #144, #59 ) ;
#66 = ORIENTED_EDGE ( 'NONE', *, *, #276, .T. ) ;
#67 = CALENDAR_DATE ( 2021, 3, 12 ) ;
#68 = AXIS2_PLACEMENT_3D ( 'NONE', #262, #157, #113 ) ;
#69 = ORIENTED_EDGE ( 'NONE', *, *, #357, .T. ) ;
#70 = CALENDAR_DATE ( 2021, 3, 12 ) ;
#71 = AXIS2_PLACEMENT_3D ( 'NONE', #93, #52, #182 ) ;
#72 = ORIENTED_EDGE ( 'NONE', *, *, #166, .T. ) ;
#73 = APPROVAL_ROLE ( '' ) ;
#74 = PLANE ( 'NONE',  #159 ) ;
#75 = ORIENTED_EDGE ( 'NONE', *, *, #264, .T. ) ;
#76 = CARTESIAN_POINT ( 'NONE',  ( 5.733096635129392150E-16, -0.2400000000000000466, 0.1642024137820251306 ) ) ;
#77 = EDGE_CURVE ( 'NONE', #238, #238, #138, .T. ) ;
#78 = SHAPE_DEFINITION_REPRESENTATION ( #300, #298 ) ;
#79 = CLOSED_SHELL ( 'NONE', ( #102, #305, #216, #347, #31, #321, #150 ) ) ;
#80 = PRODUCT_DEFINITION_FORMATION_WITH_SPECIFIED_SOURCE ( 'ANY', '', #307, .NOT_KNOWN. ) ;
#81 = DIRECTION ( 'NONE',  ( -3.491481338843133355E-15, 1.224646799147353207E-16, -1.000000000000000000 ) ) ;
#82 = DIRECTION ( 'NONE',  ( -3.491481338843133355E-15, 1.224646799147353207E-16, -1.000000000000000000 ) ) ;
#83 = FACE_BOUND ( 'NONE', #131, .T. ) ;
#84 = APPROVAL_DATE_TIME ( #308, #280 ) ;
#85 = AXIS2_PLACEMENT_3D ( 'NONE', #92, #42, #376 ) ;
#86 = APPROVAL ( #309, 'UNSPECIFIED' ) ;
#87 = DIRECTION ( 'NONE',  ( -3.491481338843133355E-15, 1.224646799147353207E-16, -1.000000000000000000 ) ) ;
#88 = ORIENTED_EDGE ( 'NONE', *, *, #395, .T. ) ;
#89 = CARTESIAN_POINT ( 'NONE',  ( -0.2400000000000000189, 0.3200000000000000067, 8.771442188950673000E-16 ) ) ;
#90 = AXIS2_PLACEMENT_3D ( 'NONE', #337, #178, #367 ) ;
#91 = CARTESIAN_POINT ( 'NONE',  ( 5.586370142149014946E-15, 0.2400000000000001854, 1.600000000000000533 ) ) ;
#92 = CARTESIAN_POINT ( 'NONE',  ( 9.620620753268157522E-32, 0.4000000000000000222, 2.755455298081545086E-17 ) ) ;
#93 = CARTESIAN_POINT ( 'NONE',  ( 6.490032008261641559E-15, -2.276396793778933897E-16, 1.858819045102514389 ) ) ;
#94 = EDGE_CURVE ( 'NONE', #7, #241, #105, .T. ) ;
#95 = DIRECTION ( 'NONE',  ( -3.491481338843133355E-15, 1.224646799147353207E-16, -1.000000000000000000 ) ) ;
#96 = AXIS2_PLACEMENT_3D ( 'NONE', #187, #132, #41 ) ;
#97 = MECHANICAL_CONTEXT ( 'NONE', #37, 'mechanical' ) ;
#98 = EDGE_LOOP ( 'NONE', ( #134, #161, #334, #377, #282 ) ) ;
#99 = PERSON_AND_ORGANIZATION_ROLE ( 'classification_officer' ) ;
#100 = ORIENTED_EDGE ( 'NONE', *, *, #207, .F. ) ;
#101 = PERSON_AND_ORGANIZATION ( #144, #59 ) ;
#102 = ADVANCED_FACE ( 'NONE', ( #194 ), #356, .T. ) ;
#103 = CARTESIAN_POINT ( 'NONE',  ( -0.2399999999999999634, 0.3200000000000000067, 0.01500000000000091364 ) ) ;
#104 = DIRECTION ( 'NONE',  ( 3.491481338843133355E-15, -0.0000000000000000000, 1.000000000000000000 ) ) ;
#105 = CIRCLE ( 'NONE', #115, 0.2400000000000000189 ) ;
#106 = EDGE_LOOP ( 'NONE', ( #259 ) ) ;
#107 = CC_DESIGN_APPROVAL ( #58, ( #214 ) ) ;
#108 = DIRECTION ( 'NONE',  ( 3.491481338843133355E-15, -1.224646799147353207E-16, 1.000000000000000000 ) ) ;
#109 = ORIENTED_EDGE ( 'NONE', *, *, #235, .F. ) ;
#110 = CARTESIAN_POINT ( 'NONE',  ( 1.595606971851311880E-13, -5.596635872103403844E-15, 45.69999999999999574 ) ) ;
#111 = EDGE_CURVE ( 'NONE', #330, #330, #345, .T. ) ;
#112 = FACE_OUTER_BOUND ( 'NONE', #11, .T. ) ;
#113 = DIRECTION ( 'NONE',  ( 4.212971753347078429E-31, 1.000000000000000000, 1.228197773518735492E-16 ) ) ;
#114 = DIRECTION ( 'NONE',  ( -3.491481338843133355E-15, 1.224646799147353207E-16, -1.000000000000000000 ) ) ;
#115 = AXIS2_PLACEMENT_3D ( 'NONE', #175, #82, #137 ) ;
#116 = AXIS2_PLACEMENT_3D ( 'NONE', #151, #95, #273 ) ;
#117 = DIRECTION ( 'NONE',  ( -3.491481338843133355E-15, 1.224646799147353207E-16, -1.000000000000000000 ) ) ;
#118 = CIRCLE ( 'NONE', #338, 1.200000000000004396 ) ;
#119 = VECTOR ( 'NONE', #366, 1000.000000000000000 ) ;
#120 = EDGE_CURVE ( 'NONE', #60, #60, #295, .T. ) ;
#121 = CARTESIAN_POINT ( 'NONE',  ( -1.496541006063935469E-31, 5.249159239316501627E-33, -4.286263797015735979E-17 ) ) ;
#122 = EDGE_LOOP ( 'NONE', ( #352 ) ) ;
#123 = DIRECTION ( 'NONE',  ( 4.275831445896958607E-31, 1.000000000000000000, 1.224646799147353207E-16 ) ) ;
#124 = CC_DESIGN_SECURITY_CLASSIFICATION ( #160, ( #80 ) ) ;
#125 = AXIS2_PLACEMENT_3D ( 'NONE', #243, #24, #271 ) ;
#126 = ORIENTED_EDGE ( 'NONE', *, *, #276, .F. ) ;
#127 = PLANE ( 'NONE',  #369 ) ;
#128 = PERSON_AND_ORGANIZATION_ROLE ( 'creator' ) ;
#129 = PRODUCT_RELATED_PRODUCT_CATEGORY ( 'detail', '', ( #307 ) ) ;
#130 = CIRCLE ( 'NONE', #289, 1.500000000000004441 ) ;
#131 = EDGE_LOOP ( 'NONE', ( #184 ) ) ;
#132 = DIRECTION ( 'NONE',  ( 0.0000000000000000000, 0.0000000000000000000, 1.000000000000000000 ) ) ;
#133 = ORIENTED_EDGE ( 'NONE', *, *, #264, .F. ) ;
#134 = ORIENTED_EDGE ( 'NONE', *, *, #207, .T. ) ;
#135 =( NAMED_UNIT ( * ) PLANE_ANGLE_UNIT ( ) SI_UNIT ( $, .RADIAN. ) );
#136 = FACE_OUTER_BOUND ( 'NONE', #285, .T. ) ;
#137 = DIRECTION ( 'NONE',  ( 4.012354050806740777E-31, 1.000000000000000000, 1.129377263005733621E-16 ) ) ;
#138 = CIRCLE ( 'NONE', #358, 0.2400000000000000189 ) ;
#139 = ORIENTED_EDGE ( 'NONE', *, *, #77, .F. ) ;
#140 = EDGE_CURVE ( 'NONE', #241, #219, #261, .T. ) ;
#141 = DIRECTION ( 'NONE',  ( -3.491481338843133355E-15, 1.224646799147353207E-16, -1.000000000000000000 ) ) ;
#142 = CARTESIAN_POINT ( 'NONE',  ( -0.2399999999999995748, 0.1182218133219940237, 0.1417531733093819191 ) ) ;
#143 = VERTEX_POINT ( 'NONE', #234 ) ;
#144 = PERSON ( 'UNSPECIFIED', 'UNSPECIFIED', 'UNSPECIFIED', ('UNSPECIFIED'), ('UNSPECIFIED'), ('UNSPECIFIED') ) ;
#145 = DIRECTION ( 'NONE',  ( -3.491481338843133355E-15, 1.224646799147353207E-16, -1.000000000000000000 ) ) ;
#146 = CC_DESIGN_PERSON_AND_ORGANIZATION_ASSIGNMENT ( #373, #99, ( #160 ) ) ;
#147 = VECTOR ( 'NONE', #104, 1000.000000000000000 ) ;
#148 = PLANE ( 'NONE',  #125 ) ;
#149 = CARTESIAN_POINT ( 'NONE',  ( 0.0000000000000000000, 0.0000000000000000000, 0.0000000000000000000 ) ) ;
#150 = ADVANCED_FACE ( 'NONE', ( #164 ), #74, .T. ) ;
#151 = CARTESIAN_POINT ( 'NONE',  ( 0.0000000000000000000, 0.0000000000000000000, 0.0000000000000000000 ) ) ;
#152 = EDGE_LOOP ( 'NONE', ( #27, #109, #40, #195 ) ) ;
#153 = CARTESIAN_POINT ( 'NONE',  ( 5.733096635129379331E-16, 0.2400000000000000466, 0.1642024137820247420 ) ) ;
#154 = VERTEX_POINT ( 'NONE', #180 ) ;
#155 = CARTESIAN_POINT ( 'NONE',  ( 1.606081415867841091E-13, 1.199999999999998845, 46.00000000000000000 ) ) ;
#156 = APPLICATION_PROTOCOL_DEFINITION ( 'international standard', 'config_control_design', 1994, #37 ) ;
#157 = DIRECTION ( 'NONE',  ( -3.491481338843133355E-15, 1.224646799147353207E-16, -1.000000000000000000 ) ) ;
#158 = SECURITY_CLASSIFICATION_LEVEL ( 'unclassified' ) ;
#159 = AXIS2_PLACEMENT_3D ( 'NONE', #265, #284, #200 ) ;
#160 = SECURITY_CLASSIFICATION ( '', '', #158 ) ;
#161 = ORIENTED_EDGE ( 'NONE', *, *, #230, .T. ) ;
#162 = EDGE_LOOP ( 'NONE', ( #66, #69, #349, #44 ) ) ;
#163 = DATE_TIME_ROLE ( 'creation_date' ) ;
#164 = FACE_OUTER_BOUND ( 'NONE', #98, .T. ) ;
#165 = ORIENTED_EDGE ( 'NONE', *, *, #166, .F. ) ;
#166 = EDGE_CURVE ( 'NONE', #188, #311, #386, .T. ) ;
#167 = COORDINATED_UNIVERSAL_TIME_OFFSET ( 1, 0, .AHEAD. ) ;
#168 = CARTESIAN_POINT ( 'NONE',  ( 5.733096635129393136E-16, -2.010899604504263445E-17, 0.1642024137820251584 ) ) ;
#169 = ORIENTED_EDGE ( 'NONE', *, *, #313, .T. ) ;
#170 = LOCAL_TIME ( 14, 1, 0.0000000000000000000, #193 ) ;
#171 = DIRECTION ( 'NONE',  ( 0.0000000000000000000, 1.000000000000000000, 0.0000000000000000000 ) ) ;
#172 = CARTESIAN_POINT ( 'NONE',  ( -0.2399999999999994360, 0.0000000000000000000, 0.1642024137820257690 ) ) ;
#173 = CARTESIAN_POINT ( 'NONE',  ( 5.586370142149014946E-15, -1.959434878635765723E-16, 1.600000000000000533 ) ) ;
#174 = EDGE_CURVE ( 'NONE', #241, #188, #293, .T. ) ;
#175 = CARTESIAN_POINT ( 'NONE',  ( 5.733096635129393136E-16, -2.010899604504263445E-17, 0.1642024137820251584 ) ) ;
#176 = VECTOR ( 'NONE', #372, 1000.000000000000000 ) ;
#177 = ADVANCED_FACE ( 'NONE', ( #387, #201 ), #54, .F. ) ;
#178 = DIRECTION ( 'NONE',  ( -3.491481338843133355E-15, 1.224646799147353207E-16, -1.000000000000000000 ) ) ;
#179 = CONICAL_SURFACE ( 'NONE', #394, 1.500000000000004441, 0.7853981633974453924 ) ;
#180 = CARTESIAN_POINT ( 'NONE',  ( 1.595606971851311880E-13, 1.499999999999998668, 45.69999999999999574 ) ) ;
#181 = DIRECTION ( 'NONE',  ( 0.0000000000000000000, 1.000000000000000000, 0.0000000000000000000 ) ) ;
#182 = DIRECTION ( 'NONE',  ( 0.0000000000000000000, -1.000000000000000000, 0.0000000000000000000 ) ) ;
#183 = AXIS2_PLACEMENT_3D ( 'NONE', #226, #145, #171 ) ;
#184 = ORIENTED_EDGE ( 'NONE', *, *, #204, .T. ) ;
#185 = CC_DESIGN_PERSON_AND_ORGANIZATION_ASSIGNMENT ( #45, #128, ( #214 ) ) ;
#186 = DATE_TIME_ROLE ( 'classification_date' ) ;
#187 = CARTESIAN_POINT ( 'NONE',  ( 0.0000000000000000000, 0.0000000000000000000, 0.0000000000000000000 ) ) ;
#188 = VERTEX_POINT ( 'NONE', #329 ) ;
#189 = APPROVAL_DATE_TIME ( #12, #86 ) ;
#190 = LINE ( 'NONE', #29, #119 ) ;
#191 = ORIENTED_EDGE ( 'NONE', *, *, #371, .F. ) ;
#192 = COORDINATED_UNIVERSAL_TIME_OFFSET ( 1, 0, .AHEAD. ) ;
#193 = COORDINATED_UNIVERSAL_TIME_OFFSET ( 1, 0, .AHEAD. ) ;
#194 = FACE_OUTER_BOUND ( 'NONE', #152, .T. ) ;
#195 = ORIENTED_EDGE ( 'NONE', *, *, #395, .F. ) ;
#196 = DIRECTION ( 'NONE',  ( -3.491481338843133355E-15, 1.224646799147353207E-16, -1.000000000000000000 ) ) ;
#197 = VERTEX_POINT ( 'NONE', #21 ) ;
#198 = LOCAL_TIME ( 14, 1, 0.0000000000000000000, #339 ) ;
#199 = CC_DESIGN_PERSON_AND_ORGANIZATION_ASSIGNMENT ( #101, #312, ( #80 ) ) ;
#200 = DIRECTION ( 'NONE',  ( -3.491481338843133355E-15, 0.0000000000000000000, -1.000000000000000000 ) ) ;
#201 = FACE_OUTER_BOUND ( 'NONE', #15, .T. ) ;
#202 = FACE_OUTER_BOUND ( 'NONE', #380, .T. ) ;
#203 = DIRECTION ( 'NONE',  ( -3.491481338843133355E-15, 0.0000000000000000000, -1.000000000000000000 ) ) ;
#204 = EDGE_CURVE ( 'NONE', #28, #28, #118, .T. ) ;
#205 = LINE ( 'NONE', #89, #13 ) ;
#206 = DIRECTION ( 'NONE',  ( 4.805774559175995650E-31, 1.000000000000000000, 1.376428539288238051E-16 ) ) ;
#207 = EDGE_CURVE ( 'NONE', #344, #7, #190, .T. ) ;
#208 = AXIS2_PLACEMENT_3D ( 'NONE', #323, #51, #258 ) ;
#209 = VECTOR ( 'NONE', #240, 1000.000000000000000 ) ;
#210 = MANIFOLD_SOLID_BREP ( 'Corps-Déplacer/Copier1[2]', #250 ) ;
#211 = CARTESIAN_POINT ( 'NONE',  ( 5.733096635129377359E-16, -0.2400000000000000189, 0.1642024137820246865 ) ) ;
#212 = LINE ( 'NONE', #306, #364 ) ;
#213 = CARTESIAN_POINT ( 'NONE',  ( 5.733096635129394122E-16, 0.2399999999999999911, 0.1642024137820251861 ) ) ;
#214 = PRODUCT_DEFINITION ( 'UNKNOWN', '', #80, #237 ) ;
#215 = APPROVAL_ROLE ( '' ) ;
#216 = ADVANCED_FACE ( 'NONE', ( #336 ), #245, .T. ) ;
#217 = PERSON_AND_ORGANIZATION ( #144, #59 ) ;
#218 = ORIENTED_EDGE ( 'NONE', *, *, #20, .F. ) ;
#219 = VERTEX_POINT ( 'NONE', #103 ) ;
#220 = LINE ( 'NONE', #211, #314 ) ;
#221 = VECTOR ( 'NONE', #266, 1000.000000000000000 ) ;
#222 = CARTESIAN_POINT ( 'NONE',  ( -0.2399999999999994360, 0.0000000000000000000, 0.1642024137820257690 ) ) ;
#223 = APPROVAL_PERSON_ORGANIZATION ( #217, #86, #36 ) ;
#224 = ORIENTED_EDGE ( 'NONE', *, *, #20, .T. ) ;
#225 = APPROVAL_DATE_TIME ( #249, #58 ) ;
#226 = CARTESIAN_POINT ( 'NONE',  ( 2.246431842599177254E-14, -7.879422223844154439E-16, 6.434036515124291533 ) ) ;
#227 = ORIENTED_EDGE ( 'NONE', *, *, #313, .F. ) ;
#228 = DIRECTION ( 'NONE',  ( -3.491481338843133355E-15, 1.224646799147353207E-16, -1.000000000000000000 ) ) ;
#229 = LINE ( 'NONE', #2, #176 ) ;
#230 = EDGE_CURVE ( 'NONE', #7, #311, #220, .T. ) ;
#231 = CIRCLE ( 'NONE', #49, 0.4000000000000000222 ) ;
#232 = FACE_OUTER_BOUND ( 'NONE', #122, .T. ) ;
#233 = DIRECTION ( 'NONE',  ( -3.491481338843133355E-15, 1.224646799147353207E-16, -1.000000000000000000 ) ) ;
#234 = CARTESIAN_POINT ( 'NONE',  ( 2.365919782978951696E-32, 0.4000000000000000222, 6.776263578034402713E-18 ) ) ;
#235 = EDGE_CURVE ( 'NONE', #143, #346, #368, .T. ) ;
#236 = AXIS2_PLACEMENT_3D ( 'NONE', #173, #246, #333 ) ;
#237 = DESIGN_CONTEXT ( 'detailed design', #362, 'design' ) ;
#238 = VERTEX_POINT ( 'NONE', #213 ) ;
#239 = EDGE_LOOP ( 'NONE', ( #6 ) ) ;
#240 = DIRECTION ( 'NONE',  ( -2.381184547279826694E-15, 0.7313537016191723472, -0.6819983600624964781 ) ) ;
#241 = VERTEX_POINT ( 'NONE', #222 ) ;
#242 = AXIS2_PLACEMENT_3D ( 'NONE', #50, #114, #14 ) ;
#243 = CARTESIAN_POINT ( 'NONE',  ( 5.733096635129386233E-16, 0.2399999999999999911, 0.1642024137820249641 ) ) ;
#244 = LOCAL_TIME ( 14, 1, 0.0000000000000000000, #192 ) ;
#245 = PLANE ( 'NONE',  #85 ) ;
#246 = DIRECTION ( 'NONE',  ( -3.491481338843133355E-15, 1.224646799147353207E-16, -1.000000000000000000 ) ) ;
#247 = DIRECTION ( 'NONE',  ( -3.491481338843133355E-15, 1.224646799147353207E-16, -1.000000000000000000 ) ) ;
#248 = DIRECTION ( 'NONE',  ( 0.0000000000000000000, 1.000000000000000000, 0.0000000000000000000 ) ) ;
#249 = DATE_AND_TIME ( #341, #244 ) ;
#250 = CLOSED_SHELL ( 'NONE', ( #61, #310, #177, #302, #256, #34, #43 ) ) ;
#251 = EDGE_LOOP ( 'NONE', ( #169 ) ) ;
#252 = PERSON_AND_ORGANIZATION ( #144, #59 ) ;
#253 = ORIENTED_EDGE ( 'NONE', *, *, #94, .T. ) ;
#254 = APPROVAL_STATUS ( 'not_yet_approved' ) ;
#255 = ORIENTED_EDGE ( 'NONE', *, *, #230, .F. ) ;
#256 = ADVANCED_FACE ( 'NONE', ( #9, #136 ), #263, .T. ) ;
#257 = APPROVAL_PERSON_ORGANIZATION ( #8, #280, #215 ) ;
#258 = DIRECTION ( 'NONE',  ( -1.000000000000000000, 0.0000000000000000000, 3.491481338843132961E-15 ) ) ;
#259 = ORIENTED_EDGE ( 'NONE', *, *, #204, .F. ) ;
#260 = DATE_AND_TIME ( #4, #170 ) ;
#261 = B_SPLINE_CURVE_WITH_KNOTS ( 'NONE', 3,
 ( #172, #269, #142, #292, #389, #385 ),
 .UNSPECIFIED., .F., .F.,
 ( 4, 2, 4 ),
 ( 0.0004952036725959777690, 0.0006737229117608758630, 0.0008522421509257738486 ),
 .UNSPECIFIED. ) ;
#262 = CARTESIAN_POINT ( 'NONE',  ( 5.237222008264709154E-17, -1.836970198721033062E-18, 0.01500000000000002547 ) ) ;
#263 = CYLINDRICAL_SURFACE ( 'NONE', #327, 1.500000000000000444 ) ;
#264 = EDGE_CURVE ( 'NONE', #154, #154, #130, .T. ) ;
#265 = CARTESIAN_POINT ( 'NONE',  ( 0.0000000000000000000, 0.0000000000000000000, 0.0000000000000000000 ) ) ;
#266 = DIRECTION ( 'NONE',  ( -3.491481338843133355E-15, 0.0000000000000000000, -1.000000000000000000 ) ) ;
#267 = LOCAL_TIME ( 14, 1, 0.0000000000000000000, #39 ) ;
#268 = CYLINDRICAL_SURFACE ( 'NONE', #116, 0.2400000000000001854 ) ;
#269 = CARTESIAN_POINT ( 'NONE',  ( -0.2399999999999994360, 0.05951705403494925856, 0.1642024137820984886 ) ) ;
#270 = LOCAL_TIME ( 14, 1, 0.0000000000000000000, #167 ) ;
#271 = DIRECTION ( 'NONE',  ( -4.275831445896958607E-31, -1.000000000000000000, -1.224646799147353207E-16 ) ) ;
#272 = CARTESIAN_POINT ( 'NONE',  ( 5.237222008264751679E-17, 0.4000000000000000222, 0.01500000000000014863 ) ) ;
#273 = DIRECTION ( 'NONE',  ( 4.275831445896958607E-31, 1.000000000000000000, 1.224646799147353207E-16 ) ) ;
#274 = CIRCLE ( 'NONE', #236, 0.2400000000000003797 ) ;
#275 = FACE_OUTER_BOUND ( 'NONE', #281, .T. ) ;
#276 = EDGE_CURVE ( 'NONE', #241, #344, #5, .T. ) ;
#277 = EDGE_LOOP ( 'NONE', ( #139 ) ) ;
#278 = AXIS2_PLACEMENT_3D ( 'NONE', #16, #296, #379 ) ;
#279 = CC_DESIGN_APPROVAL ( #86, ( #80 ) ) ;
#280 = APPROVAL ( #381, 'UNSPECIFIED' ) ;
#281 = EDGE_LOOP ( 'NONE', ( #291, #88, #224, #392 ) ) ;
#282 = ORIENTED_EDGE ( 'NONE', *, *, #357, .F. ) ;
#283 = PERSON_AND_ORGANIZATION_ROLE ( 'creator' ) ;
#284 = DIRECTION ( 'NONE',  ( 1.000000000000000000, 0.0000000000000000000, -3.491481338843133355E-15 ) ) ;
#285 = EDGE_LOOP ( 'NONE', ( #35 ) ) ;
#286 = APPLICATION_PROTOCOL_DEFINITION ( 'international standard', 'config_control_design', 1994, #362 ) ;
#287 = CC_DESIGN_PERSON_AND_ORGANIZATION_ASSIGNMENT ( #397, #318, ( #307 ) ) ;
#288 = AXIS2_PLACEMENT_3D ( 'NONE', #56, #297, #25 ) ;
#289 = AXIS2_PLACEMENT_3D ( 'NONE', #110, #350, #181 ) ;
#290 = DIRECTION ( 'NONE',  ( 4.275831445896958607E-31, 1.000000000000000000, 1.224646799147353207E-16 ) ) ;
#291 = ORIENTED_EDGE ( 'NONE', *, *, #140, .T. ) ;
#292 = CARTESIAN_POINT ( 'NONE',  ( -0.2399999999999996858, 0.2235803427625226991, 0.08476397484336971322 ) ) ;
#293 = LINE ( 'NONE', #17, #221 ) ;
#294 = DIRECTION ( 'NONE',  ( 4.012354050806740777E-31, 1.000000000000000000, 1.129377263005733621E-16 ) ) ;
#295 = CIRCLE ( 'NONE', #183, 1.499999999999996669 ) ;
#296 = DIRECTION ( 'NONE',  ( -3.491481338843133355E-15, 1.224646799147353207E-16, -1.000000000000000000 ) ) ;
#297 = DIRECTION ( 'NONE',  ( -3.491481338843133355E-15, 1.224646799147353207E-16, -1.000000000000000000 ) ) ;
#298 = ADVANCED_BREP_SHAPE_REPRESENTATION ( '997985', ( #343, #210, #96 ), #22 ) ;
#299 = CIRCLE ( 'NONE', #68, 0.4000000000000000222 ) ;
#300 = PRODUCT_DEFINITION_SHAPE ( 'NONE', 'NONE',  #214 ) ;
#301 = CARTESIAN_POINT ( 'NONE',  ( -2.839103739574742144E-31, -0.2400000000000000189, -8.131516293641283255E-17 ) ) ;
#302 = ADVANCED_FACE ( 'NONE', ( #57, #19 ), #378, .T. ) ;
#303 = CARTESIAN_POINT ( 'NONE',  ( -0.2399999999999982703, 0.0000000000000000000, 0.5000000000000008882 ) ) ;
#304 = CARTESIAN_POINT ( 'NONE',  ( 1.354715828658377567E-15, -4.751703481452503056E-17, 0.3880060344550628204 ) ) ;
#305 = ADVANCED_FACE ( 'NONE', ( #391 ), #340, .T. ) ;
#306 = CARTESIAN_POINT ( 'NONE',  ( 2.365919782978951696E-32, 0.4000000000000000222, 6.776263578034402713E-18 ) ) ;
#307 = PRODUCT ( '997985', '997985', '', ( #97 ) ) ;
#308 = DATE_AND_TIME ( #64, #198 ) ;
#309 = APPROVAL_STATUS ( 'not_yet_approved' ) ;
#310 = ADVANCED_FACE ( 'NONE', ( #324, #335 ), #268, .T. ) ;
#311 = VERTEX_POINT ( 'NONE', #301 ) ;
#312 = PERSON_AND_ORGANIZATION_ROLE ( 'design_supplier' ) ;
#313 = EDGE_CURVE ( 'NONE', #393, #393, #274, .T. ) ;
#314 = VECTOR ( 'NONE', #203, 1000.000000000000000 ) ;
#315 = ORIENTED_EDGE ( 'NONE', *, *, #120, .T. ) ;
#316 = CARTESIAN_POINT ( 'NONE',  ( 5.733096635129380317E-16, 0.4000000000000000222, 0.1642024137820247698 ) ) ;
#317 = EDGE_LOOP ( 'NONE', ( #315 ) ) ;
#318 = PERSON_AND_ORGANIZATION_ROLE ( 'design_owner' ) ;
#319 = PLANE ( 'NONE',  #278 ) ;
#320 = EDGE_LOOP ( 'NONE', ( #38 ) ) ;
#321 = ADVANCED_FACE ( 'NONE', ( #275 ), #127, .F. ) ;
#322 = DIRECTION ( 'NONE',  ( 0.0000000000000000000, 1.000000000000000000, 0.0000000000000000000 ) ) ;
#323 = CARTESIAN_POINT ( 'NONE',  ( 0.0000000000000000000, 0.0000000000000000000, 0.0000000000000000000 ) ) ;
#324 = FACE_OUTER_BOUND ( 'NONE', #251, .T. ) ;
#325 = DIRECTION ( 'NONE',  ( -3.491481338843133355E-15, 0.0000000000000000000, -1.000000000000000000 ) ) ;
#326 = PLANE ( 'NONE',  #3 ) ;
#327 = AXIS2_PLACEMENT_3D ( 'NONE', #46, #141, #382 ) ;
#328 = CC_DESIGN_DATE_AND_TIME_ASSIGNMENT ( #260, #163, ( #214 ) ) ;
#329 = CARTESIAN_POINT ( 'NONE',  ( -0.2400000000000000189, 0.0000000000000000000, 8.379555213223519855E-16 ) ) ;
#330 = VERTEX_POINT ( 'NONE', #365 ) ;
#331 = ORIENTED_EDGE ( 'NONE', *, *, #94, .F. ) ;
#332 = APPROVAL_PERSON_ORGANIZATION ( #65, #58, #73 ) ;
#333 = DIRECTION ( 'NONE',  ( 0.0000000000000000000, 1.000000000000000000, 0.0000000000000000000 ) ) ;
#334 = ORIENTED_EDGE ( 'NONE', *, *, #371, .T. ) ;
#335 = FACE_OUTER_BOUND ( 'NONE', #277, .T. ) ;
#336 = FACE_OUTER_BOUND ( 'NONE', #342, .T. ) ;
#337 = CARTESIAN_POINT ( 'NONE',  ( 5.237222008264709154E-17, -1.836970198721033062E-18, 0.01500000000000002547 ) ) ;
#338 = AXIS2_PLACEMENT_3D ( 'NONE', #370, #233, #248 ) ;
#339 = COORDINATED_UNIVERSAL_TIME_OFFSET ( 1, 0, .AHEAD. ) ;
#340 = CONICAL_SURFACE ( 'NONE', #90, 0.4000000000000000222, 0.8203047484373374720 ) ;
#341 = CALENDAR_DATE ( 2021, 3, 12 ) ;
#342 = EDGE_LOOP ( 'NONE', ( #384, #191, #165, #218 ) ) ;
#343 = MANIFOLD_SOLID_BREP ( 'Corps-Déplacer/Copier1[1]', #79 ) ;
#344 = VERTEX_POINT ( 'NONE', #153 ) ;
#345 = CIRCLE ( 'NONE', #242, 0.2740741737109302911 ) ;
#346 = VERTEX_POINT ( 'NONE', #272 ) ;
#347 = ADVANCED_FACE ( 'NONE', ( #361 ), #148, .T. ) ;
#348 = CARTESIAN_POINT ( 'NONE',  ( 1.745740669421566678E-15, 0.0000000000000000000, 0.5000000000000000000 ) ) ;
#349 = ORIENTED_EDGE ( 'NONE', *, *, #1, .F. ) ;
#350 = DIRECTION ( 'NONE',  ( -3.491481338843133355E-15, 1.224646799147353207E-16, -1.000000000000000000 ) ) ;
#351 = CYLINDRICAL_SURFACE ( 'NONE', #18, 0.2400000000000000189 ) ;
#352 = ORIENTED_EDGE ( 'NONE', *, *, #77, .T. ) ;
#353 = FACE_OUTER_BOUND ( 'NONE', #106, .T. ) ;
#354 = CC_DESIGN_PERSON_AND_ORGANIZATION_ASSIGNMENT ( #252, #283, ( #80 ) ) ;
#355 = CARTESIAN_POINT ( 'NONE',  ( 1.595606971851311880E-13, -5.596635872103403844E-15, 45.69999999999999574 ) ) ;
#356 = CYLINDRICAL_SURFACE ( 'NONE', #363, 0.4000000000000000222 ) ;
#357 = EDGE_CURVE ( 'NONE', #344, #346, #63, .T. ) ;
#358 = AXIS2_PLACEMENT_3D ( 'NONE', #168, #81, #383 ) ;
#359 = AXIS2_PLACEMENT_3D ( 'NONE', #26, #247, #294 ) ;
#360 = CARTESIAN_POINT ( 'NONE',  ( 2.246431842599177254E-14, 1.499999999999996003, 6.434036515124291533 ) ) ;
#361 = FACE_OUTER_BOUND ( 'NONE', #48, .T. ) ;
#362 = APPLICATION_CONTEXT ( 'configuration controlled 3d designs of mechanical parts and assemblies' ) ;
#363 = AXIS2_PLACEMENT_3D ( 'NONE', #149, #228, #290 ) ;
#364 = VECTOR ( 'NONE', #206, 1000.000000000000000 ) ;
#365 = CARTESIAN_POINT ( 'NONE',  ( 6.490032008261641559E-15, 0.2740741737109301246, 1.858819045102514389 ) ) ;
#366 = DIRECTION ( 'NONE',  ( -4.436099593085534244E-31, -1.000000000000000000, -1.270549420881450509E-16 ) ) ;
#367 = DIRECTION ( 'NONE',  ( 4.212971753347078429E-31, 1.000000000000000000, 1.228197773518735492E-16 ) ) ;
#368 = LINE ( 'NONE', #316, #147 ) ;
#369 = AXIS2_PLACEMENT_3D ( 'NONE', #303, #32, #388 ) ;
#370 = CARTESIAN_POINT ( 'NONE',  ( 1.606081415867841091E-13, -5.633375276077824704E-15, 46.00000000000000000 ) ) ;
#371 = EDGE_CURVE ( 'NONE', #311, #143, #212, .T. ) ;
#372 = DIRECTION ( 'NONE',  ( 0.0000000000000000000, -1.000000000000000000, 0.0000000000000000000 ) ) ;
#373 = PERSON_AND_ORGANIZATION ( #144, #59 ) ;
#374 = ORIENTED_EDGE ( 'NONE', *, *, #174, .T. ) ;
#375 =( NAMED_UNIT ( * ) SI_UNIT ( $, .STERADIAN. ) SOLID_ANGLE_UNIT ( ) );
#376 = DIRECTION ( 'NONE',  ( 4.275831445896958607E-31, 1.000000000000000000, 1.224646799147353207E-16 ) ) ;
#377 = ORIENTED_EDGE ( 'NONE', *, *, #235, .T. ) ;
#378 = CONICAL_SURFACE ( 'NONE', #71, 0.2740741737109302911, 0.2617993877991426355 ) ;
#379 = DIRECTION ( 'NONE',  ( 4.275831445896958607E-31, 1.000000000000000000, 1.224646799147353207E-16 ) ) ;
#380 = EDGE_LOOP ( 'NONE', ( #255, #253, #374, #72 ) ) ;
#381 = APPROVAL_STATUS ( 'not_yet_approved' ) ;
#382 = DIRECTION ( 'NONE',  ( 4.275831445896958607E-31, 1.000000000000000000, 1.224646799147353207E-16 ) ) ;
#383 = DIRECTION ( 'NONE',  ( 4.012354050806740777E-31, 1.000000000000000000, 1.129377263005733621E-16 ) ) ;
#384 = ORIENTED_EDGE ( 'NONE', *, *, #390, .T. ) ;
#385 = CARTESIAN_POINT ( 'NONE',  ( -0.2399999999999999634, 0.3200000000000000067, 0.01500000000000091364 ) ) ;
#386 = CIRCLE ( 'NONE', #208, 0.2400000000000000189 ) ;
#387 = FACE_OUTER_BOUND ( 'NONE', #239, .T. ) ;
#388 = DIRECTION ( 'NONE',  ( -3.491481338843133355E-15, 0.0000000000000000000, -1.000000000000000000 ) ) ;
#389 = CARTESIAN_POINT ( 'NONE',  ( -0.2399999999999998801, 0.2722881289544895611, 0.05059363163125681073 ) ) ;
#390 = EDGE_CURVE ( 'NONE', #197, #143, #231, .T. ) ;
#391 = FACE_OUTER_BOUND ( 'NONE', #162, .T. ) ;
#392 = ORIENTED_EDGE ( 'NONE', *, *, #174, .F. ) ;
#393 = VERTEX_POINT ( 'NONE', #91 ) ;
#394 = AXIS2_PLACEMENT_3D ( 'NONE', #355, #196, #322 ) ;
#395 = EDGE_CURVE ( 'NONE', #219, #197, #205, .T. ) ;
#396 =( LENGTH_UNIT ( ) NAMED_UNIT ( * ) SI_UNIT ( .MILLI., .METRE. ) );
#397 = PERSON_AND_ORGANIZATION ( #144, #59 ) ;
ENDSEC;
END-ISO-10303-21;
