ISO-10303-21;
HEADER;
FILE_DESCRIPTION (( 'STEP AP203' ),
    '1' );
FILE_NAME ('997984.step',
    '2021-12-03T13:00:59',
    ( '' ),
    ( '' ),
    'SwSTEP 2.0',
    'SolidWorks 2019',
    '' );
FILE_SCHEMA (( 'CONFIG_CONTROL_DESIGN' ));
ENDSEC;

DATA;
#1 = CARTESIAN_POINT ( 'NONE',  ( 0.0000000000000000000, 0.0000000000000000000, 0.0000000000000000000 ) ) ;
#2 = LINE ( 'NONE', #122, #4 ) ;
#3 = FACE_BOUND ( 'NONE', #391, .T. ) ;
#4 = VECTOR ( 'NONE', #370, 1000.000000000000000 ) ;
#5 = LINE ( 'NONE', #65, #125 ) ;
#6 = CARTESIAN_POINT ( 'NONE',  ( -0.2399999999999982703, 0.0000000000000000000, 0.5000000000000008882 ) ) ;
#7 = DATE_AND_TIME ( #101, #351 ) ;
#8 = VERTEX_POINT ( 'NONE', #327 ) ;
#9 = FACE_OUTER_BOUND ( 'NONE', #312, .T. ) ;
#10 = CARTESIAN_POINT ( 'NONE',  ( 0.0000000000000000000, 0.0000000000000000000, 0.0000000000000000000 ) ) ;
#11 = DIRECTION ( 'NONE',  ( -3.491481338843133355E-15, 1.224646799147353207E-16, -1.000000000000000000 ) ) ;
#12 = ORIENTED_EDGE ( 'NONE', *, *, #245, .F. ) ;
#13 = ADVANCED_FACE ( 'NONE', ( #47 ), #17, .T. ) ;
#14 =( NAMED_UNIT ( * ) PLANE_ANGLE_UNIT ( ) SI_UNIT ( $, .RADIAN. ) );
#15 = AXIS2_PLACEMENT_3D ( 'NONE', #328, #362, #229 ) ;
#16 = CC_DESIGN_PERSON_AND_ORGANIZATION_ASSIGNMENT ( #214, #33, ( #372 ) ) ;
#17 = CYLINDRICAL_SURFACE ( 'NONE', #28, 0.2400000000000000189 ) ;
#18 = CARTESIAN_POINT ( 'NONE',  ( -0.2399999999999996858, 0.2235803427625226991, 0.08476397484336971322 ) ) ;
#19 = CIRCLE ( 'NONE', #15, 0.2400000000000000189 ) ;
#20 = VERTEX_POINT ( 'NONE', #376 ) ;
#21 = CARTESIAN_POINT ( 'NONE',  ( -0.2399999999999994360, 0.0000000000000000000, 0.1642024137820257690 ) ) ;
#22 = EDGE_LOOP ( 'NONE', ( #176, #114, #172, #12 ) ) ;
#23 = DIRECTION ( 'NONE',  ( 0.0000000000000000000, 1.000000000000000000, 0.0000000000000000000 ) ) ;
#24 = ADVANCED_FACE ( 'NONE', ( #273 ), #374, .T. ) ;
#25 = ORIENTED_EDGE ( 'NONE', *, *, #178, .T. ) ;
#26 = DESIGN_CONTEXT ( 'detailed design', #133, 'design' ) ;
#27 = LINE ( 'NONE', #92, #393 ) ;
#28 = AXIS2_PLACEMENT_3D ( 'NONE', #240, #64, #151 ) ;
#29 = DIRECTION ( 'NONE',  ( 4.275831445896958607E-31, 1.000000000000000000, 1.224646799147353207E-16 ) ) ;
#30 = VERTEX_POINT ( 'NONE', #396 ) ;
#31 = DIRECTION ( 'NONE',  ( 3.491481338843133355E-15, -1.224646799147353207E-16, 1.000000000000000000 ) ) ;
#32 = FACE_OUTER_BOUND ( 'NONE', #252, .T. ) ;
#33 = PERSON_AND_ORGANIZATION_ROLE ( 'creator' ) ;
#34 = AXIS2_PLACEMENT_3D ( 'NONE', #261, #341, #98 ) ;
#35 = EDGE_CURVE ( 'NONE', #268, #268, #131, .T. ) ;
#36 = FACE_OUTER_BOUND ( 'NONE', #232, .T. ) ;
#37 = LINE ( 'NONE', #6, #220 ) ;
#38 = ORIENTED_EDGE ( 'NONE', *, *, #202, .T. ) ;
#39 = CALENDAR_DATE ( 2021, 3, 12 ) ;
#40 = AXIS2_PLACEMENT_3D ( 'NONE', #203, #238, #153 ) ;
#41 = APPROVAL_ROLE ( '' ) ;
#42 = ORIENTED_EDGE ( 'NONE', *, *, #281, .F. ) ;
#43 = PERSON_AND_ORGANIZATION_ROLE ( 'creator' ) ;
#44 = EDGE_CURVE ( 'NONE', #8, #20, #80, .T. ) ;
#45 = CARTESIAN_POINT ( 'NONE',  ( -0.2399999999999994360, 0.05951705403494925856, 0.1642024137820984886 ) ) ;
#46 = DIRECTION ( 'NONE',  ( -3.491481338843133355E-15, 1.224646799147353207E-16, -1.000000000000000000 ) ) ;
#47 = FACE_OUTER_BOUND ( 'NONE', #285, .T. ) ;
#48 = EDGE_CURVE ( 'NONE', #294, #260, #2, .T. ) ;
#49 = DIRECTION ( 'NONE',  ( -3.491481338843133355E-15, 1.224646799147353207E-16, -1.000000000000000000 ) ) ;
#50 = EDGE_LOOP ( 'NONE', ( #165 ) ) ;
#51 = ADVANCED_FACE ( 'NONE', ( #96, #3 ), #332, .T. ) ;
#52 = CIRCLE ( 'NONE', #357, 0.2400000000000000189 ) ;
#53 = ORIENTED_EDGE ( 'NONE', *, *, #348, .F. ) ;
#54 = CARTESIAN_POINT ( 'NONE',  ( 1.595606971851311880E-13, -5.596635872103403844E-15, 45.69999999999999574 ) ) ;
#55 = PRODUCT_DEFINITION_SHAPE ( 'NONE', 'NONE',  #223 ) ;
#56 = DIRECTION ( 'NONE',  ( 1.000000000000000000, 0.0000000000000000000, -3.491481338843133355E-15 ) ) ;
#57 = CARTESIAN_POINT ( 'NONE',  ( -1.496541006063935469E-31, 5.249159239316501627E-33, -4.286263797015735979E-17 ) ) ;
#58 = DIRECTION ( 'NONE',  ( 3.491481338843133355E-15, -1.224646799147353207E-16, 1.000000000000000000 ) ) ;
#59 = CIRCLE ( 'NONE', #314, 0.4000000000000000222 ) ;
#60 = AXIS2_PLACEMENT_3D ( 'NONE', #57, #119, #29 ) ;
#61 = CARTESIAN_POINT ( 'NONE',  ( 2.793185071074507868E-15, 0.2399999999999999911, 0.8000000000000003775 ) ) ;
#62 = DIRECTION ( 'NONE',  ( 1.000000000000000000, 0.0000000000000000000, -3.491481338843133355E-15 ) ) ;
#63 = CARTESIAN_POINT ( 'NONE',  ( 9.620620753268157522E-32, 0.4000000000000000222, 2.755455298081545086E-17 ) ) ;
#64 = DIRECTION ( 'NONE',  ( -3.491481338843133355E-15, 0.0000000000000000000, -1.000000000000000000 ) ) ;
#65 = CARTESIAN_POINT ( 'NONE',  ( 2.365919782978951696E-32, 0.4000000000000000222, 6.776263578034402713E-18 ) ) ;
#66 = CARTESIAN_POINT ( 'NONE',  ( -0.2399999999999999634, 0.3200000000000000067, 0.01500000000000091364 ) ) ;
#67 = APPROVAL_STATUS ( 'not_yet_approved' ) ;
#68 = CLOSED_SHELL ( 'NONE', ( #320, #166, #343, #51, #188, #247, #86 ) ) ;
#69 = VECTOR ( 'NONE', #94, 1000.000000000000000 ) ;
#70 = DIRECTION ( 'NONE',  ( -3.491481338843133355E-15, 1.224646799147353207E-16, -1.000000000000000000 ) ) ;
#71 = APPROVAL_DATE_TIME ( #7, #89 ) ;
#72 = CIRCLE ( 'NONE', #283, 0.2740741737109300136 ) ;
#73 = MECHANICAL_CONTEXT ( 'NONE', #221, 'mechanical' ) ;
#74 = APPROVAL_DATE_TIME ( #135, #160 ) ;
#75 = DIRECTION ( 'NONE',  ( 4.212971753347078429E-31, 1.000000000000000000, 1.228197773518735492E-16 ) ) ;
#76 = MANIFOLD_SOLID_BREP ( 'Corps-Déplacer/Copier1[1]', #289 ) ;
#77 = DIRECTION ( 'NONE',  ( 4.275831445896958607E-31, 1.000000000000000000, 1.224646799147353207E-16 ) ) ;
#78 = EDGE_CURVE ( 'NONE', #195, #194, #161, .T. ) ;
#79 = CARTESIAN_POINT ( 'NONE',  ( 5.733096635129393136E-16, -2.010899604504263445E-17, 0.1642024137820251584 ) ) ;
#80 = CIRCLE ( 'NONE', #60, 0.4000000000000000222 ) ;
#81 = VERTEX_POINT ( 'NONE', #397 ) ;
#82 = CARTESIAN_POINT ( 'NONE',  ( 1.595606971851311880E-13, -5.596635872103403844E-15, 45.69999999999999574 ) ) ;
#83 = ORIENTED_EDGE ( 'NONE', *, *, #78, .F. ) ;
#84 = APPROVAL_STATUS ( 'not_yet_approved' ) ;
#85 = ORIENTED_EDGE ( 'NONE', *, *, #308, .T. ) ;
#86 = ADVANCED_FACE ( 'NONE', ( #212 ), #305, .T. ) ;
#87 = CIRCLE ( 'NONE', #138, 0.2400000000000000189 ) ;
#88 = ORIENTED_EDGE ( 'NONE', *, *, #48, .F. ) ;
#89 = APPROVAL ( #84, 'UNSPECIFIED' ) ;
#90 = DIRECTION ( 'NONE',  ( -1.000000000000000000, 0.0000000000000000000, 3.491481338843132961E-15 ) ) ;
#91 = ORIENTED_EDGE ( 'NONE', *, *, #173, .T. ) ;
#92 = CARTESIAN_POINT ( 'NONE',  ( 5.733096635129380317E-16, 0.4000000000000000222, 0.1642024137820247698 ) ) ;
#93 = FACE_OUTER_BOUND ( 'NONE', #22, .T. ) ;
#94 = DIRECTION ( 'NONE',  ( -2.381184547279826694E-15, 0.7313537016191723472, -0.6819983600624964781 ) ) ;
#95 = AXIS2_PLACEMENT_3D ( 'NONE', #142, #330, #323 ) ;
#96 = FACE_OUTER_BOUND ( 'NONE', #148, .T. ) ;
#97 = ADVANCED_FACE ( 'NONE', ( #32 ), #209, .F. ) ;
#98 = DIRECTION ( 'NONE',  ( 4.275831445896958607E-31, 1.000000000000000000, 1.224646799147353207E-16 ) ) ;
#99 = LINE ( 'NONE', #185, #109 ) ;
#100 = ORIENTED_EDGE ( 'NONE', *, *, #120, .T. ) ;
#101 = CALENDAR_DATE ( 2021, 3, 12 ) ;
#102 =( LENGTH_UNIT ( ) NAMED_UNIT ( * ) SI_UNIT ( .MILLI., .METRE. ) );
#103 = ORIENTED_EDGE ( 'NONE', *, *, #44, .F. ) ;
#104 = AXIS2_PLACEMENT_3D ( 'NONE', #256, #46, #191 ) ;
#105 = PERSON_AND_ORGANIZATION ( #211, #164 ) ;
#106 = ADVANCED_FACE ( 'NONE', ( #156 ), #290, .T. ) ;
#107 = CARTESIAN_POINT ( 'NONE',  ( 3.696846937187135663E-15, 0.2740741737109299025, 1.058819045102514567 ) ) ;
#108 = CARTESIAN_POINT ( 'NONE',  ( 5.733096635129379331E-16, 0.2400000000000000466, 0.1642024137820247420 ) ) ;
#109 = VECTOR ( 'NONE', #278, 1000.000000000000000 ) ;
#110 = DIRECTION ( 'NONE',  ( 4.012354050806740777E-31, 1.000000000000000000, 1.129377263005733621E-16 ) ) ;
#111 = ORIENTED_EDGE ( 'NONE', *, *, #120, .F. ) ;
#112 = FACE_OUTER_BOUND ( 'NONE', #329, .T. ) ;
#113 = EDGE_LOOP ( 'NONE', ( #201 ) ) ;
#114 = ORIENTED_EDGE ( 'NONE', *, *, #322, .F. ) ;
#115 = CARTESIAN_POINT ( 'NONE',  ( 0.0000000000000000000, 0.0000000000000000000, 0.0000000000000000000 ) ) ;
#116 = VECTOR ( 'NONE', #171, 1000.000000000000000 ) ;
#117 = VERTEX_POINT ( 'NONE', #66 ) ;
#118 = CARTESIAN_POINT ( 'NONE',  ( 1.967113335491725954E-14, 1.499999999999996003, 5.634036515124289934 ) ) ;
#119 = DIRECTION ( 'NONE',  ( -3.491481338843133355E-15, 1.224646799147353207E-16, -1.000000000000000000 ) ) ;
#120 = EDGE_CURVE ( 'NONE', #20, #194, #99, .T. ) ;
#121 = DIRECTION ( 'NONE',  ( -3.491481338843133355E-15, 1.224646799147353207E-16, -1.000000000000000000 ) ) ;
#122 = CARTESIAN_POINT ( 'NONE',  ( 5.733096635129377359E-16, -0.2400000000000000189, 0.1642024137820246865 ) ) ;
#123 = CARTESIAN_POINT ( 'NONE',  ( 2.793185071074507868E-15, -9.797174393178829848E-17, 0.8000000000000003775 ) ) ;
#124 = DATE_TIME_ROLE ( 'classification_date' ) ;
#125 = VECTOR ( 'NONE', #313, 1000.000000000000000 ) ;
#126 = CYLINDRICAL_SURFACE ( 'NONE', #303, 0.2400000000000000466 ) ;
#127 = ORIENTED_EDGE ( 'NONE', *, *, #134, .F. ) ;
#128 = DIRECTION ( 'NONE',  ( -3.491481338843133355E-15, 1.224646799147353207E-16, -1.000000000000000000 ) ) ;
#129 = APPROVAL ( #67, 'UNSPECIFIED' ) ;
#130 = ORIENTED_EDGE ( 'NONE', *, *, #134, .T. ) ;
#131 = CIRCLE ( 'NONE', #355, 0.2400000000000000744 ) ;
#132 = PERSON_AND_ORGANIZATION ( #211, #164 ) ;
#133 = APPLICATION_CONTEXT ( 'configuration controlled 3d designs of mechanical parts and assemblies' ) ;
#134 = EDGE_CURVE ( 'NONE', #81, #257, #37, .T. ) ;
#135 = DATE_AND_TIME ( #222, #208 ) ;
#136 = DIRECTION ( 'NONE',  ( 4.275831445896958607E-31, 1.000000000000000000, 1.224646799147353207E-16 ) ) ;
#137 = ORIENTED_EDGE ( 'NONE', *, *, #35, .T. ) ;
#138 = AXIS2_PLACEMENT_3D ( 'NONE', #115, #365, #90 ) ;
#139 = APPLICATION_PROTOCOL_DEFINITION ( 'international standard', 'config_control_design', 1994, #133 ) ;
#140 = CARTESIAN_POINT ( 'NONE',  ( 1.606081415867841091E-13, 1.199999999999998845, 46.00000000000000000 ) ) ;
#141 = CC_DESIGN_PERSON_AND_ORGANIZATION_ASSIGNMENT ( #251, #43, ( #223 ) ) ;
#142 = CARTESIAN_POINT ( 'NONE',  ( 5.733096635129393136E-16, -2.010899604504263445E-17, 0.1642024137820251584 ) ) ;
#143 = EDGE_LOOP ( 'NONE', ( #334 ) ) ;
#144 = B_SPLINE_CURVE_WITH_KNOTS ( 'NONE', 3,
 ( #21, #45, #293, #18, #259, #386 ),
 .UNSPECIFIED., .F., .F.,
 ( 4, 2, 4 ),
 ( 0.0004952036725959777690, 0.0006737229117608758630, 0.0008522421509257738486 ),
 .UNSPECIFIED. ) ;
#145 = CC_DESIGN_APPROVAL ( #160, ( #223 ) ) ;
#146 = ORIENTED_EDGE ( 'NONE', *, *, #184, .T. ) ;
#147 = PLANE ( 'NONE',  #34 ) ;
#148 = EDGE_LOOP ( 'NONE', ( #359 ) ) ;
#149 = EDGE_LOOP ( 'NONE', ( #42 ) ) ;
#150 = AXIS2_PLACEMENT_3D ( 'NONE', #275, #121, #207 ) ;
#151 = DIRECTION ( 'NONE',  ( -1.000000000000000000, 0.0000000000000000000, 3.614007241618347587E-15 ) ) ;
#152 = DATE_AND_TIME ( #395, #319 ) ;
#153 = DIRECTION ( 'NONE',  ( 0.0000000000000000000, 1.000000000000000000, 0.0000000000000000000 ) ) ;
#154 = DIRECTION ( 'NONE',  ( -3.491481338843133355E-15, 1.224646799147353207E-16, -1.000000000000000000 ) ) ;
#155 = DATE_AND_TIME ( #279, #186 ) ;
#156 = FACE_OUTER_BOUND ( 'NONE', #250, .T. ) ;
#157 = PERSON_AND_ORGANIZATION ( #211, #164 ) ;
#158 = CIRCLE ( 'NONE', #381, 1.500000000000004441 ) ;
#159 = ADVANCED_BREP_SHAPE_REPRESENTATION ( '997984', ( #76, #346, #338 ), #325 ) ;
#160 = APPROVAL ( #287, 'UNSPECIFIED' ) ;
#161 = LINE ( 'NONE', #302, #69 ) ;
#162 = DATE_AND_TIME ( #39, #277 ) ;
#163 = PERSON_AND_ORGANIZATION_ROLE ( 'classification_officer' ) ;
#164 = ORGANIZATION ( 'UNSPECIFIED', 'UNSPECIFIED', '' ) ;
#165 = ORIENTED_EDGE ( 'NONE', *, *, #382, .F. ) ;
#166 = ADVANCED_FACE ( 'NONE', ( #9, #367 ), #126, .T. ) ;
#167 = COORDINATED_UNIVERSAL_TIME_OFFSET ( 1, 0, .AHEAD. ) ;
#168 = APPROVAL_PERSON_ORGANIZATION ( #132, #129, #248 ) ;
#169 = CARTESIAN_POINT ( 'NONE',  ( 5.733096635129392150E-16, -0.2400000000000000466, 0.1642024137820251306 ) ) ;
#170 = ORIENTED_EDGE ( 'NONE', *, *, #35, .F. ) ;
#171 = DIRECTION ( 'NONE',  ( 0.0000000000000000000, -1.000000000000000000, 0.0000000000000000000 ) ) ;
#172 = ORIENTED_EDGE ( 'NONE', *, *, #352, .F. ) ;
#173 = EDGE_CURVE ( 'NONE', #117, #8, #206, .T. ) ;
#174 = CC_DESIGN_APPROVAL ( #89, ( #372 ) ) ;
#175 = ORIENTED_EDGE ( 'NONE', *, *, #286, .T. ) ;
#176 = ORIENTED_EDGE ( 'NONE', *, *, #44, .T. ) ;
#177 = DIRECTION ( 'NONE',  ( -3.491481338843133355E-15, 1.224646799147353207E-16, -1.000000000000000000 ) ) ;
#178 = EDGE_CURVE ( 'NONE', #195, #294, #27, .T. ) ;
#179 = DIRECTION ( 'NONE',  ( -3.491481338843133355E-15, 1.224646799147353207E-16, -1.000000000000000000 ) ) ;
#180 = AXIS2_PLACEMENT_3D ( 'NONE', #244, #58, #243 ) ;
#181 = CARTESIAN_POINT ( 'NONE',  ( 1.606081415867841091E-13, -5.633375276077824704E-15, 46.00000000000000000 ) ) ;
#182 = DIRECTION ( 'NONE',  ( 0.0000000000000000000, 1.000000000000000000, 0.0000000000000000000 ) ) ;
#183 = DIRECTION ( 'NONE',  ( -3.491481338843133355E-15, 1.224646799147353207E-16, -1.000000000000000000 ) ) ;
#184 = EDGE_CURVE ( 'NONE', #117, #194, #59, .T. ) ;
#185 = CARTESIAN_POINT ( 'NONE',  ( 5.733096635129380317E-16, 0.4000000000000000222, 0.1642024137820247698 ) ) ;
#186 = LOCAL_TIME ( 14, 0, 59.00000000000000000, #318 ) ;
#187 = PERSON_AND_ORGANIZATION ( #211, #164 ) ;
#188 = ADVANCED_FACE ( 'NONE', ( #284, #288 ), #345, .T. ) ;
#189 = DIRECTION ( 'NONE',  ( 0.0000000000000000000, 0.0000000000000000000, 1.000000000000000000 ) ) ;
#190 = CC_DESIGN_PERSON_AND_ORGANIZATION_ASSIGNMENT ( #187, #163, ( #304 ) ) ;
#191 = DIRECTION ( 'NONE',  ( 0.0000000000000000000, 1.000000000000000000, 0.0000000000000000000 ) ) ;
#192 = AXIS2_PLACEMENT_3D ( 'NONE', #1, #56, #369 ) ;
#193 = FACE_OUTER_BOUND ( 'NONE', #227, .T. ) ;
#194 = VERTEX_POINT ( 'NONE', #255 ) ;
#195 = VERTEX_POINT ( 'NONE', #108 ) ;
#196 = EDGE_CURVE ( 'NONE', #30, #30, #52, .T. ) ;
#197 = CARTESIAN_POINT ( 'NONE',  ( -0.2400000000000000189, 0.0000000000000000000, 8.379555213223519855E-16 ) ) ;
#198 = ORIENTED_EDGE ( 'NONE', *, *, #245, .T. ) ;
#199 = TOROIDAL_SURFACE ( 'NONE', #150, 1.239999999999999991, 1.000000000000000000 ) ;
#200 = LINE ( 'NONE', #333, #116 ) ;
#201 = ORIENTED_EDGE ( 'NONE', *, *, #196, .F. ) ;
#202 = EDGE_CURVE ( 'NONE', #81, #195, #19, .T. ) ;
#203 = CARTESIAN_POINT ( 'NONE',  ( 1.606081415867841091E-13, -5.633375276077824704E-15, 46.00000000000000000 ) ) ;
#204 = CARTESIAN_POINT ( 'NONE',  ( -0.2400000000000000189, 0.3200000000000000067, 8.771442188950673000E-16 ) ) ;
#205 = VERTEX_POINT ( 'NONE', #336 ) ;
#206 = LINE ( 'NONE', #204, #253 ) ;
#207 = DIRECTION ( 'NONE',  ( 2.645163954490697466E-31, 1.000000000000000000, 1.224646799147353207E-16 ) ) ;
#208 = LOCAL_TIME ( 14, 0, 59.00000000000000000, #167 ) ;
#209 = PLANE ( 'NONE',  #235 ) ;
#210 = COORDINATED_UNIVERSAL_TIME_OFFSET ( 1, 0, .AHEAD. ) ;
#211 = PERSON ( 'UNSPECIFIED', 'UNSPECIFIED', 'UNSPECIFIED', ('UNSPECIFIED'), ('UNSPECIFIED'), ('UNSPECIFIED') ) ;
#212 = FACE_OUTER_BOUND ( 'NONE', #50, .T. ) ;
#213 = CARTESIAN_POINT ( 'NONE',  ( 5.237222008264709154E-17, -1.836970198721033062E-18, 0.01500000000000002547 ) ) ;
#214 = PERSON_AND_ORGANIZATION ( #211, #164 ) ;
#215 = AXIS2_PLACEMENT_3D ( 'NONE', #218, #11, #136 ) ;
#216 = SHAPE_DEFINITION_REPRESENTATION ( #55, #159 ) ;
#217 = CC_DESIGN_DATE_AND_TIME_ASSIGNMENT ( #152, #241, ( #223 ) ) ;
#218 = CARTESIAN_POINT ( 'NONE',  ( 0.0000000000000000000, 0.0000000000000000000, 0.0000000000000000000 ) ) ;
#219 = DIRECTION ( 'NONE',  ( 1.000000000000000000, 0.0000000000000000000, 0.0000000000000000000 ) ) ;
#220 = VECTOR ( 'NONE', #269, 1000.000000000000000 ) ;
#221 = APPLICATION_CONTEXT ( 'configuration controlled 3d designs of mechanical parts and assemblies' ) ;
#222 = CALENDAR_DATE ( 2021, 3, 12 ) ;
#223 = PRODUCT_DEFINITION ( 'UNKNOWN', '', #372, #26 ) ;
#224 = PERSON_AND_ORGANIZATION_ROLE ( 'design_owner' ) ;
#225 = APPLICATION_PROTOCOL_DEFINITION ( 'international standard', 'config_control_design', 1994, #221 ) ;
#226 = FACE_OUTER_BOUND ( 'NONE', #360, .T. ) ;
#227 = EDGE_LOOP ( 'NONE', ( #363 ) ) ;
#228 = CONICAL_SURFACE ( 'NONE', #276, 1.500000000000004441, 0.7853981633974453924 ) ;
#229 = DIRECTION ( 'NONE',  ( 4.012354050806740777E-31, 1.000000000000000000, 1.129377263005733621E-16 ) ) ;
#230 = EDGE_LOOP ( 'NONE', ( #25, #262, #366, #100, #83 ) ) ;
#231 = DIRECTION ( 'NONE',  ( -3.491481338843133355E-15, 1.224646799147353207E-16, -1.000000000000000000 ) ) ;
#232 = EDGE_LOOP ( 'NONE', ( #347 ) ) ;
#233 = FACE_BOUND ( 'NONE', #143, .T. ) ;
#234 = ORIENTED_EDGE ( 'NONE', *, *, #178, .F. ) ;
#235 = AXIS2_PLACEMENT_3D ( 'NONE', #342, #62, #335 ) ;
#236 = FACE_OUTER_BOUND ( 'NONE', #237, .T. ) ;
#237 = EDGE_LOOP ( 'NONE', ( #170 ) ) ;
#238 = DIRECTION ( 'NONE',  ( -3.491481338843133355E-15, 1.224646799147353207E-16, -1.000000000000000000 ) ) ;
#239 = DIRECTION ( 'NONE',  ( 4.212971753347078429E-31, 1.000000000000000000, 1.228197773518735492E-16 ) ) ;
#240 = CARTESIAN_POINT ( 'NONE',  ( 1.745740669421566678E-15, 0.0000000000000000000, 0.5000000000000000000 ) ) ;
#241 = DATE_TIME_ROLE ( 'creation_date' ) ;
#242 = AXIS2_PLACEMENT_3D ( 'NONE', #181, #340, #310 ) ;
#243 = DIRECTION ( 'NONE',  ( 0.0000000000000000000, -1.000000000000000000, 0.0000000000000000000 ) ) ;
#244 = CARTESIAN_POINT ( 'NONE',  ( 3.696846937187135663E-15, -1.296679354461051282E-16, 1.058819045102514567 ) ) ;
#245 = EDGE_CURVE ( 'NONE', #8, #257, #200, .T. ) ;
#246 = DIRECTION ( 'NONE',  ( 4.275831445896958607E-31, 1.000000000000000000, 1.224646799147352961E-16 ) ) ;
#247 = ADVANCED_FACE ( 'NONE', ( #233, #193 ), #228, .T. ) ;
#248 = APPROVAL_ROLE ( '' ) ;
#249 = AXIS2_PLACEMENT_3D ( 'NONE', #280, #154, #239 ) ;
#250 = EDGE_LOOP ( 'NONE', ( #38, #331, #387, #384 ) ) ;
#251 = PERSON_AND_ORGANIZATION ( #211, #164 ) ;
#252 = EDGE_LOOP ( 'NONE', ( #85, #91, #198, #127 ) ) ;
#253 = VECTOR ( 'NONE', #179, 1000.000000000000000 ) ;
#254 =( NAMED_UNIT ( * ) SI_UNIT ( $, .STERADIAN. ) SOLID_ANGLE_UNIT ( ) );
#255 = CARTESIAN_POINT ( 'NONE',  ( 5.237222008264751679E-17, 0.4000000000000000222, 0.01500000000000014863 ) ) ;
#256 = CARTESIAN_POINT ( 'NONE',  ( 1.967113335491725954E-14, -6.899704784526270099E-16, 5.634036515124289934 ) ) ;
#257 = VERTEX_POINT ( 'NONE', #197 ) ;
#258 = CIRCLE ( 'NONE', #95, 0.2400000000000000189 ) ;
#259 = CARTESIAN_POINT ( 'NONE',  ( -0.2399999999999998801, 0.2722881289544895611, 0.05059363163125681073 ) ) ;
#260 = VERTEX_POINT ( 'NONE', #291 ) ;
#261 = CARTESIAN_POINT ( 'NONE',  ( 5.733096635129386233E-16, 0.2399999999999999911, 0.1642024137820249641 ) ) ;
#262 = ORIENTED_EDGE ( 'NONE', *, *, #48, .T. ) ;
#263 = DIRECTION ( 'NONE',  ( -3.491481338843133355E-15, 1.224646799147353207E-16, -1.000000000000000000 ) ) ;
#264 = EDGE_LOOP ( 'NONE', ( #300 ) ) ;
#265 = CC_DESIGN_PERSON_AND_ORGANIZATION_ASSIGNMENT ( #157, #274, ( #372 ) ) ;
#266 = UNCERTAINTY_MEASURE_WITH_UNIT (LENGTH_MEASURE( 1.000000000000000082E-05 ), #102, 'distance_accuracy_value', 'NONE');
#267 = AXIS2_PLACEMENT_3D ( 'NONE', #326, #358, #77 ) ;
#268 = VERTEX_POINT ( 'NONE', #61 ) ;
#269 = DIRECTION ( 'NONE',  ( -3.491481338843133355E-15, 0.0000000000000000000, -1.000000000000000000 ) ) ;
#270 = PLANE ( 'NONE',  #192 ) ;
#271 = ADVANCED_FACE ( 'NONE', ( #226 ), #353, .T. ) ;
#272 = VERTEX_POINT ( 'NONE', #118 ) ;
#273 = FACE_OUTER_BOUND ( 'NONE', #321, .T. ) ;
#274 = PERSON_AND_ORGANIZATION_ROLE ( 'design_supplier' ) ;
#275 = CARTESIAN_POINT ( 'NONE',  ( 2.793185071074506684E-15, 0.0000000000000000000, 0.8000000000000000444 ) ) ;
#276 = AXIS2_PLACEMENT_3D ( 'NONE', #54, #231, #23 ) ;
#277 = LOCAL_TIME ( 14, 0, 59.00000000000000000, #210 ) ;
#278 = DIRECTION ( 'NONE',  ( 3.491481338843133355E-15, -0.0000000000000000000, 1.000000000000000000 ) ) ;
#279 = CALENDAR_DATE ( 2021, 3, 12 ) ;
#280 = CARTESIAN_POINT ( 'NONE',  ( 5.237222008264709154E-17, -1.836970198721033062E-18, 0.01500000000000002547 ) ) ;
#281 = EDGE_CURVE ( 'NONE', #272, #272, #344, .T. ) ;
#282 = AXIS2_PLACEMENT_3D ( 'NONE', #63, #177, #301 ) ;
#283 = AXIS2_PLACEMENT_3D ( 'NONE', #373, #263, #390 ) ;
#284 = FACE_OUTER_BOUND ( 'NONE', #264, .T. ) ;
#285 = EDGE_LOOP ( 'NONE', ( #88, #175, #130, #389 ) ) ;
#286 = EDGE_CURVE ( 'NONE', #294, #81, #258, .T. ) ;
#287 = APPROVAL_STATUS ( 'not_yet_approved' ) ;
#288 = FACE_OUTER_BOUND ( 'NONE', #149, .T. ) ;
#289 = CLOSED_SHELL ( 'NONE', ( #271, #106, #388, #24, #13, #97, #385 ) ) ;
#290 = CONICAL_SURFACE ( 'NONE', #249, 0.4000000000000000222, 0.8203047484373374720 ) ;
#291 = CARTESIAN_POINT ( 'NONE',  ( -2.839103739574742144E-31, -0.2400000000000000189, -8.131516293641283255E-17 ) ) ;
#292 = ORIENTED_EDGE ( 'NONE', *, *, #196, .T. ) ;
#293 = CARTESIAN_POINT ( 'NONE',  ( -0.2399999999999995748, 0.1182218133219940237, 0.1417531733093819191 ) ) ;
#294 = VERTEX_POINT ( 'NONE', #169 ) ;
#295 = APPROVAL_ROLE ( '' ) ;
#296 = APPROVAL_PERSON_ORGANIZATION ( #361, #89, #295 ) ;
#297 = DIRECTION ( 'NONE',  ( 0.0000000000000000000, 1.000000000000000000, 0.0000000000000000000 ) ) ;
#298 = ORIENTED_EDGE ( 'NONE', *, *, #286, .F. ) ;
#299 = CC_DESIGN_PERSON_AND_ORGANIZATION_ASSIGNMENT ( #105, #224, ( #324 ) ) ;
#300 = ORIENTED_EDGE ( 'NONE', *, *, #306, .T. ) ;
#301 = DIRECTION ( 'NONE',  ( 4.275831445896958607E-31, 1.000000000000000000, 1.224646799147353207E-16 ) ) ;
#302 = CARTESIAN_POINT ( 'NONE',  ( 1.354715828658377567E-15, -4.751703481452503056E-17, 0.3880060344550628204 ) ) ;
#303 = AXIS2_PLACEMENT_3D ( 'NONE', #375, #128, #246 ) ;
#304 = SECURITY_CLASSIFICATION ( '', '', #316 ) ;
#305 = PLANE ( 'NONE',  #242 ) ;
#306 = EDGE_CURVE ( 'NONE', #205, #205, #158, .T. ) ;
#307 = CARTESIAN_POINT ( 'NONE',  ( 5.733096635129386233E-16, 0.2399999999999999911, 0.1642024137820249641 ) ) ;
#308 = EDGE_CURVE ( 'NONE', #81, #117, #144, .T. ) ;
#309 = FACE_OUTER_BOUND ( 'NONE', #230, .T. ) ;
#310 = DIRECTION ( 'NONE',  ( -4.275831445896958607E-31, -1.000000000000000000, -1.224646799147353207E-16 ) ) ;
#311 = COORDINATED_UNIVERSAL_TIME_OFFSET ( 1, 0, .AHEAD. ) ;
#312 = EDGE_LOOP ( 'NONE', ( #137 ) ) ;
#313 = DIRECTION ( 'NONE',  ( 4.805774559175995650E-31, 1.000000000000000000, 1.376428539288238051E-16 ) ) ;
#314 = AXIS2_PLACEMENT_3D ( 'NONE', #213, #70, #75 ) ;
#315 = DIRECTION ( 'NONE',  ( -4.275831445896958607E-31, -1.000000000000000000, -1.224646799147353207E-16 ) ) ;
#316 = SECURITY_CLASSIFICATION_LEVEL ( 'unclassified' ) ;
#317 = PRODUCT_RELATED_PRODUCT_CATEGORY ( 'detail', '', ( #324 ) ) ;
#318 = COORDINATED_UNIVERSAL_TIME_OFFSET ( 1, 0, .AHEAD. ) ;
#319 = LOCAL_TIME ( 14, 0, 59.00000000000000000, #378 ) ;
#320 = ADVANCED_FACE ( 'NONE', ( #112 ), #147, .T. ) ;
#321 = EDGE_LOOP ( 'NONE', ( #298, #234, #379 ) ) ;
#322 = EDGE_CURVE ( 'NONE', #260, #20, #5, .T. ) ;
#323 = DIRECTION ( 'NONE',  ( 4.012354050806740777E-31, 1.000000000000000000, 1.129377263005733621E-16 ) ) ;
#324 = PRODUCT ( '997984', '997984', '', ( #73 ) ) ;
#325 =( GEOMETRIC_REPRESENTATION_CONTEXT ( 3 ) GLOBAL_UNCERTAINTY_ASSIGNED_CONTEXT ( ( #266 ) ) GLOBAL_UNIT_ASSIGNED_CONTEXT ( ( #102, #14, #254 ) ) REPRESENTATION_CONTEXT ( 'NONE', 'WORKASPACE' ) );
#326 = CARTESIAN_POINT ( 'NONE',  ( 0.0000000000000000000, 0.0000000000000000000, 0.0000000000000000000 ) ) ;
#327 = CARTESIAN_POINT ( 'NONE',  ( -0.2400000000000000189, 0.3200000000000000067, 8.379555213223519855E-16 ) ) ;
#328 = CARTESIAN_POINT ( 'NONE',  ( 5.733096635129393136E-16, -2.010899604504263445E-17, 0.1642024137820251584 ) ) ;
#329 = EDGE_LOOP ( 'NONE', ( #292 ) ) ;
#330 = DIRECTION ( 'NONE',  ( -3.491481338843133355E-15, 1.224646799147353207E-16, -1.000000000000000000 ) ) ;
#331 = ORIENTED_EDGE ( 'NONE', *, *, #78, .T. ) ;
#332 = CONICAL_SURFACE ( 'NONE', #180, 0.2740741737109300136, 0.2617993877991428020 ) ;
#333 = CARTESIAN_POINT ( 'NONE',  ( -0.2400000000000000189, 0.0000000000000000000, 8.379555213223519855E-16 ) ) ;
#334 = ORIENTED_EDGE ( 'NONE', *, *, #382, .T. ) ;
#335 = DIRECTION ( 'NONE',  ( -3.491481338843133355E-15, 0.0000000000000000000, -1.000000000000000000 ) ) ;
#336 = CARTESIAN_POINT ( 'NONE',  ( 1.595606971851311880E-13, 1.499999999999998668, 45.69999999999999574 ) ) ;
#337 = DIRECTION ( 'NONE',  ( -4.436099593085534244E-31, -1.000000000000000000, -1.270549420881450509E-16 ) ) ;
#338 = AXIS2_PLACEMENT_3D ( 'NONE', #10, #189, #219 ) ;
#339 = PLANE ( 'NONE',  #282 ) ;
#340 = DIRECTION ( 'NONE',  ( 3.491481338843133355E-15, -1.224646799147353207E-16, 1.000000000000000000 ) ) ;
#341 = DIRECTION ( 'NONE',  ( -3.491481338843133355E-15, 1.224646799147353207E-16, -1.000000000000000000 ) ) ;
#342 = CARTESIAN_POINT ( 'NONE',  ( -0.2399999999999982703, 0.0000000000000000000, 0.5000000000000008882 ) ) ;
#343 = ADVANCED_FACE ( 'NONE', ( #36, #236 ), #199, .F. ) ;
#344 = CIRCLE ( 'NONE', #104, 1.499999999999996669 ) ;
#345 = CYLINDRICAL_SURFACE ( 'NONE', #215, 1.500000000000000444 ) ;
#346 = MANIFOLD_SOLID_BREP ( 'Corps-Déplacer/Copier1[2]', #68 ) ;
#347 = ORIENTED_EDGE ( 'NONE', *, *, #348, .T. ) ;
#348 = EDGE_CURVE ( 'NONE', #380, #380, #72, .T. ) ;
#349 = CC_DESIGN_SECURITY_CLASSIFICATION ( #304, ( #372 ) ) ;
#350 = VERTEX_POINT ( 'NONE', #140 ) ;
#351 = LOCAL_TIME ( 14, 0, 59.00000000000000000, #311 ) ;
#352 = EDGE_CURVE ( 'NONE', #257, #260, #87, .T. ) ;
#353 = CYLINDRICAL_SURFACE ( 'NONE', #267, 0.4000000000000000222 ) ;
#354 = DIRECTION ( 'NONE',  ( -3.491481338843133355E-15, 1.224646799147353207E-16, -1.000000000000000000 ) ) ;
#355 = AXIS2_PLACEMENT_3D ( 'NONE', #123, #183, #182 ) ;
#356 = ORIENTED_EDGE ( 'NONE', *, *, #173, .F. ) ;
#357 = AXIS2_PLACEMENT_3D ( 'NONE', #79, #354, #110 ) ;
#358 = DIRECTION ( 'NONE',  ( -3.491481338843133355E-15, 1.224646799147353207E-16, -1.000000000000000000 ) ) ;
#359 = ORIENTED_EDGE ( 'NONE', *, *, #281, .T. ) ;
#360 = EDGE_LOOP ( 'NONE', ( #146, #111, #103, #356 ) ) ;
#361 = PERSON_AND_ORGANIZATION ( #211, #164 ) ;
#362 = DIRECTION ( 'NONE',  ( -3.491481338843133355E-15, 1.224646799147353207E-16, -1.000000000000000000 ) ) ;
#363 = ORIENTED_EDGE ( 'NONE', *, *, #306, .F. ) ;
#364 = CIRCLE ( 'NONE', #40, 1.200000000000004396 ) ;
#365 = DIRECTION ( 'NONE',  ( 3.491481338843133355E-15, -0.0000000000000000000, 1.000000000000000000 ) ) ;
#366 = ORIENTED_EDGE ( 'NONE', *, *, #322, .T. ) ;
#367 = FACE_OUTER_BOUND ( 'NONE', #113, .T. ) ;
#368 = CC_DESIGN_DATE_AND_TIME_ASSIGNMENT ( #155, #124, ( #304 ) ) ;
#369 = DIRECTION ( 'NONE',  ( -3.491481338843133355E-15, 0.0000000000000000000, -1.000000000000000000 ) ) ;
#370 = DIRECTION ( 'NONE',  ( -3.491481338843133355E-15, 0.0000000000000000000, -1.000000000000000000 ) ) ;
#371 = APPROVAL_DATE_TIME ( #162, #129 ) ;
#372 = PRODUCT_DEFINITION_FORMATION_WITH_SPECIFIED_SOURCE ( 'ANY', '', #324, .NOT_KNOWN. ) ;
#373 = CARTESIAN_POINT ( 'NONE',  ( 3.696846937187135663E-15, -1.296679354461051282E-16, 1.058819045102514567 ) ) ;
#374 = PLANE ( 'NONE',  #392 ) ;
#375 = CARTESIAN_POINT ( 'NONE',  ( 0.0000000000000000000, 0.0000000000000000000, 0.0000000000000000000 ) ) ;
#376 = CARTESIAN_POINT ( 'NONE',  ( 2.365919782978951696E-32, 0.4000000000000000222, 6.776263578034402713E-18 ) ) ;
#377 = PERSON_AND_ORGANIZATION ( #211, #164 ) ;
#378 = COORDINATED_UNIVERSAL_TIME_OFFSET ( 1, 0, .AHEAD. ) ;
#379 = ORIENTED_EDGE ( 'NONE', *, *, #202, .F. ) ;
#380 = VERTEX_POINT ( 'NONE', #107 ) ;
#381 = AXIS2_PLACEMENT_3D ( 'NONE', #82, #49, #297 ) ;
#382 = EDGE_CURVE ( 'NONE', #350, #350, #364, .T. ) ;
#383 = APPROVAL_PERSON_ORGANIZATION ( #377, #160, #41 ) ;
#384 = ORIENTED_EDGE ( 'NONE', *, *, #308, .F. ) ;
#385 = ADVANCED_FACE ( 'NONE', ( #309 ), #270, .T. ) ;
#386 = CARTESIAN_POINT ( 'NONE',  ( -0.2399999999999999634, 0.3200000000000000067, 0.01500000000000091364 ) ) ;
#387 = ORIENTED_EDGE ( 'NONE', *, *, #184, .F. ) ;
#388 = ADVANCED_FACE ( 'NONE', ( #93 ), #339, .T. ) ;
#389 = ORIENTED_EDGE ( 'NONE', *, *, #352, .T. ) ;
#390 = DIRECTION ( 'NONE',  ( 0.0000000000000000000, 1.000000000000000000, 0.0000000000000000000 ) ) ;
#391 = EDGE_LOOP ( 'NONE', ( #53 ) ) ;
#392 = AXIS2_PLACEMENT_3D ( 'NONE', #307, #31, #315 ) ;
#393 = VECTOR ( 'NONE', #337, 1000.000000000000000 ) ;
#394 = CC_DESIGN_APPROVAL ( #129, ( #304 ) ) ;
#395 = CALENDAR_DATE ( 2021, 3, 12 ) ;
#396 = CARTESIAN_POINT ( 'NONE',  ( 5.733096635129394122E-16, 0.2399999999999999911, 0.1642024137820251861 ) ) ;
#397 = CARTESIAN_POINT ( 'NONE',  ( -0.2399999999999994360, 0.0000000000000000000, 0.1642024137820257690 ) ) ;
ENDSEC;
END-ISO-10303-21;
