ISO-10303-21;
HEADER;
FILE_DESCRIPTION (( 'STEP AP203' ),
    '1' );
FILE_NAME ('997983.step',
    '2021-12-03T13:00:58',
    ( '' ),
    ( '' ),
    'SwSTEP 2.0',
    'SolidWorks 2019',
    '' );
FILE_SCHEMA (( 'CONFIG_CONTROL_DESIGN' ));
ENDSEC;

DATA;
#1 = ADVANCED_FACE ( 'NONE', ( #272 ), #199, .T. ) ;
#2 = ORIENTED_EDGE ( 'NONE', *, *, #205, .T. ) ;
#3 = CC_DESIGN_APPROVAL ( #216, ( #365 ) ) ;
#4 = CARTESIAN_POINT ( 'NONE',  ( 5.081924830841531048E-16, 0.2099999999999999922, 0.1455521120592720985 ) ) ;
#5 = CARTESIAN_POINT ( 'NONE',  ( -0.2099999999999999367, 0.2799999999999999711, 0.01500000000000080783 ) ) ;
#6 = CARTESIAN_POINT ( 'NONE',  ( -0.2099999999999999922, 0.2799999999999999711, 7.332110811570579257E-16 ) ) ;
#7 = DIRECTION ( 'NONE',  ( 3.491481338843133355E-15, -0.0000000000000000000, 1.000000000000000000 ) ) ;
#8 = CARTESIAN_POINT ( 'NONE',  ( -0.2099999999999996037, 0.1034441693734129419, 0.1259089854398367514 ) ) ;
#9 = APPROVAL_PERSON_ORGANIZATION ( #152, #14, #129 ) ;
#10 = DIRECTION ( 'NONE',  ( -1.000000000000000000, 0.0000000000000000000, 3.491481338843132961E-15 ) ) ;
#11 = DIRECTION ( 'NONE',  ( -3.491481338843133355E-15, 1.224646799147353207E-16, -1.000000000000000000 ) ) ;
#12 = ORIENTED_EDGE ( 'NONE', *, *, #238, .F. ) ;
#13 = MECHANICAL_CONTEXT ( 'NONE', #184, 'mechanical' ) ;
#14 = APPROVAL ( #69, 'UNSPECIFIED' ) ;
#15 = VERTEX_POINT ( 'NONE', #292 ) ;
#16 = CARTESIAN_POINT ( 'NONE',  ( 2.365919782978951696E-32, 0.3499999999999999778, 6.776263578034402713E-18 ) ) ;
#17 = ADVANCED_FACE ( 'NONE', ( #78 ), #293, .T. ) ;
#18 = FACE_OUTER_BOUND ( 'NONE', #323, .T. ) ;
#19 = CARTESIAN_POINT ( 'NONE',  ( -1.892735826383161356E-31, -0.2099999999999999922, -5.421010862427522170E-17 ) ) ;
#20 = EDGE_LOOP ( 'NONE', ( #180 ) ) ;
#21 = APPROVAL_ROLE ( '' ) ;
#22 = CARTESIAN_POINT ( 'NONE',  ( 5.081924830841530062E-16, -1.782499281425244222E-17, 0.1455521120592720707 ) ) ;
#23 = CARTESIAN_POINT ( 'NONE',  ( 0.0000000000000000000, 0.0000000000000000000, 0.0000000000000000000 ) ) ;
#24 = CIRCLE ( 'NONE', #249, 0.2100000000000000200 ) ;
#25 = EDGE_LOOP ( 'NONE', ( #366, #383, #236, #273 ) ) ;
#26 = AXIS2_PLACEMENT_3D ( 'NONE', #79, #198, #50 ) ;
#27 = CARTESIAN_POINT ( 'NONE',  ( 5.791735740493014888E-15, -2.031467433949463059E-16, 1.658819045102514433 ) ) ;
#28 = SECURITY_CLASSIFICATION_LEVEL ( 'unclassified' ) ;
#29 = LINE ( 'NONE', #373, #161 ) ;
#30 = CARTESIAN_POINT ( 'NONE',  ( 1.191922877586411749E-15, -4.180702673754954845E-17, 0.3413802801481801152 ) ) ;
#31 = EDGE_CURVE ( 'NONE', #337, #54, #315, .T. ) ;
#32 = APPROVAL_STATUS ( 'not_yet_approved' ) ;
#33 = DESIGN_CONTEXT ( 'detailed design', #222, 'design' ) ;
#34 = EDGE_LOOP ( 'NONE', ( #127, #2, #134, #72 ) ) ;
#35 = EDGE_CURVE ( 'NONE', #106, #106, #278, .T. ) ;
#36 = CIRCLE ( 'NONE', #270, 0.2099999999999999922 ) ;
#37 = AXIS2_PLACEMENT_3D ( 'NONE', #97, #252, #334 ) ;
#38 = ORIENTED_EDGE ( 'NONE', *, *, #339, .F. ) ;
#39 = PERSON ( 'UNSPECIFIED', 'UNSPECIFIED', 'UNSPECIFIED', ('UNSPECIFIED'), ('UNSPECIFIED'), ('UNSPECIFIED') ) ;
#40 = CARTESIAN_POINT ( 'NONE',  ( 4.888073874380388275E-15, 0.2099999999999999090, 1.400000000000000355 ) ) ;
#41 = AXIS2_PLACEMENT_3D ( 'NONE', #386, #194, #46 ) ;
#42 = AXIS2_PLACEMENT_3D ( 'NONE', #22, #369, #233 ) ;
#43 = EDGE_CURVE ( 'NONE', #117, #337, #36, .T. ) ;
#44 = VERTEX_POINT ( 'NONE', #4 ) ;
#45 = LINE ( 'NONE', #375, #125 ) ;
#46 = DIRECTION ( 'NONE',  ( 0.0000000000000000000, 1.000000000000000000, 0.0000000000000000000 ) ) ;
#47 = FACE_OUTER_BOUND ( 'NONE', #142, .T. ) ;
#48 = EDGE_LOOP ( 'NONE', ( #173 ) ) ;
#49 = LOCAL_TIME ( 14, 0, 58.00000000000000000, #251 ) ;
#50 = DIRECTION ( 'NONE',  ( 4.298950768721508976E-31, 1.000000000000000000, 1.210047067506143447E-16 ) ) ;
#51 = ORIENTED_EDGE ( 'NONE', *, *, #113, .T. ) ;
#52 = CALENDAR_DATE ( 2021, 3, 12 ) ;
#53 = DIRECTION ( 'NONE',  ( -3.491481338843133355E-15, 1.224646799147353207E-16, -1.000000000000000000 ) ) ;
#54 = VERTEX_POINT ( 'NONE', #165 ) ;
#55 = PRODUCT_DEFINITION ( 'UNKNOWN', '', #313, #33 ) ;
#56 = ORIENTED_EDGE ( 'NONE', *, *, #124, .T. ) ;
#57 = DIRECTION ( 'NONE',  ( -3.491481338843133355E-15, 1.224646799147353207E-16, -1.000000000000000000 ) ) ;
#58 = ORGANIZATION ( 'UNSPECIFIED', 'UNSPECIFIED', '' ) ;
#59 = DIRECTION ( 'NONE',  ( -3.491481338843133355E-15, 1.224646799147353207E-16, -1.000000000000000000 ) ) ;
#60 = DIRECTION ( 'NONE',  ( 0.0000000000000000000, 1.000000000000000000, 0.0000000000000000000 ) ) ;
#61 = APPROVAL_STATUS ( 'not_yet_approved' ) ;
#62 = ADVANCED_FACE ( 'NONE', ( #260 ), #376, .T. ) ;
#63 = CARTESIAN_POINT ( 'NONE',  ( 1.595606971851311880E-13, -5.596635872103403844E-15, 45.69999999999999574 ) ) ;
#64 = VERTEX_POINT ( 'NONE', #378 ) ;
#65 = PERSON_AND_ORGANIZATION ( #39, #58 ) ;
#66 = EDGE_CURVE ( 'NONE', #64, #218, #174, .T. ) ;
#67 = DIRECTION ( 'NONE',  ( 1.000000000000000000, 0.0000000000000000000, -3.491481338843133355E-15 ) ) ;
#68 = EDGE_LOOP ( 'NONE', ( #259 ) ) ;
#69 = APPROVAL_STATUS ( 'not_yet_approved' ) ;
#70 = AXIS2_PLACEMENT_3D ( 'NONE', #27, #71, #182 ) ;
#71 = DIRECTION ( 'NONE',  ( -3.491481338843133355E-15, 1.224646799147353207E-16, -1.000000000000000000 ) ) ;
#72 = ORIENTED_EDGE ( 'NONE', *, *, #149, .F. ) ;
#73 = CIRCLE ( 'NONE', #294, 0.2100000000000000200 ) ;
#74 = DIRECTION ( 'NONE',  ( -3.491481338843133355E-15, 0.0000000000000000000, -1.000000000000000000 ) ) ;
#75 = ORIENTED_EDGE ( 'NONE', *, *, #35, .F. ) ;
#76 = FACE_OUTER_BOUND ( 'NONE', #380, .T. ) ;
#77 = ADVANCED_FACE ( 'NONE', ( #239 ), #128, .T. ) ;
#78 = FACE_OUTER_BOUND ( 'NONE', #240, .T. ) ;
#79 = CARTESIAN_POINT ( 'NONE',  ( 5.237222008264711619E-17, -1.836970198721033832E-18, 0.01500000000000003240 ) ) ;
#80 = ORIENTED_EDGE ( 'NONE', *, *, #124, .F. ) ;
#81 = CC_DESIGN_APPROVAL ( #14, ( #313 ) ) ;
#82 = DIRECTION ( 'NONE',  ( 4.585547486636275424E-31, 1.000000000000000000, 1.290716872006552780E-16 ) ) ;
#83 = CARTESIAN_POINT ( 'NONE',  ( 1.745740669421566678E-15, 0.0000000000000000000, 0.5000000000000000000 ) ) ;
#84 = DIRECTION ( 'NONE',  ( -4.275831445896958607E-31, -1.000000000000000000, -1.224646799147353207E-16 ) ) ;
#85 = ORIENTED_EDGE ( 'NONE', *, *, #393, .T. ) ;
#86 = MANIFOLD_SOLID_BREP ( 'Corps-Déplacer/Copier1[1]', #153 ) ;
#87 = CIRCLE ( 'NONE', #200, 1.500000000000004441 ) ;
#88 = DIRECTION ( 'NONE',  ( -3.379885404255645576E-31, -1.000000000000000000, -9.680376540049147084E-17 ) ) ;
#89 = VECTOR ( 'NONE', #291, 1000.000000000000000 ) ;
#90 = ORIENTED_EDGE ( 'NONE', *, *, #314, .F. ) ;
#91 = COORDINATED_UNIVERSAL_TIME_OFFSET ( 1, 0, .AHEAD. ) ;
#92 = DIRECTION ( 'NONE',  ( -3.491481338843133355E-15, 0.0000000000000000000, -1.000000000000000000 ) ) ;
#93 = DATE_AND_TIME ( #101, #104 ) ;
#94 = EDGE_LOOP ( 'NONE', ( #224 ) ) ;
#95 = APPROVAL_DATE_TIME ( #290, #96 ) ;
#96 = APPROVAL ( #32, 'UNSPECIFIED' ) ;
#97 = CARTESIAN_POINT ( 'NONE',  ( 5.081924830841525131E-16, 0.2099999999999999922, 0.1455521120592719320 ) ) ;
#98 = CARTESIAN_POINT ( 'NONE',  ( -0.2099999999999999922, 0.0000000000000000000, 7.332110811570579257E-16 ) ) ;
#99 = AXIS2_PLACEMENT_3D ( 'NONE', #382, #235, #318 ) ;
#100 = AXIS2_PLACEMENT_3D ( 'NONE', #298, #157, #395 ) ;
#101 = CALENDAR_DATE ( 2021, 3, 12 ) ;
#102 = EDGE_CURVE ( 'NONE', #204, #204, #396, .T. ) ;
#103 =( NAMED_UNIT ( * ) SI_UNIT ( $, .STERADIAN. ) SOLID_ANGLE_UNIT ( ) );
#104 = LOCAL_TIME ( 14, 0, 58.00000000000000000, #394 ) ;
#105 = EDGE_CURVE ( 'NONE', #368, #368, #87, .T. ) ;
#106 = VERTEX_POINT ( 'NONE', #40 ) ;
#107 = VERTEX_POINT ( 'NONE', #221 ) ;
#108 = EDGE_LOOP ( 'NONE', ( #56, #51, #167, #85, #287 ) ) ;
#109 = FACE_OUTER_BOUND ( 'NONE', #172, .T. ) ;
#110 = AXIS2_PLACEMENT_3D ( 'NONE', #23, #67, #150 ) ;
#111 = VERTEX_POINT ( 'NONE', #132 ) ;
#112 = AXIS2_PLACEMENT_3D ( 'NONE', #340, #118, #316 ) ;
#113 = EDGE_CURVE ( 'NONE', #269, #337, #363, .T. ) ;
#114 = PLANE ( 'NONE',  #390 ) ;
#115 = EDGE_LOOP ( 'NONE', ( #188 ) ) ;
#116 = DIRECTION ( 'NONE',  ( -4.275831445896958607E-31, -1.000000000000000000, -1.224646799147353207E-16 ) ) ;
#117 = VERTEX_POINT ( 'NONE', #98 ) ;
#118 = DIRECTION ( 'NONE',  ( 3.491481338843133355E-15, -1.224646799147353207E-16, 1.000000000000000000 ) ) ;
#119 = ORIENTED_EDGE ( 'NONE', *, *, #35, .T. ) ;
#120 = CALENDAR_DATE ( 2021, 3, 12 ) ;
#121 = ORIENTED_EDGE ( 'NONE', *, *, #66, .F. ) ;
#122 = CARTESIAN_POINT ( 'NONE',  ( 5.081924830841519215E-16, -0.2099999999999999922, 0.1455521120592717377 ) ) ;
#123 = DIRECTION ( 'NONE',  ( 0.0000000000000000000, 1.000000000000000000, 0.0000000000000000000 ) ) ;
#124 = EDGE_CURVE ( 'NONE', #345, #269, #387, .T. ) ;
#125 = VECTOR ( 'NONE', #348, 1000.000000000000000 ) ;
#126 = CALENDAR_DATE ( 2021, 3, 12 ) ;
#127 = ORIENTED_EDGE ( 'NONE', *, *, #262, .T. ) ;
#128 = PLANE ( 'NONE',  #110 ) ;
#129 = APPROVAL_ROLE ( '' ) ;
#130 = PRODUCT_RELATED_PRODUCT_CATEGORY ( 'detail', '', ( #253 ) ) ;
#131 = ADVANCED_BREP_SHAPE_REPRESENTATION ( '997983', ( #86, #342, #100 ), #178 ) ;
#132 = CARTESIAN_POINT ( 'NONE',  ( 1.606081415867841091E-13, 1.199999999999998845, 46.00000000000000000 ) ) ;
#133 = CARTESIAN_POINT ( 'NONE',  ( 5.081924830841529075E-16, -0.2100000000000000477, 0.1455521120592720430 ) ) ;
#134 = ORIENTED_EDGE ( 'NONE', *, *, #238, .T. ) ;
#135 = ADVANCED_FACE ( 'NONE', ( #244, #301 ), #362, .T. ) ;
#136 = CARTESIAN_POINT ( 'NONE',  ( -0.2099999999999999922, 0.0000000000000000000, 7.332110811570579257E-16 ) ) ;
#137 = ORIENTED_EDGE ( 'NONE', *, *, #176, .F. ) ;
#138 = AXIS2_PLACEMENT_3D ( 'NONE', #355, #360, #331 ) ;
#139 = AXIS2_PLACEMENT_3D ( 'NONE', #328, #59, #296 ) ;
#140 = DIRECTION ( 'NONE',  ( 4.275831445896958607E-31, 1.000000000000000000, 1.224646799147353207E-16 ) ) ;
#141 = DIRECTION ( 'NONE',  ( 4.275831445896958607E-31, 1.000000000000000000, 1.224646799147353207E-16 ) ) ;
#142 = EDGE_LOOP ( 'NONE', ( #90 ) ) ;
#143 = DATE_AND_TIME ( #367, #351 ) ;
#144 = FACE_OUTER_BOUND ( 'NONE', #34, .T. ) ;
#145 = VECTOR ( 'NONE', #88, 1000.000000000000000 ) ;
#146 = AXIS2_PLACEMENT_3D ( 'NONE', #227, #230, #140 ) ;
#147 = DIRECTION ( 'NONE',  ( 3.802371079787601219E-31, 1.000000000000000000, 1.089042360755529078E-16 ) ) ;
#148 = DIRECTION ( 'NONE',  ( -3.491481338843133355E-15, 0.0000000000000000000, -1.000000000000000000 ) ) ;
#149 = EDGE_CURVE ( 'NONE', #15, #117, #212, .T. ) ;
#150 = DIRECTION ( 'NONE',  ( -3.491481338843133355E-15, 0.0000000000000000000, -1.000000000000000000 ) ) ;
#151 = ORIENTED_EDGE ( 'NONE', *, *, #149, .T. ) ;
#152 = PERSON_AND_ORGANIZATION ( #39, #58 ) ;
#153 = CLOSED_SHELL ( 'NONE', ( #1, #257, #62, #217, #17, #192, #77 ) ) ;
#154 = CONICAL_SURFACE ( 'NONE', #112, 0.2440741737109302090, 0.2617993877991428020 ) ;
#155 = ORIENTED_EDGE ( 'NONE', *, *, #277, .T. ) ;
#156 = PERSON_AND_ORGANIZATION_ROLE ( 'creator' ) ;
#157 = DIRECTION ( 'NONE',  ( 0.0000000000000000000, 0.0000000000000000000, 1.000000000000000000 ) ) ;
#158 = ORIENTED_EDGE ( 'NONE', *, *, #229, .T. ) ;
#159 = AXIS2_PLACEMENT_3D ( 'NONE', #288, #11, #123 ) ;
#160 = VECTOR ( 'NONE', #147, 1000.000000000000000 ) ;
#161 = VECTOR ( 'NONE', #220, 1000.000000000000000 ) ;
#162 = CARTESIAN_POINT ( 'NONE',  ( -0.2099999999999996869, 0.1956327811269282513, 0.07604348461556749428 ) ) ;
#163 = EDGE_CURVE ( 'NONE', #107, #107, #187, .T. ) ;
#164 = CARTESIAN_POINT ( 'NONE',  ( 5.081924830841530062E-16, -1.782499281425244222E-17, 0.1455521120592720707 ) ) ;
#165 = CARTESIAN_POINT ( 'NONE',  ( 2.365919782978951696E-32, 0.3499999999999999778, 6.776263578034402713E-18 ) ) ;
#166 = PLANE ( 'NONE',  #226 ) ;
#167 = ORIENTED_EDGE ( 'NONE', *, *, #31, .T. ) ;
#168 = AXIS2_PLACEMENT_3D ( 'NONE', #374, #284, #74 ) ;
#169 = FACE_BOUND ( 'NONE', #20, .T. ) ;
#170 = EDGE_CURVE ( 'NONE', #345, #218, #305, .T. ) ;
#171 = LINE ( 'NONE', #136, #89 ) ;
#172 = EDGE_LOOP ( 'NONE', ( #137 ) ) ;
#173 = ORIENTED_EDGE ( 'NONE', *, *, #105, .F. ) ;
#174 = CIRCLE ( 'NONE', #234, 0.3499999999999999778 ) ;
#175 = DIRECTION ( 'NONE',  ( 4.585547486636275424E-31, 1.000000000000000000, 1.290716872006552780E-16 ) ) ;
#176 = EDGE_CURVE ( 'NONE', #44, #44, #24, .T. ) ;
#177 = COORDINATED_UNIVERSAL_TIME_OFFSET ( 1, 0, .AHEAD. ) ;
#178 =( GEOMETRIC_REPRESENTATION_CONTEXT ( 3 ) GLOBAL_UNCERTAINTY_ASSIGNED_CONTEXT ( ( #185 ) ) GLOBAL_UNIT_ASSIGNED_CONTEXT ( ( #343, #183, #103 ) ) REPRESENTATION_CONTEXT ( 'NONE', 'WORKASPACE' ) );
#179 = CARTESIAN_POINT ( 'NONE',  ( 5.081924830841520201E-16, 0.3499999999999999778, 0.1455521120592717932 ) ) ;
#180 = ORIENTED_EDGE ( 'NONE', *, *, #314, .T. ) ;
#181 = PERSON_AND_ORGANIZATION_ROLE ( 'creator' ) ;
#182 = DIRECTION ( 'NONE',  ( 0.0000000000000000000, 1.000000000000000000, 0.0000000000000000000 ) ) ;
#183 =( NAMED_UNIT ( * ) PLANE_ANGLE_UNIT ( ) SI_UNIT ( $, .RADIAN. ) );
#184 = APPLICATION_CONTEXT ( 'configuration controlled 3d designs of mechanical parts and assemblies' ) ;
#185 = UNCERTAINTY_MEASURE_WITH_UNIT (LENGTH_MEASURE( 1.000000000000000082E-05 ), #343, 'distance_accuracy_value', 'NONE');
#186 = ADVANCED_FACE ( 'NONE', ( #295, #18 ), #349, .F. ) ;
#187 = CIRCLE ( 'NONE', #70, 0.2440741737109302090 ) ;
#188 = ORIENTED_EDGE ( 'NONE', *, *, #105, .T. ) ;
#189 = APPROVAL_PERSON_ORGANIZATION ( #65, #96, #21 ) ;
#190 = ORIENTED_EDGE ( 'NONE', *, *, #43, .F. ) ;
#191 = CARTESIAN_POINT ( 'NONE',  ( 5.081924830841519215E-16, 0.2099999999999999922, 0.1455521120592717654 ) ) ;
#192 = ADVANCED_FACE ( 'NONE', ( #144 ), #344, .F. ) ;
#193 = CYLINDRICAL_SURFACE ( 'NONE', #281, 0.2100000000000000477 ) ;
#194 = DIRECTION ( 'NONE',  ( -3.491481338843133355E-15, 1.224646799147353207E-16, -1.000000000000000000 ) ) ;
#195 = FACE_BOUND ( 'NONE', #94, .T. ) ;
#196 = CARTESIAN_POINT ( 'NONE',  ( 8.551662891793917432E-32, 0.3499999999999999778, 2.449293598294706538E-17 ) ) ;
#197 = CC_DESIGN_PERSON_AND_ORGANIZATION_ASSIGNMENT ( #213, #245, ( #253 ) ) ;
#198 = DIRECTION ( 'NONE',  ( -3.491481338843133355E-15, 1.224646799147353207E-16, -1.000000000000000000 ) ) ;
#199 = CYLINDRICAL_SURFACE ( 'NONE', #338, 0.3499999999999999778 ) ;
#200 = AXIS2_PLACEMENT_3D ( 'NONE', #63, #356, #392 ) ;
#201 = CARTESIAN_POINT ( 'NONE',  ( 5.081924830841525131E-16, 0.2099999999999999922, 0.1455521120592719320 ) ) ;
#202 = DIRECTION ( 'NONE',  ( 4.275831445896958607E-31, 1.000000000000000000, 1.224646799147353207E-16 ) ) ;
#203 = FACE_OUTER_BOUND ( 'NONE', #255, .T. ) ;
#204 = VERTEX_POINT ( 'NONE', #211 ) ;
#205 = EDGE_CURVE ( 'NONE', #64, #208, #45, .T. ) ;
#206 = DIRECTION ( 'NONE',  ( -2.381184547279827482E-15, 0.7313537016191721252, -0.6819983600624967002 ) ) ;
#207 = COORDINATED_UNIVERSAL_TIME_OFFSET ( 1, 0, .AHEAD. ) ;
#208 = VERTEX_POINT ( 'NONE', #6 ) ;
#209 = APPROVAL_DATE_TIME ( #93, #216 ) ;
#210 = ADVANCED_FACE ( 'NONE', ( #352, #109 ), #193, .T. ) ;
#211 = CARTESIAN_POINT ( 'NONE',  ( 2.215693373073038286E-14, 1.499999999999996003, 6.345998039351359310 ) ) ;
#212 = LINE ( 'NONE', #335, #358 ) ;
#213 = PERSON_AND_ORGANIZATION ( #39, #58 ) ;
#214 = DIRECTION ( 'NONE',  ( -3.491481338843133355E-15, 1.224646799147353207E-16, -1.000000000000000000 ) ) ;
#215 = DATE_AND_TIME ( #120, #274 ) ;
#216 = APPROVAL ( #61, 'UNSPECIFIED' ) ;
#217 = ADVANCED_FACE ( 'NONE', ( #268 ), #114, .T. ) ;
#218 = VERTEX_POINT ( 'NONE', #320 ) ;
#219 = ORIENTED_EDGE ( 'NONE', *, *, #43, .T. ) ;
#220 = DIRECTION ( 'NONE',  ( 3.491481338843133355E-15, -0.0000000000000000000, 1.000000000000000000 ) ) ;
#221 = CARTESIAN_POINT ( 'NONE',  ( 5.791735740493014888E-15, 0.2440741737109300147, 1.658819045102514433 ) ) ;
#222 = APPLICATION_CONTEXT ( 'configuration controlled 3d designs of mechanical parts and assemblies' ) ;
#223 = CARTESIAN_POINT ( 'NONE',  ( 0.0000000000000000000, 0.0000000000000000000, 0.0000000000000000000 ) ) ;
#224 = ORIENTED_EDGE ( 'NONE', *, *, #163, .F. ) ;
#225 = AXIS2_PLACEMENT_3D ( 'NONE', #83, #264, #321 ) ;
#226 = AXIS2_PLACEMENT_3D ( 'NONE', #286, #263, #116 ) ;
#227 = CARTESIAN_POINT ( 'NONE',  ( -1.282749433769087451E-31, 4.499279347985572139E-33, -3.673940397442058882E-17 ) ) ;
#228 = ORIENTED_EDGE ( 'NONE', *, *, #229, .F. ) ;
#229 = EDGE_CURVE ( 'NONE', #15, #345, #73, .T. ) ;
#230 = DIRECTION ( 'NONE',  ( -3.491481338843133355E-15, 1.224646799147353207E-16, -1.000000000000000000 ) ) ;
#231 = ORIENTED_EDGE ( 'NONE', *, *, #170, .T. ) ;
#232 = VECTOR ( 'NONE', #206, 1000.000000000000000 ) ;
#233 = DIRECTION ( 'NONE',  ( 4.585547486636275424E-31, 1.000000000000000000, 1.290716872006552780E-16 ) ) ;
#234 = AXIS2_PLACEMENT_3D ( 'NONE', #242, #214, #247 ) ;
#235 = DIRECTION ( 'NONE',  ( -3.491481338843133355E-15, 1.224646799147353207E-16, -1.000000000000000000 ) ) ;
#236 = ORIENTED_EDGE ( 'NONE', *, *, #277, .F. ) ;
#237 = B_SPLINE_CURVE_WITH_KNOTS ( 'NONE', 3,
 ( #258, #322, #8, #162, #282, #5 ),
 .UNSPECIFIED., .F., .F.,
 ( 4, 2, 4 ),
 ( 0.0004333354445078010345, 0.0005895399753310467559, 0.0007457445061542925316 ),
 .UNSPECIFIED. ) ;
#238 = EDGE_CURVE ( 'NONE', #208, #117, #171, .T. ) ;
#239 = FACE_OUTER_BOUND ( 'NONE', #108, .T. ) ;
#240 = EDGE_LOOP ( 'NONE', ( #357, #391, #151, #219 ) ) ;
#241 = APPLICATION_PROTOCOL_DEFINITION ( 'international standard', 'config_control_design', 1994, #222 ) ;
#242 = CARTESIAN_POINT ( 'NONE',  ( 5.237222008264711619E-17, -1.836970198721033832E-18, 0.01500000000000003240 ) ) ;
#243 = PERSON_AND_ORGANIZATION ( #39, #58 ) ;
#244 = FACE_OUTER_BOUND ( 'NONE', #115, .T. ) ;
#245 = PERSON_AND_ORGANIZATION_ROLE ( 'design_owner' ) ;
#246 = PLANE ( 'NONE',  #37 ) ;
#247 = DIRECTION ( 'NONE',  ( 4.298950768721508976E-31, 1.000000000000000000, 1.210047067506143447E-16 ) ) ;
#248 = DATE_TIME_ROLE ( 'classification_date' ) ;
#249 = AXIS2_PLACEMENT_3D ( 'NONE', #325, #57, #175 ) ;
#250 = LOCAL_TIME ( 14, 0, 58.00000000000000000, #177 ) ;
#251 = COORDINATED_UNIVERSAL_TIME_OFFSET ( 1, 0, .AHEAD. ) ;
#252 = DIRECTION ( 'NONE',  ( -3.491481338843133355E-15, 1.224646799147353207E-16, -1.000000000000000000 ) ) ;
#253 = PRODUCT ( '997983', '997983', '', ( #13 ) ) ;
#254 = CIRCLE ( 'NONE', #42, 0.2100000000000000200 ) ;
#255 = EDGE_LOOP ( 'NONE', ( #158, #231, #121, #297 ) ) ;
#256 = EDGE_LOOP ( 'NONE', ( #119 ) ) ;
#257 = ADVANCED_FACE ( 'NONE', ( #203 ), #271, .T. ) ;
#258 = CARTESIAN_POINT ( 'NONE',  ( -0.2099999999999994649, 0.0000000000000000000, 0.1455521120592726536 ) ) ;
#259 = ORIENTED_EDGE ( 'NONE', *, *, #102, .F. ) ;
#260 = FACE_OUTER_BOUND ( 'NONE', #341, .T. ) ;
#261 = AXIS2_PLACEMENT_3D ( 'NONE', #196, #317, #141 ) ;
#262 = EDGE_CURVE ( 'NONE', #15, #64, #237, .T. ) ;
#263 = DIRECTION ( 'NONE',  ( 3.491481338843133355E-15, -1.224646799147353207E-16, 1.000000000000000000 ) ) ;
#264 = DIRECTION ( 'NONE',  ( -3.491481338843133355E-15, 0.0000000000000000000, -1.000000000000000000 ) ) ;
#265 = FACE_OUTER_BOUND ( 'NONE', #48, .T. ) ;
#266 = EDGE_LOOP ( 'NONE', ( #289 ) ) ;
#267 = PERSON_AND_ORGANIZATION ( #39, #58 ) ;
#268 = FACE_OUTER_BOUND ( 'NONE', #302, .T. ) ;
#269 = VERTEX_POINT ( 'NONE', #133 ) ;
#270 = AXIS2_PLACEMENT_3D ( 'NONE', #285, #7, #10 ) ;
#271 = CONICAL_SURFACE ( 'NONE', #26, 0.3499999999999999778, 0.8203047484373372500 ) ;
#272 = FACE_OUTER_BOUND ( 'NONE', #25, .T. ) ;
#273 = ORIENTED_EDGE ( 'NONE', *, *, #205, .F. ) ;
#274 = LOCAL_TIME ( 14, 0, 58.00000000000000000, #207 ) ;
#275 = PERSON_AND_ORGANIZATION ( #39, #58 ) ;
#276 = DIRECTION ( 'NONE',  ( -3.491481338843133355E-15, 1.224646799147353207E-16, -1.000000000000000000 ) ) ;
#277 = EDGE_CURVE ( 'NONE', #208, #54, #384, .T. ) ;
#278 = CIRCLE ( 'NONE', #41, 0.2100000000000000755 ) ;
#279 = CC_DESIGN_APPROVAL ( #96, ( #55 ) ) ;
#280 = CC_DESIGN_DATE_AND_TIME_ASSIGNMENT ( #143, #319, ( #55 ) ) ;
#281 = AXIS2_PLACEMENT_3D ( 'NONE', #223, #53, #346 ) ;
#282 = CARTESIAN_POINT ( 'NONE',  ( -0.2099999999999998535, 0.2382520993409883159, 0.04614443774417739674 ) ) ;
#283 = CC_DESIGN_PERSON_AND_ORGANIZATION_ASSIGNMENT ( #381, #329, ( #365 ) ) ;
#284 = DIRECTION ( 'NONE',  ( 1.000000000000000000, 0.0000000000000000000, -3.491481338843133355E-15 ) ) ;
#285 = CARTESIAN_POINT ( 'NONE',  ( 0.0000000000000000000, 0.0000000000000000000, 0.0000000000000000000 ) ) ;
#286 = CARTESIAN_POINT ( 'NONE',  ( 1.606081415867841091E-13, -5.633375276077824704E-15, 46.00000000000000000 ) ) ;
#287 = ORIENTED_EDGE ( 'NONE', *, *, #170, .F. ) ;
#288 = CARTESIAN_POINT ( 'NONE',  ( 1.595606971851311880E-13, -5.596635872103403844E-15, 45.69999999999999574 ) ) ;
#289 = ORIENTED_EDGE ( 'NONE', *, *, #176, .T. ) ;
#290 = DATE_AND_TIME ( #126, #49 ) ;
#291 = DIRECTION ( 'NONE',  ( 0.0000000000000000000, -1.000000000000000000, 0.0000000000000000000 ) ) ;
#292 = CARTESIAN_POINT ( 'NONE',  ( -0.2099999999999994649, 0.0000000000000000000, 0.1455521120592726536 ) ) ;
#293 = CYLINDRICAL_SURFACE ( 'NONE', #225, 0.2099999999999999922 ) ;
#294 = AXIS2_PLACEMENT_3D ( 'NONE', #164, #377, #82 ) ;
#295 = FACE_OUTER_BOUND ( 'NONE', #332, .T. ) ;
#296 = DIRECTION ( 'NONE',  ( 0.0000000000000000000, 1.000000000000000000, 0.0000000000000000000 ) ) ;
#297 = ORIENTED_EDGE ( 'NONE', *, *, #262, .F. ) ;
#298 = CARTESIAN_POINT ( 'NONE',  ( 0.0000000000000000000, 0.0000000000000000000, 0.0000000000000000000 ) ) ;
#299 = ADVANCED_FACE ( 'NONE', ( #76, #195 ), #154, .T. ) ;
#300 = APPROVAL_PERSON_ORGANIZATION ( #243, #216, #361 ) ;
#301 = FACE_OUTER_BOUND ( 'NONE', #68, .T. ) ;
#302 = EDGE_LOOP ( 'NONE', ( #38, #80, #228 ) ) ;
#303 = PERSON_AND_ORGANIZATION_ROLE ( 'design_supplier' ) ;
#304 = ADVANCED_FACE ( 'NONE', ( #47 ), #166, .T. ) ;
#305 = LINE ( 'NONE', #30, #232 ) ;
#306 = APPLICATION_PROTOCOL_DEFINITION ( 'international standard', 'config_control_design', 1994, #184 ) ;
#307 = VECTOR ( 'NONE', #148, 1000.000000000000000 ) ;
#308 = CIRCLE ( 'NONE', #139, 1.200000000000004396 ) ;
#309 = CC_DESIGN_DATE_AND_TIME_ASSIGNMENT ( #215, #248, ( #365 ) ) ;
#310 = ADVANCED_FACE ( 'NONE', ( #169, #265 ), #371, .T. ) ;
#311 = CARTESIAN_POINT ( 'NONE',  ( 1.595606971851311880E-13, 1.499999999999998668, 45.69999999999999574 ) ) ;
#312 = CLOSED_SHELL ( 'NONE', ( #370, #210, #186, #299, #135, #310, #304 ) ) ;
#313 = PRODUCT_DEFINITION_FORMATION_WITH_SPECIFIED_SOURCE ( 'ANY', '', #253, .NOT_KNOWN. ) ;
#314 = EDGE_CURVE ( 'NONE', #111, #111, #308, .T. ) ;
#315 = LINE ( 'NONE', #16, #160 ) ;
#316 = DIRECTION ( 'NONE',  ( 0.0000000000000000000, -1.000000000000000000, 0.0000000000000000000 ) ) ;
#317 = DIRECTION ( 'NONE',  ( -3.491481338843133355E-15, 1.224646799147353207E-16, -1.000000000000000000 ) ) ;
#318 = DIRECTION ( 'NONE',  ( 4.335911297488043565E-31, 1.000000000000000000, 1.224646799147353207E-16 ) ) ;
#319 = DATE_TIME_ROLE ( 'creation_date' ) ;
#320 = CARTESIAN_POINT ( 'NONE',  ( 5.237222008264728259E-17, 0.3499999999999999778, 0.01500000000000007924 ) ) ;
#321 = DIRECTION ( 'NONE',  ( -1.000000000000000000, 0.0000000000000000000, 3.614007241618348376E-15 ) ) ;
#322 = CARTESIAN_POINT ( 'NONE',  ( -0.2099999999999995204, 0.05207750492537063097, 0.1455521120593362694 ) ) ;
#323 = EDGE_LOOP ( 'NONE', ( #75 ) ) ;
#324 = CC_DESIGN_PERSON_AND_ORGANIZATION_ASSIGNMENT ( #333, #156, ( #55 ) ) ;
#325 = CARTESIAN_POINT ( 'NONE',  ( 5.081924830841530062E-16, -1.782499281425244222E-17, 0.1455521120592720707 ) ) ;
#326 = AXIS2_PLACEMENT_3D ( 'NONE', #389, #276, #60 ) ;
#327 = CC_DESIGN_SECURITY_CLASSIFICATION ( #365, ( #313 ) ) ;
#328 = CARTESIAN_POINT ( 'NONE',  ( 1.606081415867841091E-13, -5.633375276077824704E-15, 46.00000000000000000 ) ) ;
#329 = PERSON_AND_ORGANIZATION_ROLE ( 'classification_officer' ) ;
#330 = SHAPE_DEFINITION_REPRESENTATION ( #372, #131 ) ;
#331 = DIRECTION ( 'NONE',  ( 4.275831445896958607E-31, 1.000000000000000000, 1.224646799147353207E-16 ) ) ;
#332 = EDGE_LOOP ( 'NONE', ( #388 ) ) ;
#333 = PERSON_AND_ORGANIZATION ( #39, #58 ) ;
#334 = DIRECTION ( 'NONE',  ( 4.275831445896958607E-31, 1.000000000000000000, 1.224646799147353207E-16 ) ) ;
#335 = CARTESIAN_POINT ( 'NONE',  ( -0.2099999999999982436, 0.0000000000000000000, 0.5000000000000007772 ) ) ;
#336 = APPROVAL_DATE_TIME ( #359, #14 ) ;
#337 = VERTEX_POINT ( 'NONE', #19 ) ;
#338 = AXIS2_PLACEMENT_3D ( 'NONE', #350, #353, #202 ) ;
#339 = EDGE_CURVE ( 'NONE', #269, #15, #254, .T. ) ;
#340 = CARTESIAN_POINT ( 'NONE',  ( 5.791735740493014888E-15, -2.031467433949463059E-16, 1.658819045102514433 ) ) ;
#341 = EDGE_LOOP ( 'NONE', ( #155, #397, #190, #12 ) ) ;
#342 = MANIFOLD_SOLID_BREP ( 'Corps-Déplacer/Copier1[2]', #312 ) ;
#343 =( LENGTH_UNIT ( ) NAMED_UNIT ( * ) SI_UNIT ( .MILLI., .METRE. ) );
#344 = PLANE ( 'NONE',  #168 ) ;
#345 = VERTEX_POINT ( 'NONE', #191 ) ;
#346 = DIRECTION ( 'NONE',  ( 4.275831445896958607E-31, 1.000000000000000000, 1.224646799147353207E-16 ) ) ;
#347 = ORIENTED_EDGE ( 'NONE', *, *, #102, .T. ) ;
#348 = DIRECTION ( 'NONE',  ( -3.491481338843133355E-15, 1.224646799147353207E-16, -1.000000000000000000 ) ) ;
#349 = TOROIDAL_SURFACE ( 'NONE', #99, 1.210000000000000187, 1.000000000000000000 ) ;
#350 = CARTESIAN_POINT ( 'NONE',  ( 0.0000000000000000000, 0.0000000000000000000, 0.0000000000000000000 ) ) ;
#351 = LOCAL_TIME ( 14, 0, 58.00000000000000000, #91 ) ;
#352 = FACE_OUTER_BOUND ( 'NONE', #256, .T. ) ;
#353 = DIRECTION ( 'NONE',  ( -3.491481338843133355E-15, 1.224646799147353207E-16, -1.000000000000000000 ) ) ;
#354 = CC_DESIGN_PERSON_AND_ORGANIZATION_ASSIGNMENT ( #267, #303, ( #313 ) ) ;
#355 = CARTESIAN_POINT ( 'NONE',  ( 0.0000000000000000000, 0.0000000000000000000, 0.0000000000000000000 ) ) ;
#356 = DIRECTION ( 'NONE',  ( -3.491481338843133355E-15, 1.224646799147353207E-16, -1.000000000000000000 ) ) ;
#357 = ORIENTED_EDGE ( 'NONE', *, *, #113, .F. ) ;
#358 = VECTOR ( 'NONE', #92, 1000.000000000000000 ) ;
#359 = DATE_AND_TIME ( #52, #250 ) ;
#360 = DIRECTION ( 'NONE',  ( -3.491481338843133355E-15, 1.224646799147353207E-16, -1.000000000000000000 ) ) ;
#361 = APPROVAL_ROLE ( '' ) ;
#362 = CYLINDRICAL_SURFACE ( 'NONE', #138, 1.500000000000000444 ) ;
#363 = LINE ( 'NONE', #122, #307 ) ;
#364 = FACE_OUTER_BOUND ( 'NONE', #266, .T. ) ;
#365 = SECURITY_CLASSIFICATION ( '', '', #28 ) ;
#366 = ORIENTED_EDGE ( 'NONE', *, *, #66, .T. ) ;
#367 = CALENDAR_DATE ( 2021, 3, 12 ) ;
#368 = VERTEX_POINT ( 'NONE', #311 ) ;
#369 = DIRECTION ( 'NONE',  ( -3.491481338843133355E-15, 1.224646799147353207E-16, -1.000000000000000000 ) ) ;
#370 = ADVANCED_FACE ( 'NONE', ( #364 ), #246, .T. ) ;
#371 = CONICAL_SURFACE ( 'NONE', #159, 1.500000000000004441, 0.7853981633974453924 ) ;
#372 = PRODUCT_DEFINITION_SHAPE ( 'NONE', 'NONE',  #55 ) ;
#373 = CARTESIAN_POINT ( 'NONE',  ( 5.081924830841520201E-16, 0.3499999999999999778, 0.1455521120592717932 ) ) ;
#374 = CARTESIAN_POINT ( 'NONE',  ( -0.2099999999999982436, 0.0000000000000000000, 0.5000000000000007772 ) ) ;
#375 = CARTESIAN_POINT ( 'NONE',  ( -0.2099999999999999922, 0.2799999999999999711, 7.675011915331838382E-16 ) ) ;
#376 = PLANE ( 'NONE',  #261 ) ;
#377 = DIRECTION ( 'NONE',  ( -3.491481338843133355E-15, 1.224646799147353207E-16, -1.000000000000000000 ) ) ;
#378 = CARTESIAN_POINT ( 'NONE',  ( -0.2099999999999999367, 0.2799999999999999711, 0.01500000000000080783 ) ) ;
#379 = DIRECTION ( 'NONE',  ( 3.491481338843133355E-15, -1.224646799147353207E-16, 1.000000000000000000 ) ) ;
#380 = EDGE_LOOP ( 'NONE', ( #347 ) ) ;
#381 = PERSON_AND_ORGANIZATION ( #39, #58 ) ;
#382 = CARTESIAN_POINT ( 'NONE',  ( 4.888073874380386697E-15, -2.168404344971008868E-16, 1.399999999999999911 ) ) ;
#383 = ORIENTED_EDGE ( 'NONE', *, *, #393, .F. ) ;
#384 = CIRCLE ( 'NONE', #146, 0.3499999999999999778 ) ;
#385 = CC_DESIGN_PERSON_AND_ORGANIZATION_ASSIGNMENT ( #275, #181, ( #313 ) ) ;
#386 = CARTESIAN_POINT ( 'NONE',  ( 4.888073874380388275E-15, -1.714505518806294884E-16, 1.400000000000000355 ) ) ;
#387 = LINE ( 'NONE', #179, #145 ) ;
#388 = ORIENTED_EDGE ( 'NONE', *, *, #163, .T. ) ;
#389 = CARTESIAN_POINT ( 'NONE',  ( 2.215693373073038286E-14, -7.771606186287021614E-16, 6.345998039351359310 ) ) ;
#390 = AXIS2_PLACEMENT_3D ( 'NONE', #201, #379, #84 ) ;
#391 = ORIENTED_EDGE ( 'NONE', *, *, #339, .T. ) ;
#392 = DIRECTION ( 'NONE',  ( 0.0000000000000000000, 1.000000000000000000, 0.0000000000000000000 ) ) ;
#393 = EDGE_CURVE ( 'NONE', #54, #218, #29, .T. ) ;
#394 = COORDINATED_UNIVERSAL_TIME_OFFSET ( 1, 0, .AHEAD. ) ;
#395 = DIRECTION ( 'NONE',  ( 1.000000000000000000, 0.0000000000000000000, 0.0000000000000000000 ) ) ;
#396 = CIRCLE ( 'NONE', #326, 1.499999999999996669 ) ;
#397 = ORIENTED_EDGE ( 'NONE', *, *, #31, .F. ) ;
ENDSEC;
END-ISO-10303-21;
