ISO-10303-21;
HEADER;
FILE_DESCRIPTION (( 'STEP AP203' ),
    '1' );
FILE_NAME ('997982.step',
    '2021-12-03T13:00:58',
    ( '' ),
    ( '' ),
    'SwSTEP 2.0',
    'SolidWorks 2019',
    '' );
FILE_SCHEMA (( 'CONFIG_CONTROL_DESIGN' ));
ENDSEC;

DATA;
#1 = CARTESIAN_POINT ( 'NONE',  ( 0.0000000000000000000, 0.0000000000000000000, 0.0000000000000000000 ) ) ;
#2 = PRODUCT_RELATED_PRODUCT_CATEGORY ( 'detail', '', ( #13 ) ) ;
#3 = FACE_OUTER_BOUND ( 'NONE', #93, .T. ) ;
#4 = CARTESIAN_POINT ( 'NONE',  ( 5.081924830841530062E-16, -1.782499281425244222E-17, 0.1455521120592720707 ) ) ;
#5 = DIRECTION ( 'NONE',  ( -2.381184547279827482E-15, 0.7313537016191721252, -0.6819983600624967002 ) ) ;
#6 = LINE ( 'NONE', #293, #328 ) ;
#7 = ADVANCED_FACE ( 'NONE', ( #25, #173 ), #352, .T. ) ;
#8 = DATE_TIME_ROLE ( 'creation_date' ) ;
#9 = AXIS2_PLACEMENT_3D ( 'NONE', #41, #344, #246 ) ;
#10 = VERTEX_POINT ( 'NONE', #284 ) ;
#11 = ADVANCED_FACE ( 'NONE', ( #211 ), #304, .T. ) ;
#12 = APPROVAL_ROLE ( '' ) ;
#13 = PRODUCT ( '997982', '997982', '', ( #185 ) ) ;
#14 = PERSON ( 'UNSPECIFIED', 'UNSPECIFIED', 'UNSPECIFIED', ('UNSPECIFIED'), ('UNSPECIFIED'), ('UNSPECIFIED') ) ;
#15 = CARTESIAN_POINT ( 'NONE',  ( 5.237222008264711619E-17, -1.836970198721033832E-18, 0.01500000000000003240 ) ) ;
#16 = ADVANCED_FACE ( 'NONE', ( #137 ), #99, .T. ) ;
#17 = VECTOR ( 'NONE', #5, 1000.000000000000000 ) ;
#18 = DIRECTION ( 'NONE',  ( -3.491481338843133355E-15, 1.224646799147353207E-16, -1.000000000000000000 ) ) ;
#19 = ORIENTED_EDGE ( 'NONE', *, *, #28, .F. ) ;
#20 = DIRECTION ( 'NONE',  ( 0.0000000000000000000, 1.000000000000000000, 0.0000000000000000000 ) ) ;
#21 = LOCAL_TIME ( 14, 0, 58.00000000000000000, #377 ) ;
#22 = APPROVAL ( #375, 'UNSPECIFIED' ) ;
#23 = CARTESIAN_POINT ( 'NONE',  ( 0.0000000000000000000, 0.0000000000000000000, 0.0000000000000000000 ) ) ;
#24 = ORIENTED_EDGE ( 'NONE', *, *, #127, .T. ) ;
#25 = FACE_BOUND ( 'NONE', #207, .T. ) ;
#26 = DIRECTION ( 'NONE',  ( -3.491481338843133355E-15, 1.224646799147353207E-16, -1.000000000000000000 ) ) ;
#27 = ORIENTED_EDGE ( 'NONE', *, *, #341, .F. ) ;
#28 = EDGE_CURVE ( 'NONE', #147, #171, #75, .T. ) ;
#29 = DIRECTION ( 'NONE',  ( -3.491481338843133355E-15, 1.224646799147353207E-16, -1.000000000000000000 ) ) ;
#30 = ORIENTED_EDGE ( 'NONE', *, *, #324, .T. ) ;
#31 = FACE_OUTER_BOUND ( 'NONE', #216, .T. ) ;
#32 = CYLINDRICAL_SURFACE ( 'NONE', #133, 0.2099999999999999922 ) ;
#33 = VERTEX_POINT ( 'NONE', #253 ) ;
#34 = VERTEX_POINT ( 'NONE', #95 ) ;
#35 = ORIENTED_EDGE ( 'NONE', *, *, #165, .T. ) ;
#36 = CIRCLE ( 'NONE', #348, 0.3499999999999999778 ) ;
#37 = DIRECTION ( 'NONE',  ( 0.0000000000000000000, 1.000000000000000000, 0.0000000000000000000 ) ) ;
#38 = CALENDAR_DATE ( 2021, 3, 12 ) ;
#39 = PERSON_AND_ORGANIZATION_ROLE ( 'design_owner' ) ;
#40 = CARTESIAN_POINT ( 'NONE',  ( -1.892735826383161356E-31, -0.2099999999999999922, -5.421010862427522170E-17 ) ) ;
#41 = CARTESIAN_POINT ( 'NONE',  ( 5.081924830841525131E-16, 0.2099999999999999922, 0.1455521120592719320 ) ) ;
#42 = PERSON_AND_ORGANIZATION_ROLE ( 'design_supplier' ) ;
#43 = VERTEX_POINT ( 'NONE', #155 ) ;
#44 = DATE_AND_TIME ( #257, #48 ) ;
#45 = PERSON_AND_ORGANIZATION_ROLE ( 'classification_officer' ) ;
#46 = CARTESIAN_POINT ( 'NONE',  ( 1.971289679354018952E-14, -6.914353426883873802E-16, 5.645998039351359132 ) ) ;
#47 = EDGE_CURVE ( 'NONE', #147, #270, #146, .T. ) ;
#48 = LOCAL_TIME ( 14, 0, 58.00000000000000000, #313 ) ;
#49 = CARTESIAN_POINT ( 'NONE',  ( 0.0000000000000000000, 0.0000000000000000000, 0.0000000000000000000 ) ) ;
#50 = VECTOR ( 'NONE', #174, 1000.000000000000000 ) ;
#51 = ORIENTED_EDGE ( 'NONE', *, *, #198, .F. ) ;
#52 = DIRECTION ( 'NONE',  ( 4.585547486636275424E-31, 1.000000000000000000, 1.290716872006552780E-16 ) ) ;
#53 = FACE_OUTER_BOUND ( 'NONE', #114, .T. ) ;
#54 = ORIENTED_EDGE ( 'NONE', *, *, #300, .T. ) ;
#55 = DIRECTION ( 'NONE',  ( 0.0000000000000000000, -1.000000000000000000, 0.0000000000000000000 ) ) ;
#56 = CARTESIAN_POINT ( 'NONE',  ( 5.081924830841530062E-16, -1.782499281425244222E-17, 0.1455521120592720707 ) ) ;
#57 = EDGE_LOOP ( 'NONE', ( #121 ) ) ;
#58 = PRODUCT_DEFINITION ( 'UNKNOWN', '', #161, #172 ) ;
#59 = LINE ( 'NONE', #204, #139 ) ;
#60 = ORIENTED_EDGE ( 'NONE', *, *, #395, .F. ) ;
#61 = CC_DESIGN_DATE_AND_TIME_ASSIGNMENT ( #44, #193, ( #143 ) ) ;
#62 = DIRECTION ( 'NONE',  ( -3.379885404255645576E-31, -1.000000000000000000, -9.680376540049147084E-17 ) ) ;
#63 = ORIENTED_EDGE ( 'NONE', *, *, #381, .F. ) ;
#64 = DIRECTION ( 'NONE',  ( 0.0000000000000000000, -1.000000000000000000, 0.0000000000000000000 ) ) ;
#65 = ORIENTED_EDGE ( 'NONE', *, *, #286, .T. ) ;
#66 = PLANE ( 'NONE',  #9 ) ;
#67 = ORIENTED_EDGE ( 'NONE', *, *, #112, .T. ) ;
#68 = DIRECTION ( 'NONE',  ( 3.491481338843133355E-15, -0.0000000000000000000, 1.000000000000000000 ) ) ;
#69 = PERSON_AND_ORGANIZATION ( #14, #231 ) ;
#70 = AXIS2_PLACEMENT_3D ( 'NONE', #379, #323, #52 ) ;
#71 = ADVANCED_BREP_SHAPE_REPRESENTATION ( '997982', ( #215, #212, #105 ), #340 ) ;
#72 = CARTESIAN_POINT ( 'NONE',  ( 1.971289679354018952E-14, 1.499999999999996003, 5.645998039351359132 ) ) ;
#73 = CARTESIAN_POINT ( 'NONE',  ( 3.347698803302821539E-15, -1.174214674546315986E-16, 0.9588190451025143668 ) ) ;
#74 = APPROVAL ( #97, 'UNSPECIFIED' ) ;
#75 = LINE ( 'NONE', #263, #268 ) ;
#76 = CLOSED_SHELL ( 'NONE', ( #209, #94, #305, #368, #241, #224, #356 ) ) ;
#77 = CARTESIAN_POINT ( 'NONE',  ( -1.282749433769087451E-31, 4.499279347985572139E-33, -3.673940397442058882E-17 ) ) ;
#78 = CC_DESIGN_PERSON_AND_ORGANIZATION_ASSIGNMENT ( #372, #45, ( #143 ) ) ;
#79 = DIRECTION ( 'NONE',  ( -4.275831445896958607E-31, -1.000000000000000000, -1.224646799147353207E-16 ) ) ;
#80 = AXIS2_PLACEMENT_3D ( 'NONE', #77, #371, #343 ) ;
#81 = CARTESIAN_POINT ( 'NONE',  ( -0.2099999999999982436, 0.0000000000000000000, 0.5000000000000007772 ) ) ;
#82 = EDGE_LOOP ( 'NONE', ( #88, #274, #264, #301, #63 ) ) ;
#83 = LOCAL_TIME ( 14, 0, 58.00000000000000000, #101 ) ;
#84 = DIRECTION ( 'NONE',  ( 3.491481338843133355E-15, -1.224646799147353207E-16, 1.000000000000000000 ) ) ;
#85 = CONICAL_SURFACE ( 'NONE', #122, 0.3499999999999999778, 0.8203047484373372500 ) ;
#86 = EDGE_CURVE ( 'NONE', #157, #157, #288, .T. ) ;
#87 = CARTESIAN_POINT ( 'NONE',  ( 5.237222008264711619E-17, -1.836970198721033832E-18, 0.01500000000000003240 ) ) ;
#88 = ORIENTED_EDGE ( 'NONE', *, *, #339, .T. ) ;
#89 = DIRECTION ( 'NONE',  ( 0.0000000000000000000, 1.000000000000000000, 0.0000000000000000000 ) ) ;
#90 = CARTESIAN_POINT ( 'NONE',  ( 2.365919782978951696E-32, 0.3499999999999999778, 6.776263578034402713E-18 ) ) ;
#91 = EDGE_LOOP ( 'NONE', ( #19, #243, #65, #240 ) ) ;
#92 = AXIS2_PLACEMENT_3D ( 'NONE', #1, #213, #306 ) ;
#93 = EDGE_LOOP ( 'NONE', ( #175, #391, #361 ) ) ;
#94 = ADVANCED_FACE ( 'NONE', ( #291 ), #85, .T. ) ;
#95 = CARTESIAN_POINT ( 'NONE',  ( 3.347698803302821539E-15, 0.2440741737109299037, 0.9588190451025143668 ) ) ;
#96 = ORIENTED_EDGE ( 'NONE', *, *, #205, .F. ) ;
#97 = APPROVAL_STATUS ( 'not_yet_approved' ) ;
#98 =( LENGTH_UNIT ( ) NAMED_UNIT ( * ) SI_UNIT ( .MILLI., .METRE. ) );
#99 = PLANE ( 'NONE',  #163 ) ;
#100 = AXIS2_PLACEMENT_3D ( 'NONE', #4, #188, #312 ) ;
#101 = COORDINATED_UNIVERSAL_TIME_OFFSET ( 1, 0, .AHEAD. ) ;
#102 = DATE_AND_TIME ( #287, #220 ) ;
#103 = CALENDAR_DATE ( 2021, 3, 12 ) ;
#104 = EDGE_CURVE ( 'NONE', #255, #255, #232, .T. ) ;
#105 = AXIS2_PLACEMENT_3D ( 'NONE', #217, #336, #310 ) ;
#106 = AXIS2_PLACEMENT_3D ( 'NONE', #285, #297, #20 ) ;
#107 = DIRECTION ( 'NONE',  ( 0.0000000000000000000, 1.000000000000000000, 0.0000000000000000000 ) ) ;
#108 = DIRECTION ( 'NONE',  ( 4.275831445896958607E-31, 1.000000000000000000, 1.224646799147353207E-16 ) ) ;
#109 = B_SPLINE_CURVE_WITH_KNOTS ( 'NONE', 3,
 ( #358, #117, #239, #360, #364, #334 ),
 .UNSPECIFIED., .F., .F.,
 ( 4, 2, 4 ),
 ( 0.0004333354445078010345, 0.0005895399753310467559, 0.0007457445061542925316 ),
 .UNSPECIFIED. ) ;
#110 = CC_DESIGN_APPROVAL ( #380, ( #58 ) ) ;
#111 = DIRECTION ( 'NONE',  ( -3.491481338843133355E-15, 1.224646799147353207E-16, -1.000000000000000000 ) ) ;
#112 = EDGE_CURVE ( 'NONE', #43, #43, #227, .T. ) ;
#113 = LINE ( 'NONE', #177, #378 ) ;
#114 = EDGE_LOOP ( 'NONE', ( #309, #201, #250, #123 ) ) ;
#115 = VERTEX_POINT ( 'NONE', #265 ) ;
#116 = VERTEX_POINT ( 'NONE', #218 ) ;
#117 = CARTESIAN_POINT ( 'NONE',  ( -0.2099999999999995204, 0.05207750492537063097, 0.1455521120593362694 ) ) ;
#118 = EDGE_LOOP ( 'NONE', ( #149 ) ) ;
#119 = DIRECTION ( 'NONE',  ( -3.491481338843133355E-15, 0.0000000000000000000, -1.000000000000000000 ) ) ;
#120 = CARTESIAN_POINT ( 'NONE',  ( 1.745740669421566678E-15, 0.0000000000000000000, 0.5000000000000000000 ) ) ;
#121 = ORIENTED_EDGE ( 'NONE', *, *, #196, .F. ) ;
#122 = AXIS2_PLACEMENT_3D ( 'NONE', #15, #230, #186 ) ;
#123 = ORIENTED_EDGE ( 'NONE', *, *, #286, .F. ) ;
#124 = LINE ( 'NONE', #187, #17 ) ;
#125 = CYLINDRICAL_SURFACE ( 'NONE', #278, 1.500000000000000444 ) ;
#126 = CC_DESIGN_PERSON_AND_ORGANIZATION_ASSIGNMENT ( #314, #39, ( #13 ) ) ;
#127 = EDGE_CURVE ( 'NONE', #34, #34, #333, .T. ) ;
#128 = CALENDAR_DATE ( 2021, 3, 12 ) ;
#129 = VERTEX_POINT ( 'NONE', #376 ) ;
#130 = APPROVAL_DATE_TIME ( #154, #22 ) ;
#131 = APPLICATION_PROTOCOL_DEFINITION ( 'international standard', 'config_control_design', 1994, #337 ) ;
#132 = CC_DESIGN_APPROVAL ( #74, ( #161 ) ) ;
#133 = AXIS2_PLACEMENT_3D ( 'NONE', #120, #370, #294 ) ;
#134 = DIRECTION ( 'NONE',  ( 3.491481338843133355E-15, -1.224646799147353207E-16, 1.000000000000000000 ) ) ;
#135 = CC_DESIGN_DATE_AND_TIME_ASSIGNMENT ( #102, #8, ( #58 ) ) ;
#136 = EDGE_LOOP ( 'NONE', ( #367 ) ) ;
#137 = FACE_OUTER_BOUND ( 'NONE', #365, .T. ) ;
#138 = DIRECTION ( 'NONE',  ( 4.275831445896958607E-31, 1.000000000000000000, 1.224646799147353207E-16 ) ) ;
#139 = VECTOR ( 'NONE', #64, 1000.000000000000000 ) ;
#140 = DIRECTION ( 'NONE',  ( -3.491481338843133355E-15, 0.0000000000000000000, -1.000000000000000000 ) ) ;
#141 = DIRECTION ( 'NONE',  ( 1.000000000000000000, 0.0000000000000000000, -3.491481338843133355E-15 ) ) ;
#142 = ORIENTED_EDGE ( 'NONE', *, *, #196, .T. ) ;
#143 = SECURITY_CLASSIFICATION ( '', '', #226 ) ;
#144 = ORIENTED_EDGE ( 'NONE', *, *, #165, .F. ) ;
#145 = CC_DESIGN_PERSON_AND_ORGANIZATION_ASSIGNMENT ( #369, #42, ( #161 ) ) ;
#146 = CIRCLE ( 'NONE', #100, 0.2100000000000000200 ) ;
#147 = VERTEX_POINT ( 'NONE', #166 ) ;
#148 = DIRECTION ( 'NONE',  ( -3.491481338843133355E-15, 1.224646799147353207E-16, -1.000000000000000000 ) ) ;
#149 = ORIENTED_EDGE ( 'NONE', *, *, #127, .F. ) ;
#150 = CIRCLE ( 'NONE', #159, 0.2099999999999999922 ) ;
#151 = ADVANCED_FACE ( 'NONE', ( #283, #228 ), #125, .T. ) ;
#152 =( NAMED_UNIT ( * ) SI_UNIT ( $, .STERADIAN. ) SOLID_ANGLE_UNIT ( ) );
#153 = DIRECTION ( 'NONE',  ( 4.335911297488043565E-31, 1.000000000000000000, 1.224646799147353207E-16 ) ) ;
#154 = DATE_AND_TIME ( #38, #83 ) ;
#155 = CARTESIAN_POINT ( 'NONE',  ( 5.081924830841531048E-16, 0.2099999999999999922, 0.1455521120592720985 ) ) ;
#156 = LINE ( 'NONE', #197, #389 ) ;
#157 = VERTEX_POINT ( 'NONE', #72 ) ;
#158 = CC_DESIGN_SECURITY_CLASSIFICATION ( #143, ( #161 ) ) ;
#159 = AXIS2_PLACEMENT_3D ( 'NONE', #384, #68, #256 ) ;
#160 = DIRECTION ( 'NONE',  ( 0.0000000000000000000, 1.000000000000000000, 0.0000000000000000000 ) ) ;
#161 = PRODUCT_DEFINITION_FORMATION_WITH_SPECIFIED_SOURCE ( 'ANY', '', #13, .NOT_KNOWN. ) ;
#162 = DIRECTION ( 'NONE',  ( -3.491481338843133355E-15, 1.224646799147353207E-16, -1.000000000000000000 ) ) ;
#163 = AXIS2_PLACEMENT_3D ( 'NONE', #199, #182, #108 ) ;
#164 = CC_DESIGN_PERSON_AND_ORGANIZATION_ASSIGNMENT ( #252, #319, ( #58 ) ) ;
#165 = EDGE_CURVE ( 'NONE', #245, #33, #351, .T. ) ;
#166 = CARTESIAN_POINT ( 'NONE',  ( 5.081924830841529075E-16, -0.2100000000000000477, 0.1455521120592720430 ) ) ;
#167 = DIRECTION ( 'NONE',  ( -3.491481338843133355E-15, 0.0000000000000000000, -1.000000000000000000 ) ) ;
#168 = FACE_OUTER_BOUND ( 'NONE', #307, .T. ) ;
#169 = AXIS2_PLACEMENT_3D ( 'NONE', #386, #84, #55 ) ;
#170 = LINE ( 'NONE', #90, #50 ) ;
#171 = VERTEX_POINT ( 'NONE', #40 ) ;
#172 = DESIGN_CONTEXT ( 'detailed design', #337, 'design' ) ;
#173 = FACE_OUTER_BOUND ( 'NONE', #329, .T. ) ;
#174 = DIRECTION ( 'NONE',  ( 3.802371079787601219E-31, 1.000000000000000000, 1.089042360755529078E-16 ) ) ;
#175 = ORIENTED_EDGE ( 'NONE', *, *, #47, .F. ) ;
#176 = AXIS2_PLACEMENT_3D ( 'NONE', #73, #321, #107 ) ;
#177 = CARTESIAN_POINT ( 'NONE',  ( -0.2099999999999982436, 0.0000000000000000000, 0.5000000000000007772 ) ) ;
#178 = FACE_OUTER_BOUND ( 'NONE', #57, .T. ) ;
#179 = ORIENTED_EDGE ( 'NONE', *, *, #86, .F. ) ;
#180 = DIRECTION ( 'NONE',  ( 0.0000000000000000000, 1.000000000000000000, 0.0000000000000000000 ) ) ;
#181 = ORIENTED_EDGE ( 'NONE', *, *, #104, .T. ) ;
#182 = DIRECTION ( 'NONE',  ( -3.491481338843133355E-15, 1.224646799147353207E-16, -1.000000000000000000 ) ) ;
#183 = AXIS2_PLACEMENT_3D ( 'NONE', #23, #141, #119 ) ;
#184 = DATE_AND_TIME ( #128, #322 ) ;
#185 = MECHANICAL_CONTEXT ( 'NONE', #353, 'mechanical' ) ;
#186 = DIRECTION ( 'NONE',  ( 4.298950768721508976E-31, 1.000000000000000000, 1.210047067506143447E-16 ) ) ;
#187 = CARTESIAN_POINT ( 'NONE',  ( 1.191922877586411749E-15, -4.180702673754954845E-17, 0.3413802801481801152 ) ) ;
#188 = DIRECTION ( 'NONE',  ( -3.491481338843133355E-15, 1.224646799147353207E-16, -1.000000000000000000 ) ) ;
#189 = PERSON_AND_ORGANIZATION_ROLE ( 'creator' ) ;
#190 = CARTESIAN_POINT ( 'NONE',  ( 5.081924830841519215E-16, 0.2099999999999999922, 0.1455521120592717654 ) ) ;
#191 = APPROVAL_PERSON_ORGANIZATION ( #289, #380, #12 ) ;
#192 = EDGE_CURVE ( 'NONE', #248, #245, #156, .T. ) ;
#193 = DATE_TIME_ROLE ( 'classification_date' ) ;
#194 = AXIS2_PLACEMENT_3D ( 'NONE', #81, #325, #167 ) ;
#195 = COORDINATED_UNIVERSAL_TIME_OFFSET ( 1, 0, .AHEAD. ) ;
#196 = EDGE_CURVE ( 'NONE', #10, #10, #374, .T. ) ;
#197 = CARTESIAN_POINT ( 'NONE',  ( -0.2099999999999999922, 0.2799999999999999711, 7.675011915331838382E-16 ) ) ;
#198 = EDGE_CURVE ( 'NONE', #33, #115, #6, .T. ) ;
#199 = CARTESIAN_POINT ( 'NONE',  ( 5.081924830841525131E-16, 0.2099999999999999922, 0.1455521120592719320 ) ) ;
#200 = AXIS2_PLACEMENT_3D ( 'NONE', #273, #363, #89 ) ;
#201 = ORIENTED_EDGE ( 'NONE', *, *, #192, .T. ) ;
#202 = PLANE ( 'NONE',  #194 ) ;
#203 = ORIENTED_EDGE ( 'NONE', *, *, #300, .F. ) ;
#204 = CARTESIAN_POINT ( 'NONE',  ( -0.2099999999999999922, 0.0000000000000000000, 7.332110811570579257E-16 ) ) ;
#205 = EDGE_CURVE ( 'NONE', #116, #171, #150, .T. ) ;
#206 = AXIS2_PLACEMENT_3D ( 'NONE', #46, #18, #160 ) ;
#207 = EDGE_LOOP ( 'NONE', ( #181 ) ) ;
#208 = EDGE_LOOP ( 'NONE', ( #335 ) ) ;
#209 = ADVANCED_FACE ( 'NONE', ( #234 ), #354, .T. ) ;
#210 = LINE ( 'NONE', #331, #222 ) ;
#211 = FACE_OUTER_BOUND ( 'NONE', #208, .T. ) ;
#212 = MANIFOLD_SOLID_BREP ( 'Corps-Déplacer/Copier1[2]', #247 ) ;
#213 = DIRECTION ( 'NONE',  ( -3.491481338843133355E-15, 1.224646799147353207E-16, -1.000000000000000000 ) ) ;
#214 = EDGE_LOOP ( 'NONE', ( #54, #51, #144, #229 ) ) ;
#215 = MANIFOLD_SOLID_BREP ( 'Corps-Déplacer/Copier1[1]', #76 ) ;
#216 = EDGE_LOOP ( 'NONE', ( #35, #27, #96, #280 ) ) ;
#217 = CARTESIAN_POINT ( 'NONE',  ( 0.0000000000000000000, 0.0000000000000000000, 0.0000000000000000000 ) ) ;
#218 = CARTESIAN_POINT ( 'NONE',  ( -0.2099999999999999922, 0.0000000000000000000, 7.332110811570579257E-16 ) ) ;
#219 = APPROVAL_DATE_TIME ( #184, #74 ) ;
#220 = LOCAL_TIME ( 14, 0, 58.00000000000000000, #195 ) ;
#221 = DIRECTION ( 'NONE',  ( 4.275831445896958607E-31, 1.000000000000000000, 1.224646799147353207E-16 ) ) ;
#222 = VECTOR ( 'NONE', #62, 1000.000000000000000 ) ;
#223 = SHAPE_DEFINITION_REPRESENTATION ( #347, #71 ) ;
#224 = ADVANCED_FACE ( 'NONE', ( #53 ), #202, .F. ) ;
#225 = FACE_OUTER_BOUND ( 'NONE', #383, .T. ) ;
#226 = SECURITY_CLASSIFICATION_LEVEL ( 'unclassified' ) ;
#227 = CIRCLE ( 'NONE', #70, 0.2100000000000000200 ) ;
#228 = FACE_OUTER_BOUND ( 'NONE', #388, .T. ) ;
#229 = ORIENTED_EDGE ( 'NONE', *, *, #192, .F. ) ;
#230 = DIRECTION ( 'NONE',  ( -3.491481338843133355E-15, 1.224646799147353207E-16, -1.000000000000000000 ) ) ;
#231 = ORGANIZATION ( 'UNSPECIFIED', 'UNSPECIFIED', '' ) ;
#232 = CIRCLE ( 'NONE', #342, 1.200000000000004396 ) ;
#233 = ADVANCED_FACE ( 'NONE', ( #225, #178 ), #298, .F. ) ;
#234 = FACE_OUTER_BOUND ( 'NONE', #214, .T. ) ;
#235 = CARTESIAN_POINT ( 'NONE',  ( -0.2099999999999999922, 0.2799999999999999711, 7.332110811570579257E-16 ) ) ;
#236 = FACE_OUTER_BOUND ( 'NONE', #136, .T. ) ;
#237 = UNCERTAINTY_MEASURE_WITH_UNIT (LENGTH_MEASURE( 1.000000000000000082E-05 ), #98, 'distance_accuracy_value', 'NONE');
#238 = APPROVAL_PERSON_ORGANIZATION ( #69, #74, #397 ) ;
#239 = CARTESIAN_POINT ( 'NONE',  ( -0.2099999999999996037, 0.1034441693734129419, 0.1259089854398367514 ) ) ;
#240 = ORIENTED_EDGE ( 'NONE', *, *, #205, .T. ) ;
#241 = ADVANCED_FACE ( 'NONE', ( #282 ), #32, .T. ) ;
#242 = DIRECTION ( 'NONE',  ( -3.491481338843133355E-15, 1.224646799147353207E-16, -1.000000000000000000 ) ) ;
#243 = ORIENTED_EDGE ( 'NONE', *, *, #47, .T. ) ;
#244 = PLANE ( 'NONE',  #262 ) ;
#245 = VERTEX_POINT ( 'NONE', #235 ) ;
#246 = DIRECTION ( 'NONE',  ( -4.275831445896958607E-31, -1.000000000000000000, -1.224646799147353207E-16 ) ) ;
#247 = CLOSED_SHELL ( 'NONE', ( #16, #251, #233, #320, #151, #7, #11 ) ) ;
#248 = VERTEX_POINT ( 'NONE', #326 ) ;
#249 = APPLICATION_PROTOCOL_DEFINITION ( 'international standard', 'config_control_design', 1994, #353 ) ;
#250 = ORIENTED_EDGE ( 'NONE', *, *, #271, .T. ) ;
#251 = ADVANCED_FACE ( 'NONE', ( #168, #373 ), #296, .T. ) ;
#252 = PERSON_AND_ORGANIZATION ( #14, #231 ) ;
#253 = CARTESIAN_POINT ( 'NONE',  ( 2.365919782978951696E-32, 0.3499999999999999778, 6.776263578034402713E-18 ) ) ;
#254 = DATE_AND_TIME ( #103, #21 ) ;
#255 = VERTEX_POINT ( 'NONE', #308 ) ;
#256 = DIRECTION ( 'NONE',  ( -1.000000000000000000, 0.0000000000000000000, 3.491481338843132961E-15 ) ) ;
#257 = CALENDAR_DATE ( 2021, 3, 12 ) ;
#258 = EDGE_CURVE ( 'NONE', #270, #248, #109, .T. ) ;
#259 = DIRECTION ( 'NONE',  ( -3.491481338843133355E-15, 1.224646799147353207E-16, -1.000000000000000000 ) ) ;
#260 = PERSON_AND_ORGANIZATION ( #14, #231 ) ;
#261 = APPROVAL_STATUS ( 'not_yet_approved' ) ;
#262 = AXIS2_PLACEMENT_3D ( 'NONE', #390, #242, #275 ) ;
#263 = CARTESIAN_POINT ( 'NONE',  ( 5.081924830841519215E-16, -0.2099999999999999922, 0.1455521120592717377 ) ) ;
#264 = ORIENTED_EDGE ( 'NONE', *, *, #341, .T. ) ;
#265 = CARTESIAN_POINT ( 'NONE',  ( 5.237222008264728259E-17, 0.3499999999999999778, 0.01500000000000007924 ) ) ;
#266 = DIRECTION ( 'NONE',  ( 3.491481338843133355E-15, -0.0000000000000000000, 1.000000000000000000 ) ) ;
#267 = CC_DESIGN_APPROVAL ( #22, ( #143 ) ) ;
#268 = VECTOR ( 'NONE', #382, 1000.000000000000000 ) ;
#269 = CARTESIAN_POINT ( 'NONE',  ( 0.0000000000000000000, 0.0000000000000000000, 0.0000000000000000000 ) ) ;
#270 = VERTEX_POINT ( 'NONE', #387 ) ;
#271 = EDGE_CURVE ( 'NONE', #245, #116, #59, .T. ) ;
#272 = AXIS2_PLACEMENT_3D ( 'NONE', #317, #259, #180 ) ;
#273 = CARTESIAN_POINT ( 'NONE',  ( 1.595606971851311880E-13, -5.596635872103403844E-15, 45.69999999999999574 ) ) ;
#274 = ORIENTED_EDGE ( 'NONE', *, *, #28, .T. ) ;
#275 = DIRECTION ( 'NONE',  ( 4.275831445896958607E-31, 1.000000000000000000, 1.224646799147353207E-16 ) ) ;
#276 = ORIENTED_EDGE ( 'NONE', *, *, #395, .T. ) ;
#277 = APPROVAL_PERSON_ORGANIZATION ( #281, #22, #338 ) ;
#278 = AXIS2_PLACEMENT_3D ( 'NONE', #49, #349, #221 ) ;
#279 = CARTESIAN_POINT ( 'NONE',  ( 2.444036937190193349E-15, 0.0000000000000000000, 0.6999999999999999556 ) ) ;
#280 = ORIENTED_EDGE ( 'NONE', *, *, #271, .F. ) ;
#281 = PERSON_AND_ORGANIZATION ( #14, #231 ) ;
#282 = FACE_OUTER_BOUND ( 'NONE', #91, .T. ) ;
#283 = FACE_OUTER_BOUND ( 'NONE', #302, .T. ) ;
#284 = CARTESIAN_POINT ( 'NONE',  ( 2.444036937190194532E-15, 0.2099999999999999090, 0.7000000000000002887 ) ) ;
#285 = CARTESIAN_POINT ( 'NONE',  ( 2.444036937190194532E-15, -8.572527594031475655E-17, 0.7000000000000002887 ) ) ;
#286 = EDGE_CURVE ( 'NONE', #270, #116, #113, .T. ) ;
#287 = CALENDAR_DATE ( 2021, 3, 12 ) ;
#288 = CIRCLE ( 'NONE', #206, 1.499999999999996669 ) ;
#289 = PERSON_AND_ORGANIZATION ( #14, #231 ) ;
#290 = APPROVAL_DATE_TIME ( #254, #380 ) ;
#291 = FACE_OUTER_BOUND ( 'NONE', #330, .T. ) ;
#292 = CIRCLE ( 'NONE', #272, 1.500000000000004441 ) ;
#293 = CARTESIAN_POINT ( 'NONE',  ( 5.081924830841520201E-16, 0.3499999999999999778, 0.1455521120592717932 ) ) ;
#294 = DIRECTION ( 'NONE',  ( -1.000000000000000000, 0.0000000000000000000, 3.614007241618348376E-15 ) ) ;
#295 = CC_DESIGN_PERSON_AND_ORGANIZATION_ASSIGNMENT ( #260, #189, ( #161 ) ) ;
#296 = CYLINDRICAL_SURFACE ( 'NONE', #92, 0.2100000000000000200 ) ;
#297 = DIRECTION ( 'NONE',  ( -3.491481338843133355E-15, 1.224646799147353207E-16, -1.000000000000000000 ) ) ;
#298 = TOROIDAL_SURFACE ( 'NONE', #311, 1.209999999999999964, 1.000000000000000000 ) ;
#299 = PLANE ( 'NONE',  #183 ) ;
#300 = EDGE_CURVE ( 'NONE', #248, #115, #36, .T. ) ;
#301 = ORIENTED_EDGE ( 'NONE', *, *, #198, .T. ) ;
#302 = EDGE_LOOP ( 'NONE', ( #276 ) ) ;
#303 = FACE_OUTER_BOUND ( 'NONE', #82, .T. ) ;
#304 = PLANE ( 'NONE',  #385 ) ;
#305 = ADVANCED_FACE ( 'NONE', ( #31 ), #244, .T. ) ;
#306 = DIRECTION ( 'NONE',  ( 4.275831445896958607E-31, 1.000000000000000000, 1.224646799147353207E-16 ) ) ;
#307 = EDGE_LOOP ( 'NONE', ( #142 ) ) ;
#308 = CARTESIAN_POINT ( 'NONE',  ( 1.606081415867841091E-13, 1.199999999999998845, 46.00000000000000000 ) ) ;
#309 = ORIENTED_EDGE ( 'NONE', *, *, #258, .T. ) ;
#310 = DIRECTION ( 'NONE',  ( 1.000000000000000000, 0.0000000000000000000, 0.0000000000000000000 ) ) ;
#311 = AXIS2_PLACEMENT_3D ( 'NONE', #279, #148, #153 ) ;
#312 = DIRECTION ( 'NONE',  ( 4.585547486636275424E-31, 1.000000000000000000, 1.290716872006552780E-16 ) ) ;
#313 = COORDINATED_UNIVERSAL_TIME_OFFSET ( 1, 0, .AHEAD. ) ;
#314 = PERSON_AND_ORGANIZATION ( #14, #231 ) ;
#315 = DIRECTION ( 'NONE',  ( -3.491481338843133355E-15, 1.224646799147353207E-16, -1.000000000000000000 ) ) ;
#316 = COORDINATED_UNIVERSAL_TIME_OFFSET ( 1, 0, .AHEAD. ) ;
#317 = CARTESIAN_POINT ( 'NONE',  ( 1.595606971851311880E-13, -5.596635872103403844E-15, 45.69999999999999574 ) ) ;
#318 = CONICAL_SURFACE ( 'NONE', #169, 0.2440741737109300147, 0.2617993877991427465 ) ;
#319 = PERSON_AND_ORGANIZATION_ROLE ( 'creator' ) ;
#320 = ADVANCED_FACE ( 'NONE', ( #236, #327 ), #318, .T. ) ;
#321 = DIRECTION ( 'NONE',  ( -3.491481338843133355E-15, 1.224646799147353207E-16, -1.000000000000000000 ) ) ;
#322 = LOCAL_TIME ( 14, 0, 58.00000000000000000, #316 ) ;
#323 = DIRECTION ( 'NONE',  ( -3.491481338843133355E-15, 1.224646799147353207E-16, -1.000000000000000000 ) ) ;
#324 = EDGE_CURVE ( 'NONE', #270, #392, #394, .T. ) ;
#325 = DIRECTION ( 'NONE',  ( 1.000000000000000000, 0.0000000000000000000, -3.491481338843133355E-15 ) ) ;
#326 = CARTESIAN_POINT ( 'NONE',  ( -0.2099999999999999367, 0.2799999999999999711, 0.01500000000000080783 ) ) ;
#327 = FACE_BOUND ( 'NONE', #118, .T. ) ;
#328 = VECTOR ( 'NONE', #266, 1000.000000000000000 ) ;
#329 = EDGE_LOOP ( 'NONE', ( #60 ) ) ;
#330 = EDGE_LOOP ( 'NONE', ( #30, #396, #203, #355 ) ) ;
#331 = CARTESIAN_POINT ( 'NONE',  ( 5.081924830841520201E-16, 0.3499999999999999778, 0.1455521120592717932 ) ) ;
#332 = EDGE_LOOP ( 'NONE', ( #393 ) ) ;
#333 = CIRCLE ( 'NONE', #176, 0.2440741737109300147 ) ;
#334 = CARTESIAN_POINT ( 'NONE',  ( -0.2099999999999999367, 0.2799999999999999711, 0.01500000000000080783 ) ) ;
#335 = ORIENTED_EDGE ( 'NONE', *, *, #104, .F. ) ;
#336 = DIRECTION ( 'NONE',  ( 0.0000000000000000000, 0.0000000000000000000, 1.000000000000000000 ) ) ;
#337 = APPLICATION_CONTEXT ( 'configuration controlled 3d designs of mechanical parts and assemblies' ) ;
#338 = APPROVAL_ROLE ( '' ) ;
#339 = EDGE_CURVE ( 'NONE', #392, #147, #210, .T. ) ;
#340 =( GEOMETRIC_REPRESENTATION_CONTEXT ( 3 ) GLOBAL_UNCERTAINTY_ASSIGNED_CONTEXT ( ( #237 ) ) GLOBAL_UNIT_ASSIGNED_CONTEXT ( ( #98, #346, #152 ) ) REPRESENTATION_CONTEXT ( 'NONE', 'WORKASPACE' ) );
#341 = EDGE_CURVE ( 'NONE', #171, #33, #170, .T. ) ;
#342 = AXIS2_PLACEMENT_3D ( 'NONE', #350, #315, #37 ) ;
#343 = DIRECTION ( 'NONE',  ( 4.275831445896958607E-31, 1.000000000000000000, 1.224646799147353207E-16 ) ) ;
#344 = DIRECTION ( 'NONE',  ( 3.491481338843133355E-15, -1.224646799147353207E-16, 1.000000000000000000 ) ) ;
#345 = CARTESIAN_POINT ( 'NONE',  ( 1.606081415867841091E-13, -5.633375276077824704E-15, 46.00000000000000000 ) ) ;
#346 =( NAMED_UNIT ( * ) PLANE_ANGLE_UNIT ( ) SI_UNIT ( $, .RADIAN. ) );
#347 = PRODUCT_DEFINITION_SHAPE ( 'NONE', 'NONE',  #58 ) ;
#348 = AXIS2_PLACEMENT_3D ( 'NONE', #87, #26, #357 ) ;
#349 = DIRECTION ( 'NONE',  ( -3.491481338843133355E-15, 1.224646799147353207E-16, -1.000000000000000000 ) ) ;
#350 = CARTESIAN_POINT ( 'NONE',  ( 1.606081415867841091E-13, -5.633375276077824704E-15, 46.00000000000000000 ) ) ;
#351 = CIRCLE ( 'NONE', #80, 0.3499999999999999778 ) ;
#352 = CONICAL_SURFACE ( 'NONE', #200, 1.500000000000004441, 0.7853981633974453924 ) ;
#353 = APPLICATION_CONTEXT ( 'configuration controlled 3d designs of mechanical parts and assemblies' ) ;
#354 = CYLINDRICAL_SURFACE ( 'NONE', #366, 0.3499999999999999778 ) ;
#355 = ORIENTED_EDGE ( 'NONE', *, *, #258, .F. ) ;
#356 = ADVANCED_FACE ( 'NONE', ( #303 ), #299, .T. ) ;
#357 = DIRECTION ( 'NONE',  ( 4.298950768721508976E-31, 1.000000000000000000, 1.210047067506143447E-16 ) ) ;
#358 = CARTESIAN_POINT ( 'NONE',  ( -0.2099999999999994649, 0.0000000000000000000, 0.1455521120592726536 ) ) ;
#359 = AXIS2_PLACEMENT_3D ( 'NONE', #56, #29, #362 ) ;
#360 = CARTESIAN_POINT ( 'NONE',  ( -0.2099999999999996869, 0.1956327811269282513, 0.07604348461556749428 ) ) ;
#361 = ORIENTED_EDGE ( 'NONE', *, *, #324, .F. ) ;
#362 = DIRECTION ( 'NONE',  ( 4.585547486636275424E-31, 1.000000000000000000, 1.290716872006552780E-16 ) ) ;
#363 = DIRECTION ( 'NONE',  ( -3.491481338843133355E-15, 1.224646799147353207E-16, -1.000000000000000000 ) ) ;
#364 = CARTESIAN_POINT ( 'NONE',  ( -0.2099999999999998535, 0.2382520993409883159, 0.04614443774417739674 ) ) ;
#365 = EDGE_LOOP ( 'NONE', ( #67 ) ) ;
#366 = AXIS2_PLACEMENT_3D ( 'NONE', #269, #111, #138 ) ;
#367 = ORIENTED_EDGE ( 'NONE', *, *, #86, .T. ) ;
#368 = ADVANCED_FACE ( 'NONE', ( #3 ), #66, .T. ) ;
#369 = PERSON_AND_ORGANIZATION ( #14, #231 ) ;
#370 = DIRECTION ( 'NONE',  ( -3.491481338843133355E-15, 0.0000000000000000000, -1.000000000000000000 ) ) ;
#371 = DIRECTION ( 'NONE',  ( -3.491481338843133355E-15, 1.224646799147353207E-16, -1.000000000000000000 ) ) ;
#372 = PERSON_AND_ORGANIZATION ( #14, #231 ) ;
#373 = FACE_OUTER_BOUND ( 'NONE', #332, .T. ) ;
#374 = CIRCLE ( 'NONE', #106, 0.2099999999999999922 ) ;
#375 = APPROVAL_STATUS ( 'not_yet_approved' ) ;
#376 = CARTESIAN_POINT ( 'NONE',  ( 1.595606971851311880E-13, 1.499999999999998668, 45.69999999999999574 ) ) ;
#377 = COORDINATED_UNIVERSAL_TIME_OFFSET ( 1, 0, .AHEAD. ) ;
#378 = VECTOR ( 'NONE', #140, 1000.000000000000000 ) ;
#379 = CARTESIAN_POINT ( 'NONE',  ( 5.081924830841530062E-16, -1.782499281425244222E-17, 0.1455521120592720707 ) ) ;
#380 = APPROVAL ( #261, 'UNSPECIFIED' ) ;
#381 = EDGE_CURVE ( 'NONE', #392, #115, #124, .T. ) ;
#382 = DIRECTION ( 'NONE',  ( -3.491481338843133355E-15, 0.0000000000000000000, -1.000000000000000000 ) ) ;
#383 = EDGE_LOOP ( 'NONE', ( #24 ) ) ;
#384 = CARTESIAN_POINT ( 'NONE',  ( 0.0000000000000000000, 0.0000000000000000000, 0.0000000000000000000 ) ) ;
#385 = AXIS2_PLACEMENT_3D ( 'NONE', #345, #134, #79 ) ;
#386 = CARTESIAN_POINT ( 'NONE',  ( 3.347698803302821539E-15, -1.174214674546315986E-16, 0.9588190451025143668 ) ) ;
#387 = CARTESIAN_POINT ( 'NONE',  ( -0.2099999999999994649, 0.0000000000000000000, 0.1455521120592726536 ) ) ;
#388 = EDGE_LOOP ( 'NONE', ( #179 ) ) ;
#389 = VECTOR ( 'NONE', #162, 1000.000000000000000 ) ;
#390 = CARTESIAN_POINT ( 'NONE',  ( 8.551662891793917432E-32, 0.3499999999999999778, 2.449293598294706538E-17 ) ) ;
#391 = ORIENTED_EDGE ( 'NONE', *, *, #339, .F. ) ;
#392 = VERTEX_POINT ( 'NONE', #190 ) ;
#393 = ORIENTED_EDGE ( 'NONE', *, *, #112, .F. ) ;
#394 = CIRCLE ( 'NONE', #359, 0.2100000000000000200 ) ;
#395 = EDGE_CURVE ( 'NONE', #129, #129, #292, .T. ) ;
#396 = ORIENTED_EDGE ( 'NONE', *, *, #381, .T. ) ;
#397 = APPROVAL_ROLE ( '' ) ;
ENDSEC;
END-ISO-10303-21;
