ISO-10303-21;
HEADER;
FILE_DESCRIPTION (( 'STEP AP203' ),
    '1' );
FILE_NAME ('997981.step',
    '2021-12-03T13:00:57',
    ( '' ),
    ( '' ),
    'SwSTEP 2.0',
    'SolidWorks 2019',
    '' );
FILE_SCHEMA (( 'CONFIG_CONTROL_DESIGN' ));
ENDSEC;

DATA;
#1 = ORIENTED_EDGE ( 'NONE', *, *, #245, .T. ) ;
#2 = CARTESIAN_POINT ( 'NONE',  ( 0.0000000000000000000, 0.0000000000000000000, 0.0000000000000000000 ) ) ;
#3 = EDGE_LOOP ( 'NONE', ( #199 ) ) ;
#4 = LINE ( 'NONE', #11, #67 ) ;
#5 = APPROVAL ( #179, 'UNSPECIFIED' ) ;
#6 = CARTESIAN_POINT ( 'NONE',  ( -0.1799999999999995492, 0.0000000000000000000, 0.1269018103365194827 ) ) ;
#7 = COORDINATED_UNIVERSAL_TIME_OFFSET ( 1, 0, .AHEAD. ) ;
#8 = EDGE_CURVE ( 'NONE', #337, #152, #134, .T. ) ;
#9 = ORIENTED_EDGE ( 'NONE', *, *, #106, .T. ) ;
#10 = ORIENTED_EDGE ( 'NONE', *, *, #245, .F. ) ;
#11 = CARTESIAN_POINT ( 'NONE',  ( 2.365919782978951696E-32, 0.2999999999999999889, 6.776263578034402713E-18 ) ) ;
#12 = ADVANCED_FACE ( 'NONE', ( #317 ), #287, .T. ) ;
#13 = AXIS2_PLACEMENT_3D ( 'NONE', #57, #279, #150 ) ;
#14 = CARTESIAN_POINT ( 'NONE',  ( 1.606081415867841091E-13, -5.633375276077824704E-15, 46.00000000000000000 ) ) ;
#15 = DIRECTION ( 'NONE',  ( -3.491481338843133355E-15, 1.224646799147353207E-16, -1.000000000000000000 ) ) ;
#16 = CYLINDRICAL_SURFACE ( 'NONE', #343, 0.1799999999999998823 ) ;
#17 = VERTEX_POINT ( 'NONE', #66 ) ;
#18 = AXIS2_PLACEMENT_3D ( 'NONE', #371, #81, #224 ) ;
#19 = ADVANCED_FACE ( 'NONE', ( #254, #374 ), #355, .T. ) ;
#20 = PERSON_AND_ORGANIZATION_ROLE ( 'classification_officer' ) ;
#21 = FACE_OUTER_BOUND ( 'NONE', #149, .T. ) ;
#22 = CARTESIAN_POINT ( 'NONE',  ( -0.1799999999999999933, 0.0000000000000000000, 6.284666409917639645E-16 ) ) ;
#23 = DIRECTION ( 'NONE',  ( -1.000000000000000000, 0.0000000000000000000, 3.491481338843133355E-15 ) ) ;
#24 = CARTESIAN_POINT ( 'NONE',  ( 1.595606971851311880E-13, -5.596635872103403844E-15, 45.69999999999999574 ) ) ;
#25 = EDGE_LOOP ( 'NONE', ( #71 ) ) ;
#26 = DATE_AND_TIME ( #389, #359 ) ;
#27 = FACE_OUTER_BOUND ( 'NONE', #241, .T. ) ;
#28 = ORIENTED_EDGE ( 'NONE', *, *, #202, .T. ) ;
#29 = CALENDAR_DATE ( 2021, 3, 12 ) ;
#30 = DIRECTION ( 'NONE',  ( 4.275831445896958607E-31, 1.000000000000000000, 1.224646799147353207E-16 ) ) ;
#31 = ORIENTED_EDGE ( 'NONE', *, *, #106, .F. ) ;
#32 = CARTESIAN_POINT ( 'NONE',  ( -0.1799999999999996325, 0.08866652533650906665, 0.1100647976125443267 ) ) ;
#33 = LOCAL_TIME ( 14, 0, 57.00000000000000000, #7 ) ;
#34 = ORIENTED_EDGE ( 'NONE', *, *, #313, .F. ) ;
#35 = EDGE_CURVE ( 'NONE', #196, #196, #383, .T. ) ;
#36 = ORIENTED_EDGE ( 'NONE', *, *, #267, .F. ) ;
#37 = CC_DESIGN_PERSON_AND_ORGANIZATION_ASSIGNMENT ( #153, #291, ( #156 ) ) ;
#38 = CARTESIAN_POINT ( 'NONE',  ( -0.1799999999999982447, 0.0000000000000000000, 0.5000000000000006661 ) ) ;
#39 = CYLINDRICAL_SURFACE ( 'NONE', #209, 0.1799999999999999933 ) ;
#40 = DIRECTION ( 'NONE',  ( 5.349805401075654369E-31, 1.000000000000000000, 1.505836350674311495E-16 ) ) ;
#41 = EDGE_CURVE ( 'NONE', #244, #133, #350, .T. ) ;
#42 = DIRECTION ( 'NONE',  ( 3.491481338843133355E-15, -0.0000000000000000000, 1.000000000000000000 ) ) ;
#43 = ORIENTED_EDGE ( 'NONE', *, *, #352, .T. ) ;
#44 = ADVANCED_FACE ( 'NONE', ( #167 ), #195, .T. ) ;
#45 = CARTESIAN_POINT ( 'NONE',  ( 2.184954903546900581E-14, 1.499999999999996003, 6.257959563578428863 ) ) ;
#46 = DIRECTION ( 'NONE',  ( -3.491481338843133355E-15, 0.0000000000000000000, -1.000000000000000000 ) ) ;
#47 = CARTESIAN_POINT ( 'NONE',  ( -0.1799999999999999933, 0.0000000000000000000, 6.284666409917639645E-16 ) ) ;
#48 = CIRCLE ( 'NONE', #135, 0.1800000000000000211 ) ;
#49 = DIRECTION ( 'NONE',  ( 4.275831445896958607E-31, 1.000000000000000000, 1.224646799147353207E-16 ) ) ;
#50 = LINE ( 'NONE', #38, #214 ) ;
#51 = COORDINATED_UNIVERSAL_TIME_OFFSET ( 1, 0, .AHEAD. ) ;
#52 = CARTESIAN_POINT ( 'NONE',  ( -0.1799999999999999933, 0.2399999999999999911, 6.284666409917639645E-16 ) ) ;
#53 = CLOSED_SHELL ( 'NONE', ( #376, #264, #12, #191, #124, #111, #348 ) ) ;
#54 = LINE ( 'NONE', #22, #75 ) ;
#55 = EDGE_CURVE ( 'NONE', #17, #17, #60, .T. ) ;
#56 = PERSON_AND_ORGANIZATION ( #379, #115 ) ;
#57 = CARTESIAN_POINT ( 'NONE',  ( 1.606081415867841091E-13, -5.633375276077824704E-15, 46.00000000000000000 ) ) ;
#58 = ORIENTED_EDGE ( 'NONE', *, *, #384, .F. ) ;
#59 = CARTESIAN_POINT ( 'NONE',  ( 4.430753026553661071E-16, 0.1799999999999999933, 0.1269018103365188166 ) ) ;
#60 = CIRCLE ( 'NONE', #128, 0.1800000000000000211 ) ;
#61 = EDGE_LOOP ( 'NONE', ( #9, #273, #253, #98 ) ) ;
#62 = DIRECTION ( 'NONE',  ( 0.0000000000000000000, -1.000000000000000000, 0.0000000000000000000 ) ) ;
#63 = VERTEX_POINT ( 'NONE', #6 ) ;
#64 = DIRECTION ( 'NONE',  ( -3.491481338843133355E-15, 0.0000000000000000000, -1.000000000000000000 ) ) ;
#65 = ORIENTED_EDGE ( 'NONE', *, *, #202, .F. ) ;
#66 = CARTESIAN_POINT ( 'NONE',  ( 4.430753026553664029E-16, 0.1799999999999999933, 0.1269018103365188999 ) ) ;
#67 = VECTOR ( 'NONE', #351, 1000.000000000000000 ) ;
#68 = ORIENTED_EDGE ( 'NONE', *, *, #207, .F. ) ;
#69 = AXIS2_PLACEMENT_3D ( 'NONE', #163, #320, #201 ) ;
#70 = CARTESIAN_POINT ( 'NONE',  ( 2.365919782978951696E-32, 0.2999999999999999889, 6.776263578034402713E-18 ) ) ;
#71 = ORIENTED_EDGE ( 'NONE', *, *, #55, .F. ) ;
#72 = DIRECTION ( 'NONE',  ( -3.491481338843133355E-15, 1.224646799147353207E-16, -1.000000000000000000 ) ) ;
#73 = DIRECTION ( 'NONE',  ( 0.0000000000000000000, 1.000000000000000000, 0.0000000000000000000 ) ) ;
#74 = ORIENTED_EDGE ( 'NONE', *, *, #396, .T. ) ;
#75 = VECTOR ( 'NONE', #62, 1000.000000000000000 ) ;
#76 = MANIFOLD_SOLID_BREP ( 'Corps-Déplacer/Copier1[2]', #143 ) ;
#77 = AXIS2_PLACEMENT_3D ( 'NONE', #197, #42, #23 ) ;
#78 = DIRECTION ( 'NONE',  ( -3.491481338843133355E-15, 1.224646799147353207E-16, -1.000000000000000000 ) ) ;
#79 = CARTESIAN_POINT ( 'NONE',  ( 4.430753026553659099E-16, -0.1799999999999999933, 0.1269018103365187611 ) ) ;
#80 = CARTESIAN_POINT ( 'NONE',  ( 5.093439472724389006E-15, 0.2140741737109294052, 1.458819045102514478 ) ) ;
#81 = DIRECTION ( 'NONE',  ( 0.0000000000000000000, 0.0000000000000000000, 1.000000000000000000 ) ) ;
#82 = AXIS2_PLACEMENT_3D ( 'NONE', #302, #330, #30 ) ;
#83 = MANIFOLD_SOLID_BREP ( 'Corps-Déplacer/Copier1[1]', #53 ) ;
#84 = DATE_AND_TIME ( #322, #285 ) ;
#85 = EDGE_CURVE ( 'NONE', #131, #131, #243, .T. ) ;
#86 = PERSON_AND_ORGANIZATION ( #379, #115 ) ;
#87 = DIRECTION ( 'NONE',  ( -3.491481338843133355E-15, 1.224646799147353207E-16, -1.000000000000000000 ) ) ;
#88 = LOCAL_TIME ( 14, 0, 57.00000000000000000, #332 ) ;
#89 = DIRECTION ( 'NONE',  ( 3.491481338843133355E-15, -1.224646799147353207E-16, 1.000000000000000000 ) ) ;
#90 = EDGE_CURVE ( 'NONE', #372, #133, #117, .T. ) ;
#91 = SECURITY_CLASSIFICATION_LEVEL ( 'unclassified' ) ;
#92 = DIRECTION ( 'NONE',  ( -3.491481338843133355E-15, 1.224646799147353207E-16, -1.000000000000000000 ) ) ;
#93 = CARTESIAN_POINT ( 'NONE',  ( -0.1799999999999999378, 0.2399999999999999911, 0.01500000000000070374 ) ) ;
#94 = ORIENTED_EDGE ( 'NONE', *, *, #151, .F. ) ;
#95 = CARTESIAN_POINT ( 'NONE',  ( 1.595606971851311880E-13, -5.596635872103403844E-15, 45.69999999999999574 ) ) ;
#96 = CONICAL_SURFACE ( 'NONE', #354, 1.500000000000004441, 0.7853981633974453924 ) ;
#97 = DESIGN_CONTEXT ( 'detailed design', #144, 'design' ) ;
#98 = ORIENTED_EDGE ( 'NONE', *, *, #336, .F. ) ;
#99 = DIRECTION ( 'NONE',  ( -2.381184547279827482E-15, 0.7313537016191721252, -0.6819983600624967002 ) ) ;
#100 = ORIENTED_EDGE ( 'NONE', *, *, #85, .T. ) ;
#101 = DIRECTION ( 'NONE',  ( 4.275831445896958607E-31, 1.000000000000000000, 1.224646799147353207E-16 ) ) ;
#102 = EDGE_LOOP ( 'NONE', ( #303 ) ) ;
#103 = CARTESIAN_POINT ( 'NONE',  ( 5.093439472724389006E-15, -1.786538074119992713E-16, 1.458819045102514478 ) ) ;
#104 = DIRECTION ( 'NONE',  ( 0.0000000000000000000, -1.000000000000000000, 0.0000000000000000000 ) ) ;
#105 = APPROVAL_PERSON_ORGANIZATION ( #251, #169, #142 ) ;
#106 = EDGE_CURVE ( 'NONE', #63, #346, #168, .T. ) ;
#107 = CARTESIAN_POINT ( 'NONE',  ( 2.184954903546900581E-14, -7.663790148729890761E-16, 6.257959563578428863 ) ) ;
#108 = FACE_OUTER_BOUND ( 'NONE', #250, .T. ) ;
#109 = CC_DESIGN_PERSON_AND_ORGANIZATION_ASSIGNMENT ( #265, #232, ( #237 ) ) ;
#110 = VERTEX_POINT ( 'NONE', #353 ) ;
#111 = ADVANCED_FACE ( 'NONE', ( #391 ), #120, .F. ) ;
#112 = APPROVAL_DATE_TIME ( #84, #169 ) ;
#113 = CARTESIAN_POINT ( 'NONE',  ( 5.237222008264715933E-17, 0.2999999999999999334, 0.01500000000000004628 ) ) ;
#114 = PLANE ( 'NONE',  #388 ) ;
#115 = ORGANIZATION ( 'UNSPECIFIED', 'UNSPECIFIED', '' ) ;
#116 = LINE ( 'NONE', #395, #217 ) ;
#117 = CIRCLE ( 'NONE', #77, 0.1799999999999999933 ) ;
#118 = APPROVAL_DATE_TIME ( #26, #5 ) ;
#119 = DIRECTION ( 'NONE',  ( 4.212971753347078429E-31, 1.000000000000000000, 1.242314989306307328E-16 ) ) ;
#120 = PLANE ( 'NONE',  #280 ) ;
#121 = EDGE_LOOP ( 'NONE', ( #239, #283, #1, #220 ) ) ;
#122 = CARTESIAN_POINT ( 'NONE',  ( 0.0000000000000000000, 0.0000000000000000000, 0.0000000000000000000 ) ) ;
#123 = EDGE_LOOP ( 'NONE', ( #308 ) ) ;
#124 = ADVANCED_FACE ( 'NONE', ( #315 ), #39, .T. ) ;
#125 = DATE_TIME_ROLE ( 'creation_date' ) ;
#126 = DIRECTION ( 'NONE',  ( 4.336738084436544598E-31, 1.000000000000000000, 1.224646799147353207E-16 ) ) ;
#127 = CC_DESIGN_APPROVAL ( #169, ( #237 ) ) ;
#128 = AXIS2_PLACEMENT_3D ( 'NONE', #260, #225, #40 ) ;
#129 = FACE_OUTER_BOUND ( 'NONE', #312, .T. ) ;
#130 = ORIENTED_EDGE ( 'NONE', *, *, #396, .F. ) ;
#131 = VERTEX_POINT ( 'NONE', #80 ) ;
#132 = CC_DESIGN_PERSON_AND_ORGANIZATION_ASSIGNMENT ( #342, #162, ( #221 ) ) ;
#133 = VERTEX_POINT ( 'NONE', #235 ) ;
#134 = CIRCLE ( 'NONE', #233, 0.2999999999999999889 ) ;
#135 = AXIS2_PLACEMENT_3D ( 'NONE', #307, #296, #155 ) ;
#136 = EDGE_LOOP ( 'NONE', ( #194, #28, #43, #247 ) ) ;
#137 = EDGE_LOOP ( 'NONE', ( #100 ) ) ;
#138 = APPROVAL_PERSON_ORGANIZATION ( #56, #5, #297 ) ;
#139 = DIRECTION ( 'NONE',  ( -4.275831445896958607E-31, -1.000000000000000000, -1.224646799147353207E-16 ) ) ;
#140 = APPLICATION_PROTOCOL_DEFINITION ( 'international standard', 'config_control_design', 1994, #304 ) ;
#141 = FACE_OUTER_BOUND ( 'NONE', #123, .T. ) ;
#142 = APPROVAL_ROLE ( '' ) ;
#143 = CLOSED_SHELL ( 'NONE', ( #276, #159, #252, #19, #198, #255, #44 ) ) ;
#144 = APPLICATION_CONTEXT ( 'configuration controlled 3d designs of mechanical parts and assemblies' ) ;
#145 = FACE_OUTER_BOUND ( 'NONE', #137, .T. ) ;
#146 = DATE_TIME_ROLE ( 'classification_date' ) ;
#147 = AXIS2_PLACEMENT_3D ( 'NONE', #2, #15, #377 ) ;
#148 = FACE_OUTER_BOUND ( 'NONE', #331, .T. ) ;
#149 = EDGE_LOOP ( 'NONE', ( #65, #318, #31 ) ) ;
#150 = DIRECTION ( 'NONE',  ( 0.0000000000000000000, 1.000000000000000000, 0.0000000000000000000 ) ) ;
#151 = EDGE_CURVE ( 'NONE', #337, #188, #289, .T. ) ;
#152 = VERTEX_POINT ( 'NONE', #113 ) ;
#153 = PERSON_AND_ORGANIZATION ( #379, #115 ) ;
#154 = ORIENTED_EDGE ( 'NONE', *, *, #313, .T. ) ;
#155 = DIRECTION ( 'NONE',  ( 5.349805401075654369E-31, 1.000000000000000000, 1.505836350674311495E-16 ) ) ;
#156 = PRODUCT_DEFINITION_FORMATION_WITH_SPECIFIED_SOURCE ( 'ANY', '', #221, .NOT_KNOWN. ) ;
#157 = AXIS2_PLACEMENT_3D ( 'NONE', #288, #257, #104 ) ;
#158 = ORIENTED_EDGE ( 'NONE', *, *, #177, .T. ) ;
#159 = ADVANCED_FACE ( 'NONE', ( #141, #210 ), #16, .T. ) ;
#160 = PERSON_AND_ORGANIZATION ( #379, #115 ) ;
#161 = DIRECTION ( 'NONE',  ( -3.491481338843133355E-15, 0.0000000000000000000, -1.000000000000000000 ) ) ;
#162 = PERSON_AND_ORGANIZATION_ROLE ( 'design_owner' ) ;
#163 = CARTESIAN_POINT ( 'NONE',  ( 7.482705030319676248E-32, 0.2999999999999999889, 2.143131898507867681E-17 ) ) ;
#164 = PRODUCT_RELATED_PRODUCT_CATEGORY ( 'detail', '', ( #221 ) ) ;
#165 = CARTESIAN_POINT ( 'NONE',  ( 5.237222008264713468E-17, -1.836970198721034217E-18, 0.01500000000000003761 ) ) ;
#166 =( LENGTH_UNIT ( ) NAMED_UNIT ( * ) SI_UNIT ( .MILLI., .METRE. ) );
#167 = FACE_OUTER_BOUND ( 'NONE', #368, .T. ) ;
#168 = CIRCLE ( 'NONE', #175, 0.1800000000000000211 ) ;
#169 = APPROVAL ( #205, 'UNSPECIFIED' ) ;
#170 = AXIS2_PLACEMENT_3D ( 'NONE', #206, #378, #204 ) ;
#171 = VERTEX_POINT ( 'NONE', #249 ) ;
#172 = COORDINATED_UNIVERSAL_TIME_OFFSET ( 1, 0, .AHEAD. ) ;
#173 = DIRECTION ( 'NONE',  ( 5.349805401075654369E-31, 1.000000000000000000, 1.505836350674311495E-16 ) ) ;
#174 = AXIS2_PLACEMENT_3D ( 'NONE', #122, #240, #64 ) ;
#175 = AXIS2_PLACEMENT_3D ( 'NONE', #263, #262, #173 ) ;
#176 = DIRECTION ( 'NONE',  ( -1.000000000000000000, 0.0000000000000000000, 3.614007241618348376E-15 ) ) ;
#177 = EDGE_CURVE ( 'NONE', #188, #365, #311, .T. ) ;
#178 = FACE_OUTER_BOUND ( 'NONE', #102, .T. ) ;
#179 = APPROVAL_STATUS ( 'not_yet_approved' ) ;
#180 = CYLINDRICAL_SURFACE ( 'NONE', #269, 1.500000000000000444 ) ;
#181 = ORIENTED_EDGE ( 'NONE', *, *, #234, .F. ) ;
#182 = LINE ( 'NONE', #270, #277 ) ;
#183 = AXIS2_PLACEMENT_3D ( 'NONE', #14, #316, #139 ) ;
#184 = ORIENTED_EDGE ( 'NONE', *, *, #35, .T. ) ;
#185 = APPROVAL_ROLE ( '' ) ;
#186 = DIRECTION ( 'NONE',  ( 0.0000000000000000000, 1.000000000000000000, 0.0000000000000000000 ) ) ;
#187 = UNCERTAINTY_MEASURE_WITH_UNIT (LENGTH_MEASURE( 1.000000000000000082E-05 ), #166, 'distance_accuracy_value', 'NONE');
#188 = VERTEX_POINT ( 'NONE', #52 ) ;
#189 = FACE_OUTER_BOUND ( 'NONE', #306, .T. ) ;
#190 = CC_DESIGN_PERSON_AND_ORGANIZATION_ASSIGNMENT ( #329, #20, ( #256 ) ) ;
#191 = ADVANCED_FACE ( 'NONE', ( #21 ), #114, .T. ) ;
#192 = EDGE_LOOP ( 'NONE', ( #184 ) ) ;
#193 = CC_DESIGN_SECURITY_CLASSIFICATION ( #256, ( #156 ) ) ;
#194 = ORIENTED_EDGE ( 'NONE', *, *, #41, .F. ) ;
#195 = PLANE ( 'NONE',  #183 ) ;
#196 = VERTEX_POINT ( 'NONE', #45 ) ;
#197 = CARTESIAN_POINT ( 'NONE',  ( 0.0000000000000000000, 0.0000000000000000000, 0.0000000000000000000 ) ) ;
#198 = ADVANCED_FACE ( 'NONE', ( #178, #129 ), #180, .T. ) ;
#199 = ORIENTED_EDGE ( 'NONE', *, *, #85, .F. ) ;
#200 = ORIENTED_EDGE ( 'NONE', *, *, #267, .T. ) ;
#201 = DIRECTION ( 'NONE',  ( 4.275831445896958607E-31, 1.000000000000000000, 1.224646799147353207E-16 ) ) ;
#202 = EDGE_CURVE ( 'NONE', #244, #63, #48, .T. ) ;
#203 = CC_DESIGN_APPROVAL ( #266, ( #156 ) ) ;
#204 = DIRECTION ( 'NONE',  ( 4.275831445896958607E-31, 1.000000000000000000, 1.224646799147352961E-16 ) ) ;
#205 = APPROVAL_STATUS ( 'not_yet_approved' ) ;
#206 = CARTESIAN_POINT ( 'NONE',  ( -1.068957861474239433E-31, 3.749399456654644020E-33, -3.061616997868383018E-17 ) ) ;
#207 = EDGE_CURVE ( 'NONE', #346, #152, #116, .T. ) ;
#208 = APPROVAL_PERSON_ORGANIZATION ( #160, #266, #185 ) ;
#209 = AXIS2_PLACEMENT_3D ( 'NONE', #382, #259, #176 ) ;
#210 = FACE_OUTER_BOUND ( 'NONE', #25, .T. ) ;
#211 = FACE_BOUND ( 'NONE', #369, .T. ) ;
#212 = DIRECTION ( 'NONE',  ( 0.0000000000000000000, 1.000000000000000000, 0.0000000000000000000 ) ) ;
#213 = ORIENTED_EDGE ( 'NONE', *, *, #41, .T. ) ;
#214 = VECTOR ( 'NONE', #344, 1000.000000000000000 ) ;
#215 = CARTESIAN_POINT ( 'NONE',  ( 4.430753026553662057E-16, -0.1800000000000000211, 0.1269018103365188443 ) ) ;
#216 = VECTOR ( 'NONE', #46, 1000.000000000000000 ) ;
#217 = VECTOR ( 'NONE', #99, 1000.000000000000000 ) ;
#218 = ORIENTED_EDGE ( 'NONE', *, *, #90, .F. ) ;
#219 = DIRECTION ( 'NONE',  ( -5.914799457447378993E-31, -1.000000000000000000, -1.694065894508600678E-16 ) ) ;
#220 = ORIENTED_EDGE ( 'NONE', *, *, #352, .F. ) ;
#221 = PRODUCT ( '997981', '997981', '', ( #321 ) ) ;
#222 = CARTESIAN_POINT ( 'NONE',  ( 4.189777606611760815E-15, 0.1799999999999996048, 1.200000000000000400 ) ) ;
#223 = ORIENTED_EDGE ( 'NONE', *, *, #8, .T. ) ;
#224 = DIRECTION ( 'NONE',  ( 1.000000000000000000, 0.0000000000000000000, 0.0000000000000000000 ) ) ;
#225 = DIRECTION ( 'NONE',  ( -3.491481338843133355E-15, 1.224646799147353207E-16, -1.000000000000000000 ) ) ;
#226 = APPROVAL_STATUS ( 'not_yet_approved' ) ;
#227 = DIRECTION ( 'NONE',  ( -3.491481338843133355E-15, 1.224646799147353207E-16, -1.000000000000000000 ) ) ;
#228 = DIRECTION ( 'NONE',  ( -3.491481338843133355E-15, 1.224646799147353207E-16, -1.000000000000000000 ) ) ;
#229 =( NAMED_UNIT ( * ) PLANE_ANGLE_UNIT ( ) SI_UNIT ( $, .RADIAN. ) );
#230 = DIRECTION ( 'NONE',  ( -4.275831445896958607E-31, -1.000000000000000000, -1.224646799147353207E-16 ) ) ;
#231 = AXIS2_PLACEMENT_3D ( 'NONE', #274, #338, #119 ) ;
#232 = PERSON_AND_ORGANIZATION_ROLE ( 'creator' ) ;
#233 = AXIS2_PLACEMENT_3D ( 'NONE', #165, #78, #349 ) ;
#234 = EDGE_CURVE ( 'NONE', #171, #171, #300, .T. ) ;
#235 = CARTESIAN_POINT ( 'NONE',  ( -1.892735826383161356E-31, -0.1799999999999999933, -5.421010862427522170E-17 ) ) ;
#236 = CIRCLE ( 'NONE', #13, 1.200000000000004396 ) ;
#237 = PRODUCT_DEFINITION ( 'UNKNOWN', '', #156, #97 ) ;
#238 = CARTESIAN_POINT ( 'NONE',  ( -0.1799999999999997435, 0.1676852194801000673, 0.06732299439935698904 ) ) ;
#239 = ORIENTED_EDGE ( 'NONE', *, *, #336, .T. ) ;
#240 = DIRECTION ( 'NONE',  ( 1.000000000000000000, 0.0000000000000000000, -3.491481338843133355E-15 ) ) ;
#241 = EDGE_LOOP ( 'NONE', ( #392, #213, #74, #154, #68 ) ) ;
#242 = CARTESIAN_POINT ( 'NONE',  ( -0.1799999999999995492, 0.04463795592124922967, 0.1269018103365739669 ) ) ;
#243 = CIRCLE ( 'NONE', #286, 0.2140741737109295995 ) ;
#244 = VERTEX_POINT ( 'NONE', #215 ) ;
#245 = EDGE_CURVE ( 'NONE', #188, #372, #54, .T. ) ;
#246 = DIRECTION ( 'NONE',  ( -3.491481338843133355E-15, 1.224646799147353207E-16, -1.000000000000000000 ) ) ;
#247 = ORIENTED_EDGE ( 'NONE', *, *, #90, .T. ) ;
#248 = PRODUCT_DEFINITION_SHAPE ( 'NONE', 'NONE',  #237 ) ;
#249 = CARTESIAN_POINT ( 'NONE',  ( 1.595606971851311880E-13, 1.499999999999998668, 45.69999999999999574 ) ) ;
#250 = EDGE_LOOP ( 'NONE', ( #223, #34, #275, #94 ) ) ;
#251 = PERSON_AND_ORGANIZATION ( #379, #115 ) ;
#252 = ADVANCED_FACE ( 'NONE', ( #145, #148 ), #381, .F. ) ;
#253 = ORIENTED_EDGE ( 'NONE', *, *, #8, .F. ) ;
#254 = FACE_OUTER_BOUND ( 'NONE', #192, .T. ) ;
#255 = ADVANCED_FACE ( 'NONE', ( #211, #189 ), #96, .T. ) ;
#256 = SECURITY_CLASSIFICATION ( '', '', #91 ) ;
#257 = DIRECTION ( 'NONE',  ( 3.491481338843133355E-15, -1.224646799147353207E-16, 1.000000000000000000 ) ) ;
#258 = CYLINDRICAL_SURFACE ( 'NONE', #147, 0.2999999999999999889 ) ;
#259 = DIRECTION ( 'NONE',  ( -3.491481338843133355E-15, 0.0000000000000000000, -1.000000000000000000 ) ) ;
#260 = CARTESIAN_POINT ( 'NONE',  ( 4.430753026553663043E-16, -1.554098958346223458E-17, 0.1269018103365188721 ) ) ;
#261 = CC_DESIGN_DATE_AND_TIME_ASSIGNMENT ( #361, #146, ( #256 ) ) ;
#262 = DIRECTION ( 'NONE',  ( -3.491481338843133355E-15, 1.224646799147353207E-16, -1.000000000000000000 ) ) ;
#263 = CARTESIAN_POINT ( 'NONE',  ( 4.430753026553663043E-16, -1.554098958346223458E-17, 0.1269018103365188721 ) ) ;
#264 = ADVANCED_FACE ( 'NONE', ( #386 ), #375, .T. ) ;
#265 = PERSON_AND_ORGANIZATION ( #379, #115 ) ;
#266 = APPROVAL ( #226, 'UNSPECIFIED' ) ;
#267 = EDGE_CURVE ( 'NONE', #110, #110, #236, .T. ) ;
#268 = CARTESIAN_POINT ( 'NONE',  ( 4.189777606611759237E-15, -2.168404344971008868E-16, 1.199999999999999956 ) ) ;
#269 = AXIS2_PLACEMENT_3D ( 'NONE', #360, #92, #101 ) ;
#270 = CARTESIAN_POINT ( 'NONE',  ( 4.430753026553662057E-16, 0.2999999999999999889, 0.1269018103365188443 ) ) ;
#271 = LINE ( 'NONE', #363, #364 ) ;
#272 = CC_DESIGN_DATE_AND_TIME_ASSIGNMENT ( #278, #125, ( #237 ) ) ;
#273 = ORIENTED_EDGE ( 'NONE', *, *, #207, .T. ) ;
#274 = CARTESIAN_POINT ( 'NONE',  ( 5.237222008264713468E-17, -1.836970198721034217E-18, 0.01500000000000003761 ) ) ;
#275 = ORIENTED_EDGE ( 'NONE', *, *, #177, .F. ) ;
#276 = ADVANCED_FACE ( 'NONE', ( #362 ), #397, .T. ) ;
#277 = VECTOR ( 'NONE', #219, 1000.000000000000000 ) ;
#278 = DATE_AND_TIME ( #356, #325 ) ;
#279 = DIRECTION ( 'NONE',  ( -3.491481338843133355E-15, 1.224646799147353207E-16, -1.000000000000000000 ) ) ;
#280 = AXIS2_PLACEMENT_3D ( 'NONE', #319, #373, #161 ) ;
#281 = APPROVAL_DATE_TIME ( #370, #266 ) ;
#282 = VERTEX_POINT ( 'NONE', #222 ) ;
#283 = ORIENTED_EDGE ( 'NONE', *, *, #151, .T. ) ;
#284 = APPLICATION_PROTOCOL_DEFINITION ( 'international standard', 'config_control_design', 1994, #144 ) ;
#285 = LOCAL_TIME ( 14, 0, 57.00000000000000000, #172 ) ;
#286 = AXIS2_PLACEMENT_3D ( 'NONE', #103, #227, #345 ) ;
#287 = PLANE ( 'NONE',  #69 ) ;
#288 = CARTESIAN_POINT ( 'NONE',  ( 5.093439472724389006E-15, -1.786538074119992713E-16, 1.458819045102514478 ) ) ;
#289 = LINE ( 'NONE', #295, #327 ) ;
#290 =( GEOMETRIC_REPRESENTATION_CONTEXT ( 3 ) GLOBAL_UNCERTAINTY_ASSIGNED_CONTEXT ( ( #187 ) ) GLOBAL_UNIT_ASSIGNED_CONTEXT ( ( #166, #229, #310 ) ) REPRESENTATION_CONTEXT ( 'NONE', 'WORKASPACE' ) );
#291 = PERSON_AND_ORGANIZATION_ROLE ( 'creator' ) ;
#292 = DIRECTION ( 'NONE',  ( 0.0000000000000000000, 1.000000000000000000, 0.0000000000000000000 ) ) ;
#293 = EDGE_CURVE ( 'NONE', #346, #244, #182, .T. ) ;
#294 = AXIS2_PLACEMENT_3D ( 'NONE', #24, #298, #212 ) ;
#295 = CARTESIAN_POINT ( 'NONE',  ( -0.1799999999999999933, 0.2399999999999999911, 6.578581641713004750E-16 ) ) ;
#296 = DIRECTION ( 'NONE',  ( -3.491481338843133355E-15, 1.224646799147353207E-16, -1.000000000000000000 ) ) ;
#297 = APPROVAL_ROLE ( '' ) ;
#298 = DIRECTION ( 'NONE',  ( -3.491481338843133355E-15, 1.224646799147353207E-16, -1.000000000000000000 ) ) ;
#299 = EDGE_LOOP ( 'NONE', ( #158, #130, #218, #10 ) ) ;
#300 = CIRCLE ( 'NONE', #294, 1.500000000000004441 ) ;
#301 = CALENDAR_DATE ( 2021, 3, 12 ) ;
#302 = CARTESIAN_POINT ( 'NONE',  ( 4.430753026553663043E-16, 0.1799999999999999933, 0.1269018103365188721 ) ) ;
#303 = ORIENTED_EDGE ( 'NONE', *, *, #234, .T. ) ;
#304 = APPLICATION_CONTEXT ( 'configuration controlled 3d designs of mechanical parts and assemblies' ) ;
#305 = DIRECTION ( 'NONE',  ( 3.491481338843133355E-15, -0.0000000000000000000, 1.000000000000000000 ) ) ;
#306 = EDGE_LOOP ( 'NONE', ( #181 ) ) ;
#307 = CARTESIAN_POINT ( 'NONE',  ( 4.430753026553663043E-16, -1.554098958346223458E-17, 0.1269018103365188721 ) ) ;
#308 = ORIENTED_EDGE ( 'NONE', *, *, #384, .T. ) ;
#309 = CIRCLE ( 'NONE', #334, 0.1799999999999997435 ) ;
#310 =( NAMED_UNIT ( * ) SI_UNIT ( $, .STERADIAN. ) SOLID_ANGLE_UNIT ( ) );
#311 = CIRCLE ( 'NONE', #170, 0.2999999999999999889 ) ;
#312 = EDGE_LOOP ( 'NONE', ( #335 ) ) ;
#313 = EDGE_CURVE ( 'NONE', #365, #152, #271, .T. ) ;
#314 = CARTESIAN_POINT ( 'NONE',  ( 4.189777606611760815E-15, -1.469576158976824046E-16, 1.200000000000000400 ) ) ;
#315 = FACE_OUTER_BOUND ( 'NONE', #136, .T. ) ;
#316 = DIRECTION ( 'NONE',  ( 3.491481338843133355E-15, -1.224646799147353207E-16, 1.000000000000000000 ) ) ;
#317 = FACE_OUTER_BOUND ( 'NONE', #299, .T. ) ;
#318 = ORIENTED_EDGE ( 'NONE', *, *, #293, .F. ) ;
#319 = CARTESIAN_POINT ( 'NONE',  ( -0.1799999999999982447, 0.0000000000000000000, 0.5000000000000006661 ) ) ;
#320 = DIRECTION ( 'NONE',  ( -3.491481338843133355E-15, 1.224646799147353207E-16, -1.000000000000000000 ) ) ;
#321 = MECHANICAL_CONTEXT ( 'NONE', #304, 'mechanical' ) ;
#322 = CALENDAR_DATE ( 2021, 3, 12 ) ;
#323 = SHAPE_DEFINITION_REPRESENTATION ( #248, #347 ) ;
#324 = PERSON_AND_ORGANIZATION_ROLE ( 'design_supplier' ) ;
#325 = LOCAL_TIME ( 14, 0, 57.00000000000000000, #51 ) ;
#326 = B_SPLINE_CURVE_WITH_KNOTS ( 'NONE', 3,
 ( #390, #242, #32, #238, #333, #93 ),
 .UNSPECIFIED., .F., .F.,
 ( 4, 2, 4 ),
 ( 0.0003714672167428130414, 0.0005053570392405079851, 0.0006392468617382029289 ),
 .UNSPECIFIED. ) ;
#327 = VECTOR ( 'NONE', #87, 1000.000000000000000 ) ;
#328 = DIRECTION ( 'NONE',  ( -3.491481338843133355E-15, 1.224646799147353207E-16, -1.000000000000000000 ) ) ;
#329 = PERSON_AND_ORGANIZATION ( #379, #115 ) ;
#330 = DIRECTION ( 'NONE',  ( -3.491481338843133355E-15, 1.224646799147353207E-16, -1.000000000000000000 ) ) ;
#331 = EDGE_LOOP ( 'NONE', ( #58 ) ) ;
#332 = COORDINATED_UNIVERSAL_TIME_OFFSET ( 1, 0, .AHEAD. ) ;
#333 = CARTESIAN_POINT ( 'NONE',  ( -0.1799999999999998823, 0.2042160697239385481, 0.04169524385974529568 ) ) ;
#334 = AXIS2_PLACEMENT_3D ( 'NONE', #314, #72, #292 ) ;
#335 = ORIENTED_EDGE ( 'NONE', *, *, #35, .F. ) ;
#336 = EDGE_CURVE ( 'NONE', #63, #337, #326, .T. ) ;
#337 = VERTEX_POINT ( 'NONE', #367 ) ;
#338 = DIRECTION ( 'NONE',  ( -3.491481338843133355E-15, 1.224646799147353207E-16, -1.000000000000000000 ) ) ;
#339 = EDGE_LOOP ( 'NONE', ( #394 ) ) ;
#340 = CC_DESIGN_PERSON_AND_ORGANIZATION_ASSIGNMENT ( #86, #324, ( #156 ) ) ;
#341 = AXIS2_PLACEMENT_3D ( 'NONE', #268, #246, #126 ) ;
#342 = PERSON_AND_ORGANIZATION ( #379, #115 ) ;
#343 = AXIS2_PLACEMENT_3D ( 'NONE', #357, #385, #49 ) ;
#344 = DIRECTION ( 'NONE',  ( -3.491481338843133355E-15, 0.0000000000000000000, -1.000000000000000000 ) ) ;
#345 = DIRECTION ( 'NONE',  ( 0.0000000000000000000, 1.000000000000000000, 0.0000000000000000000 ) ) ;
#346 = VERTEX_POINT ( 'NONE', #59 ) ;
#347 = ADVANCED_BREP_SHAPE_REPRESENTATION ( '997981', ( #83, #76, #18 ), #290 ) ;
#348 = ADVANCED_FACE ( 'NONE', ( #27 ), #393, .T. ) ;
#349 = DIRECTION ( 'NONE',  ( 4.212971753347078429E-31, 1.000000000000000000, 1.242314989306307328E-16 ) ) ;
#350 = LINE ( 'NONE', #79, #216 ) ;
#351 = DIRECTION ( 'NONE',  ( 4.436099593085534244E-31, 1.000000000000000000, 1.270549420881450509E-16 ) ) ;
#352 = EDGE_CURVE ( 'NONE', #63, #372, #50, .T. ) ;
#353 = CARTESIAN_POINT ( 'NONE',  ( 1.606081415867841091E-13, 1.199999999999998845, 46.00000000000000000 ) ) ;
#354 = AXIS2_PLACEMENT_3D ( 'NONE', #95, #328, #186 ) ;
#355 = CONICAL_SURFACE ( 'NONE', #157, 0.2140741737109295995, 0.2617993877991429130 ) ;
#356 = CALENDAR_DATE ( 2021, 3, 12 ) ;
#357 = CARTESIAN_POINT ( 'NONE',  ( 0.0000000000000000000, 0.0000000000000000000, 0.0000000000000000000 ) ) ;
#358 = CARTESIAN_POINT ( 'NONE',  ( 4.430753026553663043E-16, 0.1799999999999999933, 0.1269018103365188721 ) ) ;
#359 = LOCAL_TIME ( 14, 0, 57.00000000000000000, #380 ) ;
#360 = CARTESIAN_POINT ( 'NONE',  ( 0.0000000000000000000, 0.0000000000000000000, 0.0000000000000000000 ) ) ;
#361 = DATE_AND_TIME ( #301, #88 ) ;
#362 = FACE_OUTER_BOUND ( 'NONE', #339, .T. ) ;
#363 = CARTESIAN_POINT ( 'NONE',  ( 4.430753026553662057E-16, 0.2999999999999999889, 0.1269018103365188443 ) ) ;
#364 = VECTOR ( 'NONE', #305, 1000.000000000000000 ) ;
#365 = VERTEX_POINT ( 'NONE', #70 ) ;
#366 = AXIS2_PLACEMENT_3D ( 'NONE', #107, #228, #73 ) ;
#367 = CARTESIAN_POINT ( 'NONE',  ( -0.1799999999999999378, 0.2399999999999999911, 0.01500000000000070374 ) ) ;
#368 = EDGE_LOOP ( 'NONE', ( #36 ) ) ;
#369 = EDGE_LOOP ( 'NONE', ( #200 ) ) ;
#370 = DATE_AND_TIME ( #29, #33 ) ;
#371 = CARTESIAN_POINT ( 'NONE',  ( 0.0000000000000000000, 0.0000000000000000000, 0.0000000000000000000 ) ) ;
#372 = VERTEX_POINT ( 'NONE', #47 ) ;
#373 = DIRECTION ( 'NONE',  ( 1.000000000000000000, 0.0000000000000000000, -3.491481338843133355E-15 ) ) ;
#374 = FACE_BOUND ( 'NONE', #3, .T. ) ;
#375 = CONICAL_SURFACE ( 'NONE', #231, 0.2999999999999999889, 0.8203047484373372500 ) ;
#376 = ADVANCED_FACE ( 'NONE', ( #108 ), #258, .T. ) ;
#377 = DIRECTION ( 'NONE',  ( 4.275831445896958607E-31, 1.000000000000000000, 1.224646799147352961E-16 ) ) ;
#378 = DIRECTION ( 'NONE',  ( -3.491481338843133355E-15, 1.224646799147353207E-16, -1.000000000000000000 ) ) ;
#379 = PERSON ( 'UNSPECIFIED', 'UNSPECIFIED', 'UNSPECIFIED', ('UNSPECIFIED'), ('UNSPECIFIED'), ('UNSPECIFIED') ) ;
#380 = COORDINATED_UNIVERSAL_TIME_OFFSET ( 1, 0, .AHEAD. ) ;
#381 = TOROIDAL_SURFACE ( 'NONE', #341, 1.180000000000000382, 1.000000000000000444 ) ;
#382 = CARTESIAN_POINT ( 'NONE',  ( 1.745740669421566678E-15, 0.0000000000000000000, 0.5000000000000000000 ) ) ;
#383 = CIRCLE ( 'NONE', #366, 1.499999999999996669 ) ;
#384 = EDGE_CURVE ( 'NONE', #282, #282, #309, .T. ) ;
#385 = DIRECTION ( 'NONE',  ( -3.491481338843133355E-15, 1.224646799147353207E-16, -1.000000000000000000 ) ) ;
#386 = FACE_OUTER_BOUND ( 'NONE', #61, .T. ) ;
#387 = CC_DESIGN_APPROVAL ( #5, ( #256 ) ) ;
#388 = AXIS2_PLACEMENT_3D ( 'NONE', #358, #89, #230 ) ;
#389 = CALENDAR_DATE ( 2021, 3, 12 ) ;
#390 = CARTESIAN_POINT ( 'NONE',  ( -0.1799999999999995492, 0.0000000000000000000, 0.1269018103365194827 ) ) ;
#391 = FACE_OUTER_BOUND ( 'NONE', #121, .T. ) ;
#392 = ORIENTED_EDGE ( 'NONE', *, *, #293, .T. ) ;
#393 = PLANE ( 'NONE',  #174 ) ;
#394 = ORIENTED_EDGE ( 'NONE', *, *, #55, .T. ) ;
#395 = CARTESIAN_POINT ( 'NONE',  ( 1.029129926514445142E-15, -3.609701866057403552E-17, 0.2947545258412971880 ) ) ;
#396 = EDGE_CURVE ( 'NONE', #133, #365, #4, .T. ) ;
#397 = PLANE ( 'NONE',  #82 ) ;
ENDSEC;
END-ISO-10303-21;
