ISO-10303-21;
HEADER;
FILE_DESCRIPTION (( 'STEP AP203' ),
    '1' );
FILE_NAME ('997980.step',
    '2021-12-03T13:00:57',
    ( '' ),
    ( '' ),
    'SwSTEP 2.0',
    'SolidWorks 2019',
    '' );
FILE_SCHEMA (( 'CONFIG_CONTROL_DESIGN' ));
ENDSEC;

DATA;
#1 = CARTESIAN_POINT ( 'NONE',  ( 5.237222008264715933E-17, 0.2999999999999999334, 0.01500000000000004628 ) ) ;
#2 = EDGE_LOOP ( 'NONE', ( #235 ) ) ;
#3 = ADVANCED_FACE ( 'NONE', ( #319, #353 ), #6, .T. ) ;
#4 = PERSON_AND_ORGANIZATION ( #77, #378 ) ;
#5 = DIRECTION ( 'NONE',  ( 0.0000000000000000000, -1.000000000000000000, 0.0000000000000000000 ) ) ;
#6 = CONICAL_SURFACE ( 'NONE', #160, 0.2140741737109299325, 0.2617993877991428020 ) ;
#7 = EDGE_LOOP ( 'NONE', ( #124 ) ) ;
#8 = PERSON_AND_ORGANIZATION ( #77, #378 ) ;
#9 = DIRECTION ( 'NONE',  ( -3.491481338843133355E-15, 1.224646799147353207E-16, -1.000000000000000000 ) ) ;
#10 = DATE_TIME_ROLE ( 'creation_date' ) ;
#11 = ADVANCED_FACE ( 'NONE', ( #257 ), #79, .T. ) ;
#12 = EDGE_LOOP ( 'NONE', ( #39 ) ) ;
#13 = AXIS2_PLACEMENT_3D ( 'NONE', #42, #129, #382 ) ;
#14 = CC_DESIGN_APPROVAL ( #159, ( #168 ) ) ;
#15 = CARTESIAN_POINT ( 'NONE',  ( 0.0000000000000000000, 0.0000000000000000000, 0.0000000000000000000 ) ) ;
#16 = DIRECTION ( 'NONE',  ( -3.491481338843133355E-15, 1.224646799147353207E-16, -1.000000000000000000 ) ) ;
#17 = FACE_OUTER_BOUND ( 'NONE', #93, .T. ) ;
#18 = EDGE_CURVE ( 'NONE', #346, #342, #174, .T. ) ;
#19 = DIRECTION ( 'NONE',  ( 4.275831445896958607E-31, 1.000000000000000000, 1.224646799147353207E-16 ) ) ;
#20 = PRODUCT ( '997980', '997980', '', ( #318 ) ) ;
#21 = DIRECTION ( 'NONE',  ( -3.491481338843133355E-15, 1.224646799147353207E-16, -1.000000000000000000 ) ) ;
#22 = DIRECTION ( 'NONE',  ( -3.491481338843133355E-15, 1.224646799147353207E-16, -1.000000000000000000 ) ) ;
#23 = ADVANCED_BREP_SHAPE_REPRESENTATION ( '997980', ( #80, #225, #96 ), #161 ) ;
#24 = CALENDAR_DATE ( 2021, 3, 12 ) ;
#25 = CARTESIAN_POINT ( 'NONE',  ( 1.595606971851311880E-13, -5.596635872103403844E-15, 45.69999999999999574 ) ) ;
#26 = CARTESIAN_POINT ( 'NONE',  ( -0.1799999999999995492, 0.0000000000000000000, 0.1269018103365194827 ) ) ;
#27 = DIRECTION ( 'NONE',  ( 1.000000000000000000, 0.0000000000000000000, -3.491481338843133355E-15 ) ) ;
#28 = EDGE_LOOP ( 'NONE', ( #58, #61, #70, #244 ) ) ;
#29 = PRODUCT_RELATED_PRODUCT_CATEGORY ( 'detail', '', ( #20 ) ) ;
#30 = DESIGN_CONTEXT ( 'detailed design', #357, 'design' ) ;
#31 = DIRECTION ( 'NONE',  ( -3.491481338843133355E-15, 1.224646799147353207E-16, -1.000000000000000000 ) ) ;
#32 = CIRCLE ( 'NONE', #260, 0.2999999999999999889 ) ;
#33 = ORIENTED_EDGE ( 'NONE', *, *, #18, .F. ) ;
#34 = EDGE_CURVE ( 'NONE', #181, #181, #323, .T. ) ;
#35 = ORIENTED_EDGE ( 'NONE', *, *, #363, .F. ) ;
#36 = DIRECTION ( 'NONE',  ( 0.0000000000000000000, 0.0000000000000000000, 1.000000000000000000 ) ) ;
#37 = FACE_OUTER_BOUND ( 'NONE', #119, .T. ) ;
#38 = DATE_AND_TIME ( #191, #188 ) ;
#39 = ORIENTED_EDGE ( 'NONE', *, *, #300, .F. ) ;
#40 = AXIS2_PLACEMENT_3D ( 'NONE', #81, #206, #19 ) ;
#41 = DATE_AND_TIME ( #290, #110 ) ;
#42 = CARTESIAN_POINT ( 'NONE',  ( 4.430753026553663043E-16, 0.1799999999999999933, 0.1269018103365188721 ) ) ;
#43 = ADVANCED_FACE ( 'NONE', ( #37 ), #354, .T. ) ;
#44 = ORIENTED_EDGE ( 'NONE', *, *, #265, .T. ) ;
#45 = APPROVAL_ROLE ( '' ) ;
#46 = PLANE ( 'NONE',  #135 ) ;
#47 = AXIS2_PLACEMENT_3D ( 'NONE', #302, #389, #297 ) ;
#48 = DIRECTION ( 'NONE',  ( -3.491481338843133355E-15, 0.0000000000000000000, -1.000000000000000000 ) ) ;
#49 = ADVANCED_FACE ( 'NONE', ( #200 ), #205, .T. ) ;
#50 = LINE ( 'NONE', #108, #146 ) ;
#51 = DIRECTION ( 'NONE',  ( -2.381184547279827482E-15, 0.7313537016191721252, -0.6819983600624967002 ) ) ;
#52 = VECTOR ( 'NONE', #335, 1000.000000000000000 ) ;
#53 = DIRECTION ( 'NONE',  ( -3.491481338843133355E-15, 1.224646799147353207E-16, -1.000000000000000000 ) ) ;
#54 = CARTESIAN_POINT ( 'NONE',  ( -1.892735826383161356E-31, -0.1799999999999999933, -5.421010862427522170E-17 ) ) ;
#55 = CARTESIAN_POINT ( 'NONE',  ( 4.430753026553662057E-16, -0.1800000000000000211, 0.1269018103365188443 ) ) ;
#56 = AXIS2_PLACEMENT_3D ( 'NONE', #328, #53, #176 ) ;
#57 = DIRECTION ( 'NONE',  ( -3.491481338843133355E-15, 1.224646799147353207E-16, -1.000000000000000000 ) ) ;
#58 = ORIENTED_EDGE ( 'NONE', *, *, #359, .T. ) ;
#59 = ADVANCED_FACE ( 'NONE', ( #380 ), #46, .T. ) ;
#60 = LINE ( 'NONE', #367, #283 ) ;
#61 = ORIENTED_EDGE ( 'NONE', *, *, #345, .F. ) ;
#62 = DIRECTION ( 'NONE',  ( -1.000000000000000000, 0.0000000000000000000, 3.491481338843133355E-15 ) ) ;
#63 = ORIENTED_EDGE ( 'NONE', *, *, #153, .F. ) ;
#64 = VERTEX_POINT ( 'NONE', #152 ) ;
#65 = CIRCLE ( 'NONE', #230, 0.1799999999999999933 ) ;
#66 = PERSON_AND_ORGANIZATION ( #77, #378 ) ;
#67 = VERTEX_POINT ( 'NONE', #105 ) ;
#68 = DIRECTION ( 'NONE',  ( 5.349805401075654369E-31, 1.000000000000000000, 1.505836350674311495E-16 ) ) ;
#69 = COORDINATED_UNIVERSAL_TIME_OFFSET ( 1, 0, .AHEAD. ) ;
#70 = ORIENTED_EDGE ( 'NONE', *, *, #106, .F. ) ;
#71 = CC_DESIGN_APPROVAL ( #126, ( #220 ) ) ;
#72 = CC_DESIGN_PERSON_AND_ORGANIZATION_ASSIGNMENT ( #226, #166, ( #20 ) ) ;
#73 = CALENDAR_DATE ( 2021, 3, 12 ) ;
#74 = DIRECTION ( 'NONE',  ( -3.491481338843133355E-15, 0.0000000000000000000, -1.000000000000000000 ) ) ;
#75 = APPROVAL_STATUS ( 'not_yet_approved' ) ;
#76 = ORIENTED_EDGE ( 'NONE', *, *, #236, .T. ) ;
#77 = PERSON ( 'UNSPECIFIED', 'UNSPECIFIED', 'UNSPECIFIED', ('UNSPECIFIED'), ('UNSPECIFIED'), ('UNSPECIFIED') ) ;
#78 = PRODUCT_DEFINITION ( 'UNKNOWN', '', #168, #30 ) ;
#79 = CYLINDRICAL_SURFACE ( 'NONE', #248, 0.1799999999999999933 ) ;
#80 = MANIFOLD_SOLID_BREP ( 'Corps-Déplacer/Copier1[1]', #254 ) ;
#81 = CARTESIAN_POINT ( 'NONE',  ( 7.482705030319676248E-32, 0.2999999999999999889, 2.143131898507867681E-17 ) ) ;
#82 = DIRECTION ( 'NONE',  ( 0.0000000000000000000, 1.000000000000000000, 0.0000000000000000000 ) ) ;
#83 = LINE ( 'NONE', #270, #275 ) ;
#84 = AXIS2_PLACEMENT_3D ( 'NONE', #123, #27, #245 ) ;
#85 = DIRECTION ( 'NONE',  ( 5.349805401075654369E-31, 1.000000000000000000, 1.505836350674311495E-16 ) ) ;
#86 = DIRECTION ( 'NONE',  ( 5.349805401075654369E-31, 1.000000000000000000, 1.505836350674311495E-16 ) ) ;
#87 =( LENGTH_UNIT ( ) NAMED_UNIT ( * ) SI_UNIT ( .MILLI., .METRE. ) );
#88 = CC_DESIGN_PERSON_AND_ORGANIZATION_ASSIGNMENT ( #4, #194, ( #220 ) ) ;
#89 = ORIENTED_EDGE ( 'NONE', *, *, #34, .F. ) ;
#90 = VERTEX_POINT ( 'NONE', #311 ) ;
#91 = EDGE_LOOP ( 'NONE', ( #291, #369, #385, #280 ) ) ;
#92 = CARTESIAN_POINT ( 'NONE',  ( 2.094888803305880802E-15, 0.1800000000000000488, 0.6000000000000003109 ) ) ;
#93 = EDGE_LOOP ( 'NONE', ( #250, #217, #231, #35 ) ) ;
#94 = FACE_OUTER_BOUND ( 'NONE', #251, .T. ) ;
#95 = VECTOR ( 'NONE', #48, 1000.000000000000000 ) ;
#96 = AXIS2_PLACEMENT_3D ( 'NONE', #15, #36, #347 ) ;
#97 = ORIENTED_EDGE ( 'NONE', *, *, #192, .F. ) ;
#98 = COORDINATED_UNIVERSAL_TIME_OFFSET ( 1, 0, .AHEAD. ) ;
#99 = CARTESIAN_POINT ( 'NONE',  ( 0.0000000000000000000, 0.0000000000000000000, 0.0000000000000000000 ) ) ;
#100 = ADVANCED_FACE ( 'NONE', ( #227 ), #195, .T. ) ;
#101 = EDGE_LOOP ( 'NONE', ( #285, #253, #312, #190 ) ) ;
#102 = PERSON_AND_ORGANIZATION_ROLE ( 'design_supplier' ) ;
#103 = DIRECTION ( 'NONE',  ( 3.491481338843133355E-15, -1.224646799147353207E-16, 1.000000000000000000 ) ) ;
#104 = AXIS2_PLACEMENT_3D ( 'NONE', #303, #57, #211 ) ;
#105 = CARTESIAN_POINT ( 'NONE',  ( -0.1799999999999999933, 0.2399999999999999911, 6.284666409917639645E-16 ) ) ;
#106 = EDGE_CURVE ( 'NONE', #67, #218, #229, .T. ) ;
#107 = ORIENTED_EDGE ( 'NONE', *, *, #273, .T. ) ;
#108 = CARTESIAN_POINT ( 'NONE',  ( 4.430753026553662057E-16, 0.2999999999999999889, 0.1269018103365188443 ) ) ;
#109 = CONICAL_SURFACE ( 'NONE', #115, 1.500000000000004441, 0.7853981633974453924 ) ;
#110 = LOCAL_TIME ( 14, 0, 57.00000000000000000, #197 ) ;
#111 = DIRECTION ( 'NONE',  ( -3.491481338843133355E-15, 1.224646799147353207E-16, -1.000000000000000000 ) ) ;
#112 = CARTESIAN_POINT ( 'NONE',  ( -0.1799999999999999933, 0.0000000000000000000, 6.284666409917639645E-16 ) ) ;
#113 = ADVANCED_FACE ( 'NONE', ( #262 ), #384, .T. ) ;
#114 = CARTESIAN_POINT ( 'NONE',  ( 4.430753026553661071E-16, 0.1799999999999999933, 0.1269018103365188166 ) ) ;
#115 = AXIS2_PLACEMENT_3D ( 'NONE', #274, #21, #82 ) ;
#116 = FACE_OUTER_BOUND ( 'NONE', #2, .T. ) ;
#117 = EDGE_CURVE ( 'NONE', #278, #67, #238, .T. ) ;
#118 = VERTEX_POINT ( 'NONE', #243 ) ;
#119 = EDGE_LOOP ( 'NONE', ( #33, #321, #63 ) ) ;
#120 = CARTESIAN_POINT ( 'NONE',  ( -0.1799999999999995492, 0.04463795592124922967, 0.1269018103365739669 ) ) ;
#121 = ORIENTED_EDGE ( 'NONE', *, *, #345, .T. ) ;
#122 = CIRCLE ( 'NONE', #349, 1.499999999999996669 ) ;
#123 = CARTESIAN_POINT ( 'NONE',  ( -0.1799999999999982447, 0.0000000000000000000, 0.5000000000000006661 ) ) ;
#124 = ORIENTED_EDGE ( 'NONE', *, *, #221, .T. ) ;
#125 = CARTESIAN_POINT ( 'NONE',  ( 1.606081415867841091E-13, 1.199999999999998845, 46.00000000000000000 ) ) ;
#126 = APPROVAL ( #75, 'UNSPECIFIED' ) ;
#127 = ORIENTED_EDGE ( 'NONE', *, *, #207, .T. ) ;
#128 = CIRCLE ( 'NONE', #212, 1.500000000000004441 ) ;
#129 = DIRECTION ( 'NONE',  ( 3.491481338843133355E-15, -1.224646799147353207E-16, 1.000000000000000000 ) ) ;
#130 = CARTESIAN_POINT ( 'NONE',  ( 2.998550669418508598E-15, -1.051749994631580690E-16, 0.8588190451025143890 ) ) ;
#131 = PERSON_AND_ORGANIZATION_ROLE ( 'creator' ) ;
#132 = DIRECTION ( 'NONE',  ( 4.275831445896958607E-31, 1.000000000000000000, 1.224646799147352961E-16 ) ) ;
#133 = CALENDAR_DATE ( 2021, 3, 12 ) ;
#134 = DIRECTION ( 'NONE',  ( -3.491481338843133355E-15, 1.224646799147353207E-16, -1.000000000000000000 ) ) ;
#135 = AXIS2_PLACEMENT_3D ( 'NONE', #99, #351, #74 ) ;
#136 = APPLICATION_PROTOCOL_DEFINITION ( 'international standard', 'config_control_design', 1994, #357 ) ;
#137 = DIRECTION ( 'NONE',  ( 4.275831445896958607E-31, 1.000000000000000000, 1.224646799147353207E-16 ) ) ;
#138 = FACE_OUTER_BOUND ( 'NONE', #336, .T. ) ;
#139 = DIRECTION ( 'NONE',  ( -3.491481338843133355E-15, 1.224646799147353207E-16, -1.000000000000000000 ) ) ;
#140 = CLOSED_SHELL ( 'NONE', ( #113, #316, #145, #3, #295, #141, #49 ) ) ;
#141 = ADVANCED_FACE ( 'NONE', ( #267, #177 ), #109, .T. ) ;
#142 = CARTESIAN_POINT ( 'NONE',  ( 2.998550669418508598E-15, -1.051749994631580690E-16, 0.8588190451025143890 ) ) ;
#143 = DIRECTION ( 'NONE',  ( 0.0000000000000000000, 1.000000000000000000, 0.0000000000000000000 ) ) ;
#144 = DIRECTION ( 'NONE',  ( -5.914799457447378993E-31, -1.000000000000000000, -1.694065894508600678E-16 ) ) ;
#145 = ADVANCED_FACE ( 'NONE', ( #116, #272 ), #151, .F. ) ;
#146 = VECTOR ( 'NONE', #144, 1000.000000000000000 ) ;
#147 = CARTESIAN_POINT ( 'NONE',  ( 5.237222008264713468E-17, -1.836970198721034217E-18, 0.01500000000000003761 ) ) ;
#148 = EDGE_LOOP ( 'NONE', ( #334 ) ) ;
#149 = CARTESIAN_POINT ( 'NONE',  ( -0.1799999999999995492, 0.0000000000000000000, 0.1269018103365194827 ) ) ;
#150 = ORIENTED_EDGE ( 'NONE', *, *, #279, .F. ) ;
#151 = TOROIDAL_SURFACE ( 'NONE', #196, 1.180000000000000160, 1.000000000000000000 ) ;
#152 = CARTESIAN_POINT ( 'NONE',  ( 4.430753026553664029E-16, 0.1799999999999999933, 0.1269018103365188999 ) ) ;
#153 = EDGE_CURVE ( 'NONE', #342, #284, #219, .T. ) ;
#154 = EDGE_LOOP ( 'NONE', ( #372 ) ) ;
#155 = LINE ( 'NONE', #308, #383 ) ;
#156 = ORIENTED_EDGE ( 'NONE', *, *, #265, .F. ) ;
#157 = SECURITY_CLASSIFICATION_LEVEL ( 'unclassified' ) ;
#158 = CARTESIAN_POINT ( 'NONE',  ( 1.606081415867841091E-13, -5.633375276077824704E-15, 46.00000000000000000 ) ) ;
#159 = APPROVAL ( #233, 'UNSPECIFIED' ) ;
#160 = AXIS2_PLACEMENT_3D ( 'NONE', #130, #228, #5 ) ;
#161 =( GEOMETRIC_REPRESENTATION_CONTEXT ( 3 ) GLOBAL_UNCERTAINTY_ASSIGNED_CONTEXT ( ( #183 ) ) GLOBAL_UNIT_ASSIGNED_CONTEXT ( ( #87, #306, #374 ) ) REPRESENTATION_CONTEXT ( 'NONE', 'WORKASPACE' ) );
#162 = EDGE_LOOP ( 'NONE', ( #287 ) ) ;
#163 = APPROVAL_STATUS ( 'not_yet_approved' ) ;
#164 = DIRECTION ( 'NONE',  ( -4.275831445896958607E-31, -1.000000000000000000, -1.224646799147353207E-16 ) ) ;
#165 = CARTESIAN_POINT ( 'NONE',  ( -1.068957861474239433E-31, 3.749399456654644020E-33, -3.061616997868383018E-17 ) ) ;
#166 = PERSON_AND_ORGANIZATION_ROLE ( 'design_owner' ) ;
#167 = CARTESIAN_POINT ( 'NONE',  ( 4.430753026553663043E-16, -1.554098958346223458E-17, 0.1269018103365188721 ) ) ;
#168 = PRODUCT_DEFINITION_FORMATION_WITH_SPECIFIED_SOURCE ( 'ANY', '', #20, .NOT_KNOWN. ) ;
#169 = FACE_OUTER_BOUND ( 'NONE', #7, .T. ) ;
#170 = CARTESIAN_POINT ( 'NONE',  ( 2.094888803305879619E-15, 0.0000000000000000000, 0.5999999999999999778 ) ) ;
#171 = ADVANCED_FACE ( 'NONE', ( #239 ), #390, .T. ) ;
#172 = SHAPE_DEFINITION_REPRESENTATION ( #331, #23 ) ;
#173 = CARTESIAN_POINT ( 'NONE',  ( -0.1799999999999999933, 0.2399999999999999911, 6.578581641713004750E-16 ) ) ;
#174 = CIRCLE ( 'NONE', #341, 0.1800000000000000211 ) ;
#175 = LOCAL_TIME ( 14, 0, 57.00000000000000000, #350 ) ;
#176 = DIRECTION ( 'NONE',  ( 4.275831445896958607E-31, 1.000000000000000000, 1.224646799147353207E-16 ) ) ;
#177 = FACE_OUTER_BOUND ( 'NONE', #148, .T. ) ;
#178 = VERTEX_POINT ( 'NONE', #125 ) ;
#179 = VECTOR ( 'NONE', #51, 1000.000000000000000 ) ;
#180 = APPROVAL_PERSON_ORGANIZATION ( #66, #388, #344 ) ;
#181 = VERTEX_POINT ( 'NONE', #92 ) ;
#182 = ORIENTED_EDGE ( 'NONE', *, *, #236, .F. ) ;
#183 = UNCERTAINTY_MEASURE_WITH_UNIT (LENGTH_MEASURE( 1.000000000000000082E-05 ), #87, 'distance_accuracy_value', 'NONE');
#184 = DIRECTION ( 'NONE',  ( 3.491481338843133355E-15, -0.0000000000000000000, 1.000000000000000000 ) ) ;
#185 = CARTESIAN_POINT ( 'NONE',  ( -0.1799999999999996325, 0.08866652533650906665, 0.1100647976125443267 ) ) ;
#186 = ORIENTED_EDGE ( 'NONE', *, *, #18, .T. ) ;
#187 = AXIS2_PLACEMENT_3D ( 'NONE', #256, #198, #264 ) ;
#188 = LOCAL_TIME ( 14, 0, 57.00000000000000000, #352 ) ;
#189 = DIRECTION ( 'NONE',  ( 0.0000000000000000000, -1.000000000000000000, 0.0000000000000000000 ) ) ;
#190 = ORIENTED_EDGE ( 'NONE', *, *, #397, .F. ) ;
#191 = CALENDAR_DATE ( 2021, 3, 12 ) ;
#192 = EDGE_CURVE ( 'NONE', #90, #90, #317, .T. ) ;
#193 = EDGE_LOOP ( 'NONE', ( #156, #186, #282, #259 ) ) ;
#194 = PERSON_AND_ORGANIZATION_ROLE ( 'classification_officer' ) ;
#195 = CYLINDRICAL_SURFACE ( 'NONE', #292, 0.2999999999999999889 ) ;
#196 = AXIS2_PLACEMENT_3D ( 'NONE', #170, #356, #299 ) ;
#197 = COORDINATED_UNIVERSAL_TIME_OFFSET ( 1, 0, .AHEAD. ) ;
#198 = DIRECTION ( 'NONE',  ( -3.491481338843133355E-15, 1.224646799147353207E-16, -1.000000000000000000 ) ) ;
#199 = DATE_AND_TIME ( #73, #175 ) ;
#200 = FACE_OUTER_BOUND ( 'NONE', #12, .T. ) ;
#201 = CC_DESIGN_DATE_AND_TIME_ASSIGNMENT ( #199, #255, ( #220 ) ) ;
#202 = APPROVAL_ROLE ( '' ) ;
#203 = DIRECTION ( 'NONE',  ( -3.491481338843133355E-15, 0.0000000000000000000, -1.000000000000000000 ) ) ;
#204 = CONICAL_SURFACE ( 'NONE', #47, 0.2999999999999999889, 0.8203047484373372500 ) ;
#205 = PLANE ( 'NONE',  #304 ) ;
#206 = DIRECTION ( 'NONE',  ( -3.491481338843133355E-15, 1.224646799147353207E-16, -1.000000000000000000 ) ) ;
#207 = EDGE_CURVE ( 'NONE', #284, #346, #50, .T. ) ;
#208 = CARTESIAN_POINT ( 'NONE',  ( -0.1799999999999999378, 0.2399999999999999911, 0.01500000000000070374 ) ) ;
#209 = CYLINDRICAL_SURFACE ( 'NONE', #56, 1.500000000000000444 ) ;
#210 = CARTESIAN_POINT ( 'NONE',  ( 4.430753026553663043E-16, -1.554098958346223458E-17, 0.1269018103365188721 ) ) ;
#211 = DIRECTION ( 'NONE',  ( 4.275831445896957731E-31, 1.000000000000000000, 1.224646799147353207E-16 ) ) ;
#212 = AXIS2_PLACEMENT_3D ( 'NONE', #25, #242, #271 ) ;
#213 = LOCAL_TIME ( 14, 0, 57.00000000000000000, #98 ) ;
#214 = CARTESIAN_POINT ( 'NONE',  ( -0.1799999999999998823, 0.2042160697239385481, 0.04169524385974529568 ) ) ;
#215 = ADVANCED_FACE ( 'NONE', ( #17 ), #204, .T. ) ;
#216 = VERTEX_POINT ( 'NONE', #309 ) ;
#217 = ORIENTED_EDGE ( 'NONE', *, *, #279, .T. ) ;
#218 = VERTEX_POINT ( 'NONE', #392 ) ;
#219 = CIRCLE ( 'NONE', #237, 0.1800000000000000211 ) ;
#220 = SECURITY_CLASSIFICATION ( '', '', #157 ) ;
#221 = EDGE_CURVE ( 'NONE', #216, #216, #128, .T. ) ;
#222 = PERSON_AND_ORGANIZATION_ROLE ( 'creator' ) ;
#223 = VERTEX_POINT ( 'NONE', #112 ) ;
#224 = B_SPLINE_CURVE_WITH_KNOTS ( 'NONE', 3,
 ( #26, #120, #185, #365, #214, #281 ),
 .UNSPECIFIED., .F., .F.,
 ( 4, 2, 4 ),
 ( 0.0003714672167428130414, 0.0005053570392405079851, 0.0006392468617382029289 ),
 .UNSPECIFIED. ) ;
#225 = MANIFOLD_SOLID_BREP ( 'Corps-Déplacer/Copier1[2]', #140 ) ;
#226 = PERSON_AND_ORGANIZATION ( #77, #378 ) ;
#227 = FACE_OUTER_BOUND ( 'NONE', #28, .T. ) ;
#228 = DIRECTION ( 'NONE',  ( 3.491481338843133355E-15, -1.224646799147353207E-16, 1.000000000000000000 ) ) ;
#229 = CIRCLE ( 'NONE', #286, 0.2999999999999999889 ) ;
#230 = AXIS2_PLACEMENT_3D ( 'NONE', #277, #332, #62 ) ;
#231 = ORIENTED_EDGE ( 'NONE', *, *, #359, .F. ) ;
#232 = CC_DESIGN_DATE_AND_TIME_ASSIGNMENT ( #41, #10, ( #78 ) ) ;
#233 = APPROVAL_STATUS ( 'not_yet_approved' ) ;
#234 = CARTESIAN_POINT ( 'NONE',  ( 4.430753026553663043E-16, 0.1799999999999999933, 0.1269018103365188721 ) ) ;
#235 = ORIENTED_EDGE ( 'NONE', *, *, #192, .T. ) ;
#236 = EDGE_CURVE ( 'NONE', #64, #64, #355, .T. ) ;
#237 = AXIS2_PLACEMENT_3D ( 'NONE', #296, #386, #85 ) ;
#238 = LINE ( 'NONE', #173, #391 ) ;
#239 = FACE_OUTER_BOUND ( 'NONE', #91, .T. ) ;
#240 = LINE ( 'NONE', #360, #95 ) ;
#241 = CARTESIAN_POINT ( 'NONE',  ( 1.975466023216312264E-14, -6.929002069241477506E-16, 5.657959563578428330 ) ) ;
#242 = DIRECTION ( 'NONE',  ( -3.491481338843133355E-15, 1.224646799147353207E-16, -1.000000000000000000 ) ) ;
#243 = CARTESIAN_POINT ( 'NONE',  ( 1.975466023216312264E-14, 1.499999999999996003, 5.657959563578428330 ) ) ;
#244 = ORIENTED_EDGE ( 'NONE', *, *, #117, .F. ) ;
#245 = DIRECTION ( 'NONE',  ( -3.491481338843133355E-15, 0.0000000000000000000, -1.000000000000000000 ) ) ;
#246 = CC_DESIGN_PERSON_AND_ORGANIZATION_ASSIGNMENT ( #313, #222, ( #78 ) ) ;
#247 = ORIENTED_EDGE ( 'NONE', *, *, #305, .F. ) ;
#248 = AXIS2_PLACEMENT_3D ( 'NONE', #348, #203, #381 ) ;
#249 = LINE ( 'NONE', #393, #52 ) ;
#250 = ORIENTED_EDGE ( 'NONE', *, *, #153, .T. ) ;
#251 = EDGE_LOOP ( 'NONE', ( #182 ) ) ;
#252 = APPLICATION_PROTOCOL_DEFINITION ( 'international standard', 'config_control_design', 1994, #343 ) ;
#253 = ORIENTED_EDGE ( 'NONE', *, *, #117, .T. ) ;
#254 = CLOSED_SHELL ( 'NONE', ( #100, #215, #171, #43, #11, #373, #59 ) ) ;
#255 = DATE_TIME_ROLE ( 'classification_date' ) ;
#256 = CARTESIAN_POINT ( 'NONE',  ( 2.094888803305880802E-15, -7.347880794884121462E-17, 0.6000000000000003109 ) ) ;
#257 = FACE_OUTER_BOUND ( 'NONE', #193, .T. ) ;
#258 = PERSON_AND_ORGANIZATION ( #77, #378 ) ;
#259 = ORIENTED_EDGE ( 'NONE', *, *, #379, .T. ) ;
#260 = AXIS2_PLACEMENT_3D ( 'NONE', #147, #31, #395 ) ;
#261 = PERSON_AND_ORGANIZATION ( #77, #378 ) ;
#262 = FACE_OUTER_BOUND ( 'NONE', #307, .T. ) ;
#263 = DATE_AND_TIME ( #133, #362 ) ;
#264 = DIRECTION ( 'NONE',  ( 0.0000000000000000000, 1.000000000000000000, 0.0000000000000000000 ) ) ;
#265 = EDGE_CURVE ( 'NONE', #346, #310, #240, .T. ) ;
#266 = DATE_AND_TIME ( #24, #213 ) ;
#267 = FACE_BOUND ( 'NONE', #154, .T. ) ;
#268 = APPROVAL_DATE_TIME ( #266, #126 ) ;
#269 = AXIS2_PLACEMENT_3D ( 'NONE', #210, #139, #86 ) ;
#270 = CARTESIAN_POINT ( 'NONE',  ( 2.365919782978951696E-32, 0.2999999999999999889, 6.776263578034402713E-18 ) ) ;
#271 = DIRECTION ( 'NONE',  ( 0.0000000000000000000, 1.000000000000000000, 0.0000000000000000000 ) ) ;
#272 = FACE_OUTER_BOUND ( 'NONE', #394, .T. ) ;
#273 = EDGE_CURVE ( 'NONE', #310, #218, #83, .T. ) ;
#274 = CARTESIAN_POINT ( 'NONE',  ( 1.595606971851311880E-13, -5.596635872103403844E-15, 45.69999999999999574 ) ) ;
#275 = VECTOR ( 'NONE', #358, 1000.000000000000000 ) ;
#276 = APPROVAL_PERSON_ORGANIZATION ( #320, #126, #202 ) ;
#277 = CARTESIAN_POINT ( 'NONE',  ( 0.0000000000000000000, 0.0000000000000000000, 0.0000000000000000000 ) ) ;
#278 = VERTEX_POINT ( 'NONE', #208 ) ;
#279 = EDGE_CURVE ( 'NONE', #284, #375, #326, .T. ) ;
#280 = ORIENTED_EDGE ( 'NONE', *, *, #330, .F. ) ;
#281 = CARTESIAN_POINT ( 'NONE',  ( -0.1799999999999999378, 0.2399999999999999911, 0.01500000000000070374 ) ) ;
#282 = ORIENTED_EDGE ( 'NONE', *, *, #397, .T. ) ;
#283 = VECTOR ( 'NONE', #189, 1000.000000000000000 ) ;
#284 = VERTEX_POINT ( 'NONE', #114 ) ;
#285 = ORIENTED_EDGE ( 'NONE', *, *, #363, .T. ) ;
#286 = AXIS2_PLACEMENT_3D ( 'NONE', #165, #134, #294 ) ;
#287 = ORIENTED_EDGE ( 'NONE', *, *, #34, .T. ) ;
#288 = APPROVAL_DATE_TIME ( #38, #159 ) ;
#289 = EDGE_LOOP ( 'NONE', ( #97 ) ) ;
#290 = CALENDAR_DATE ( 2021, 3, 12 ) ;
#291 = ORIENTED_EDGE ( 'NONE', *, *, #106, .T. ) ;
#292 = AXIS2_PLACEMENT_3D ( 'NONE', #315, #9, #132 ) ;
#293 = CC_DESIGN_SECURITY_CLASSIFICATION ( #220, ( #168 ) ) ;
#294 = DIRECTION ( 'NONE',  ( 4.275831445896958607E-31, 1.000000000000000000, 1.224646799147352961E-16 ) ) ;
#295 = ADVANCED_FACE ( 'NONE', ( #169, #138 ), #209, .T. ) ;
#296 = CARTESIAN_POINT ( 'NONE',  ( 4.430753026553663043E-16, -1.554098958346223458E-17, 0.1269018103365188721 ) ) ;
#297 = DIRECTION ( 'NONE',  ( 4.212971753347078429E-31, 1.000000000000000000, 1.242314989306307328E-16 ) ) ;
#298 = AXIS2_PLACEMENT_3D ( 'NONE', #301, #22, #143 ) ;
#299 = DIRECTION ( 'NONE',  ( 4.336738084436544598E-31, 1.000000000000000000, 1.224646799147353207E-16 ) ) ;
#300 = EDGE_CURVE ( 'NONE', #178, #178, #333, .T. ) ;
#301 = CARTESIAN_POINT ( 'NONE',  ( 1.606081415867841091E-13, -5.633375276077824704E-15, 46.00000000000000000 ) ) ;
#302 = CARTESIAN_POINT ( 'NONE',  ( 5.237222008264713468E-17, -1.836970198721034217E-18, 0.01500000000000003761 ) ) ;
#303 = CARTESIAN_POINT ( 'NONE',  ( 0.0000000000000000000, 0.0000000000000000000, 0.0000000000000000000 ) ) ;
#304 = AXIS2_PLACEMENT_3D ( 'NONE', #158, #103, #164 ) ;
#305 = EDGE_CURVE ( 'NONE', #118, #118, #122, .T. ) ;
#306 =( NAMED_UNIT ( * ) PLANE_ANGLE_UNIT ( ) SI_UNIT ( $, .RADIAN. ) );
#307 = EDGE_LOOP ( 'NONE', ( #76 ) ) ;
#308 = CARTESIAN_POINT ( 'NONE',  ( 4.430753026553662057E-16, 0.2999999999999999889, 0.1269018103365188443 ) ) ;
#309 = CARTESIAN_POINT ( 'NONE',  ( 1.595606971851311880E-13, 1.499999999999998668, 45.69999999999999574 ) ) ;
#310 = VERTEX_POINT ( 'NONE', #54 ) ;
#311 = CARTESIAN_POINT ( 'NONE',  ( 2.998550669418508598E-15, 0.2140741737109298215, 0.8588190451025143890 ) ) ;
#312 = ORIENTED_EDGE ( 'NONE', *, *, #330, .T. ) ;
#313 = PERSON_AND_ORGANIZATION ( #77, #378 ) ;
#314 = APPROVAL_DATE_TIME ( #263, #388 ) ;
#315 = CARTESIAN_POINT ( 'NONE',  ( 0.0000000000000000000, 0.0000000000000000000, 0.0000000000000000000 ) ) ;
#316 = ADVANCED_FACE ( 'NONE', ( #338, #94 ), #376, .T. ) ;
#317 = CIRCLE ( 'NONE', #340, 0.2140741737109299325 ) ;
#318 = MECHANICAL_CONTEXT ( 'NONE', #343, 'mechanical' ) ;
#319 = FACE_OUTER_BOUND ( 'NONE', #377, .T. ) ;
#320 = PERSON_AND_ORGANIZATION ( #77, #378 ) ;
#321 = ORIENTED_EDGE ( 'NONE', *, *, #207, .F. ) ;
#322 = DIRECTION ( 'NONE',  ( -3.491481338843133355E-15, 1.224646799147353207E-16, -1.000000000000000000 ) ) ;
#323 = CIRCLE ( 'NONE', #187, 0.1800000000000001321 ) ;
#324 = DIRECTION ( 'NONE',  ( -3.491481338843133355E-15, 1.224646799147353207E-16, -1.000000000000000000 ) ) ;
#325 = DIRECTION ( 'NONE',  ( 0.0000000000000000000, 1.000000000000000000, 0.0000000000000000000 ) ) ;
#326 = LINE ( 'NONE', #364, #179 ) ;
#327 = CC_DESIGN_PERSON_AND_ORGANIZATION_ASSIGNMENT ( #258, #102, ( #168 ) ) ;
#328 = CARTESIAN_POINT ( 'NONE',  ( 0.0000000000000000000, 0.0000000000000000000, 0.0000000000000000000 ) ) ;
#329 = DIRECTION ( 'NONE',  ( 0.0000000000000000000, 1.000000000000000000, 0.0000000000000000000 ) ) ;
#330 = EDGE_CURVE ( 'NONE', #67, #223, #60, .T. ) ;
#331 = PRODUCT_DEFINITION_SHAPE ( 'NONE', 'NONE',  #78 ) ;
#332 = DIRECTION ( 'NONE',  ( 3.491481338843133355E-15, -0.0000000000000000000, 1.000000000000000000 ) ) ;
#333 = CIRCLE ( 'NONE', #298, 1.200000000000004396 ) ;
#334 = ORIENTED_EDGE ( 'NONE', *, *, #221, .F. ) ;
#335 = DIRECTION ( 'NONE',  ( -3.491481338843133355E-15, 0.0000000000000000000, -1.000000000000000000 ) ) ;
#336 = EDGE_LOOP ( 'NONE', ( #247 ) ) ;
#337 = CC_DESIGN_PERSON_AND_ORGANIZATION_ASSIGNMENT ( #8, #131, ( #168 ) ) ;
#338 = FACE_OUTER_BOUND ( 'NONE', #162, .T. ) ;
#339 = ORIENTED_EDGE ( 'NONE', *, *, #305, .T. ) ;
#340 = AXIS2_PLACEMENT_3D ( 'NONE', #142, #111, #325 ) ;
#341 = AXIS2_PLACEMENT_3D ( 'NONE', #167, #322, #68 ) ;
#342 = VERTEX_POINT ( 'NONE', #149 ) ;
#343 = APPLICATION_CONTEXT ( 'configuration controlled 3d designs of mechanical parts and assemblies' ) ;
#344 = APPROVAL_ROLE ( '' ) ;
#345 = EDGE_CURVE ( 'NONE', #218, #375, #155, .T. ) ;
#346 = VERTEX_POINT ( 'NONE', #55 ) ;
#347 = DIRECTION ( 'NONE',  ( 1.000000000000000000, 0.0000000000000000000, 0.0000000000000000000 ) ) ;
#348 = CARTESIAN_POINT ( 'NONE',  ( 1.745740669421566678E-15, 0.0000000000000000000, 0.5000000000000000000 ) ) ;
#349 = AXIS2_PLACEMENT_3D ( 'NONE', #241, #361, #329 ) ;
#350 = COORDINATED_UNIVERSAL_TIME_OFFSET ( 1, 0, .AHEAD. ) ;
#351 = DIRECTION ( 'NONE',  ( 1.000000000000000000, 0.0000000000000000000, -3.491481338843133355E-15 ) ) ;
#352 = COORDINATED_UNIVERSAL_TIME_OFFSET ( 1, 0, .AHEAD. ) ;
#353 = FACE_BOUND ( 'NONE', #289, .T. ) ;
#354 = PLANE ( 'NONE',  #13 ) ;
#355 = CIRCLE ( 'NONE', #269, 0.1800000000000000211 ) ;
#356 = DIRECTION ( 'NONE',  ( -3.491481338843133355E-15, 1.224646799147353207E-16, -1.000000000000000000 ) ) ;
#357 = APPLICATION_CONTEXT ( 'configuration controlled 3d designs of mechanical parts and assemblies' ) ;
#358 = DIRECTION ( 'NONE',  ( 4.436099593085534244E-31, 1.000000000000000000, 1.270549420881450509E-16 ) ) ;
#359 = EDGE_CURVE ( 'NONE', #278, #375, #32, .T. ) ;
#360 = CARTESIAN_POINT ( 'NONE',  ( 4.430753026553659099E-16, -0.1799999999999999933, 0.1269018103365187611 ) ) ;
#361 = DIRECTION ( 'NONE',  ( -3.491481338843133355E-15, 1.224646799147353207E-16, -1.000000000000000000 ) ) ;
#362 = LOCAL_TIME ( 14, 0, 57.00000000000000000, #69 ) ;
#363 = EDGE_CURVE ( 'NONE', #342, #278, #224, .T. ) ;
#364 = CARTESIAN_POINT ( 'NONE',  ( 1.029129926514445142E-15, -3.609701866057403552E-17, 0.2947545258412971880 ) ) ;
#365 = CARTESIAN_POINT ( 'NONE',  ( -0.1799999999999997435, 0.1676852194801000673, 0.06732299439935698904 ) ) ;
#366 = EDGE_LOOP ( 'NONE', ( #127, #44, #107, #121, #150 ) ) ;
#367 = CARTESIAN_POINT ( 'NONE',  ( -0.1799999999999999933, 0.0000000000000000000, 6.284666409917639645E-16 ) ) ;
#368 = AXIS2_PLACEMENT_3D ( 'NONE', #234, #16, #137 ) ;
#369 = ORIENTED_EDGE ( 'NONE', *, *, #273, .F. ) ;
#370 = APPROVAL_PERSON_ORGANIZATION ( #261, #159, #45 ) ;
#371 = PLANE ( 'NONE',  #84 ) ;
#372 = ORIENTED_EDGE ( 'NONE', *, *, #300, .T. ) ;
#373 = ADVANCED_FACE ( 'NONE', ( #396 ), #371, .F. ) ;
#374 =( NAMED_UNIT ( * ) SI_UNIT ( $, .STERADIAN. ) SOLID_ANGLE_UNIT ( ) );
#375 = VERTEX_POINT ( 'NONE', #1 ) ;
#376 = CYLINDRICAL_SURFACE ( 'NONE', #104, 0.1800000000000000766 ) ;
#377 = EDGE_LOOP ( 'NONE', ( #339 ) ) ;
#378 = ORGANIZATION ( 'UNSPECIFIED', 'UNSPECIFIED', '' ) ;
#379 = EDGE_CURVE ( 'NONE', #223, #310, #65, .T. ) ;
#380 = FACE_OUTER_BOUND ( 'NONE', #366, .T. ) ;
#381 = DIRECTION ( 'NONE',  ( -1.000000000000000000, 0.0000000000000000000, 3.614007241618348376E-15 ) ) ;
#382 = DIRECTION ( 'NONE',  ( -4.275831445896958607E-31, -1.000000000000000000, -1.224646799147353207E-16 ) ) ;
#383 = VECTOR ( 'NONE', #184, 1000.000000000000000 ) ;
#384 = PLANE ( 'NONE',  #368 ) ;
#385 = ORIENTED_EDGE ( 'NONE', *, *, #379, .F. ) ;
#386 = DIRECTION ( 'NONE',  ( -3.491481338843133355E-15, 1.224646799147353207E-16, -1.000000000000000000 ) ) ;
#387 = CC_DESIGN_APPROVAL ( #388, ( #78 ) ) ;
#388 = APPROVAL ( #163, 'UNSPECIFIED' ) ;
#389 = DIRECTION ( 'NONE',  ( -3.491481338843133355E-15, 1.224646799147353207E-16, -1.000000000000000000 ) ) ;
#390 = PLANE ( 'NONE',  #40 ) ;
#391 = VECTOR ( 'NONE', #324, 1000.000000000000000 ) ;
#392 = CARTESIAN_POINT ( 'NONE',  ( 2.365919782978951696E-32, 0.2999999999999999889, 6.776263578034402713E-18 ) ) ;
#393 = CARTESIAN_POINT ( 'NONE',  ( -0.1799999999999982447, 0.0000000000000000000, 0.5000000000000006661 ) ) ;
#394 = EDGE_LOOP ( 'NONE', ( #89 ) ) ;
#395 = DIRECTION ( 'NONE',  ( 4.212971753347078429E-31, 1.000000000000000000, 1.242314989306307328E-16 ) ) ;
#396 = FACE_OUTER_BOUND ( 'NONE', #101, .T. ) ;
#397 = EDGE_CURVE ( 'NONE', #342, #223, #249, .T. ) ;
ENDSEC;
END-ISO-10303-21;
