ISO-10303-21;
HEADER;
FILE_DESCRIPTION (( 'STEP AP203' ),
    '1' );
FILE_NAME ('997979.step',
    '2021-12-03T13:00:56',
    ( '' ),
    ( '' ),
    'SwSTEP 2.0',
    'SolidWorks 2019',
    '' );
FILE_SCHEMA (( 'CONFIG_CONTROL_DESIGN' ));
ENDSEC;

DATA;
#1 = ADVANCED_FACE ( 'NONE', ( #29, #157 ), #367, .T. ) ;
#2 = CARTESIAN_POINT ( 'NONE',  ( -0.1499999999999999112, 0.1701800401011673292, 0.03724604997958146091 ) ) ;
#3 = PLANE ( 'NONE',  #219 ) ;
#4 = VERTEX_POINT ( 'NONE', #295 ) ;
#5 = CIRCLE ( 'NONE', #19, 1.500000000000004441 ) ;
#6 =( LENGTH_UNIT ( ) NAMED_UNIT ( * ) SI_UNIT ( .MILLI., .METRE. ) );
#7 = EDGE_CURVE ( 'NONE', #140, #171, #79, .T. ) ;
#8 = COORDINATED_UNIVERSAL_TIME_OFFSET ( 1, 0, .AHEAD. ) ;
#9 = VECTOR ( 'NONE', #328, 1000.000000000000000 ) ;
#10 = ORIENTED_EDGE ( 'NONE', *, *, #74, .F. ) ;
#11 = ORIENTED_EDGE ( 'NONE', *, *, #277, .T. ) ;
#12 = ORIENTED_EDGE ( 'NONE', *, *, #7, .T. ) ;
#13 = CARTESIAN_POINT ( 'NONE',  ( -0.1499999999999996336, 0.0000000000000000000, 0.1082515086137663396 ) ) ;
#14 = ORIENTED_EDGE ( 'NONE', *, *, #326, .T. ) ;
#15 = VECTOR ( 'NONE', #187, 1000.000000000000000 ) ;
#16 = EDGE_LOOP ( 'NONE', ( #14 ) ) ;
#17 = CARTESIAN_POINT ( 'NONE',  ( 3.779581222265797996E-16, -1.325698635267203619E-17, 0.1082515086137657428 ) ) ;
#18 = CARTESIAN_POINT ( 'NONE',  ( 3.491481338843135722E-15, 0.1499999999999999667, 1.000000000000000666 ) ) ;
#19 = AXIS2_PLACEMENT_3D ( 'NONE', #337, #69, #251 ) ;
#20 = DIRECTION ( 'NONE',  ( -3.491481338843133355E-15, 1.224646799147353207E-16, -1.000000000000000000 ) ) ;
#21 = PERSON_AND_ORGANIZATION_ROLE ( 'classification_officer' ) ;
#22 = PRODUCT_RELATED_PRODUCT_CATEGORY ( 'detail', '', ( #370 ) ) ;
#23 = FACE_OUTER_BOUND ( 'NONE', #255, .T. ) ;
#24 = UNCERTAINTY_MEASURE_WITH_UNIT (LENGTH_MEASURE( 1.000000000000000082E-05 ), #6, 'distance_accuracy_value', 'NONE');
#25 = PERSON_AND_ORGANIZATION ( #341, #245 ) ;
#26 = LINE ( 'NONE', #396, #334 ) ;
#27 = CARTESIAN_POINT ( 'NONE',  ( -0.1500000000000000222, 0.1999999999999999833, 5.482151368094171118E-16 ) ) ;
#28 = PLANE ( 'NONE',  #184 ) ;
#29 = FACE_OUTER_BOUND ( 'NONE', #281, .T. ) ;
#30 = VECTOR ( 'NONE', #139, 1000.000000000000000 ) ;
#31 = CARTESIAN_POINT ( 'NONE',  ( 2.154216434020762245E-14, -7.555974111172758922E-16, 6.169921087805498416 ) ) ;
#32 = PLANE ( 'NONE',  #362 ) ;
#33 = FACE_OUTER_BOUND ( 'NONE', #378, .T. ) ;
#34 = EDGE_CURVE ( 'NONE', #104, #267, #230, .T. ) ;
#35 = EDGE_LOOP ( 'NONE', ( #12, #11, #136, #321, #286 ) ) ;
#36 = ADVANCED_FACE ( 'NONE', ( #51 ), #85, .T. ) ;
#37 = APPLICATION_PROTOCOL_DEFINITION ( 'international standard', 'config_control_design', 1994, #114 ) ;
#38 = CARTESIAN_POINT ( 'NONE',  ( 1.595606971851311880E-13, -5.596635872103403844E-15, 45.69999999999999574 ) ) ;
#39 = APPROVAL_DATE_TIME ( #279, #163 ) ;
#40 = CIRCLE ( 'NONE', #101, 0.1500000000000000222 ) ;
#41 = EDGE_CURVE ( 'NONE', #52, #140, #40, .T. ) ;
#42 = VERTEX_POINT ( 'NONE', #389 ) ;
#43 = EDGE_CURVE ( 'NONE', #260, #267, #392, .T. ) ;
#44 = DIRECTION ( 'NONE',  ( 3.491481338843133355E-15, -1.224646799147353207E-16, 1.000000000000000000 ) ) ;
#45 = ORIENTED_EDGE ( 'NONE', *, *, #74, .T. ) ;
#46 = ORIENTED_EDGE ( 'NONE', *, *, #359, .F. ) ;
#47 = DIRECTION ( 'NONE',  ( -3.491481338843133355E-15, 1.224646799147353207E-16, -1.000000000000000000 ) ) ;
#48 = ORIENTED_EDGE ( 'NONE', *, *, #166, .T. ) ;
#49 = AXIS2_PLACEMENT_3D ( 'NONE', #159, #214, #270 ) ;
#50 = DIRECTION ( 'NONE',  ( -3.491481338843133355E-15, 1.224646799147353207E-16, -1.000000000000000000 ) ) ;
#51 = FACE_OUTER_BOUND ( 'NONE', #262, .T. ) ;
#52 = VERTEX_POINT ( 'NONE', #13 ) ;
#53 = EDGE_CURVE ( 'NONE', #98, #98, #271, .T. ) ;
#54 = DATE_AND_TIME ( #329, #253 ) ;
#56 = VECTOR ( 'NONE', #156, 1000.000000000000000 ) ;
#55 = APPROVAL_PERSON_ORGANIZATION ( #241, #144, #111 ) ;
#57 = DIRECTION ( 'NONE',  ( -3.491481338843133355E-15, 1.224646799147353207E-16, -1.000000000000000000 ) ) ;
#58 = CARTESIAN_POINT ( 'NONE',  ( -1.419551869787371072E-31, -0.1500000000000000222, -4.065758146820641628E-17 ) ) ;
#59 = CARTESIAN_POINT ( 'NONE',  ( 5.237222008264715317E-17, -1.836970198721035373E-18, 0.01500000000000004455 ) ) ;
#60 = DIRECTION ( 'NONE',  ( 0.0000000000000000000, 1.000000000000000000, 0.0000000000000000000 ) ) ;
#61 = CARTESIAN_POINT ( 'NONE',  ( -0.1499999999999982736, 0.0000000000000000000, 0.5000000000000005551 ) ) ;
#62 = ORIENTED_EDGE ( 'NONE', *, *, #127, .F. ) ;
#63 = VECTOR ( 'NONE', #170, 1000.000000000000000 ) ;
#64 = CARTESIAN_POINT ( 'NONE',  ( 3.779581222265801941E-16, -0.1500000000000000222, 0.1082515086137658539 ) ) ;
#65 = PRODUCT_DEFINITION ( 'UNKNOWN', '', #225, #197 ) ;
#66 = PLANE ( 'NONE',  #167 ) ;
#67 = APPROVAL_STATUS ( 'not_yet_approved' ) ;
#68 = VECTOR ( 'NONE', #333, 1000.000000000000000 ) ;
#69 = DIRECTION ( 'NONE',  ( -3.491481338843133355E-15, 1.224646799147353207E-16, -1.000000000000000000 ) ) ;
#70 = CARTESIAN_POINT ( 'NONE',  ( 4.395143204955762335E-15, 0.1840741737109299614, 1.258819045102514522 ) ) ;
#71 = APPROVAL_PERSON_ORGANIZATION ( #165, #163, #99 ) ;
#72 = CC_DESIGN_PERSON_AND_ORGANIZATION_ASSIGNMENT ( #168, #375, ( #65 ) ) ;
#73 = DATE_AND_TIME ( #226, #97 ) ;
#74 = EDGE_CURVE ( 'NONE', #285, #285, #205, .T. ) ;
#75 = ORIENTED_EDGE ( 'NONE', *, *, #294, .F. ) ;
#76 = ORIENTED_EDGE ( 'NONE', *, *, #34, .F. ) ;
#77 = ORIENTED_EDGE ( 'NONE', *, *, #359, .T. ) ;
#78 = CIRCLE ( 'NONE', #304, 1.499999999999996669 ) ;
#79 = LINE ( 'NONE', #390, #63 ) ;
#80 = ORIENTED_EDGE ( 'NONE', *, *, #84, .F. ) ;
#81 = CARTESIAN_POINT ( 'NONE',  ( 1.745740669421566678E-15, 0.0000000000000000000, 0.5000000000000000000 ) ) ;
#82 = ORIENTED_EDGE ( 'NONE', *, *, #316, .T. ) ;
#83 = APPROVAL_STATUS ( 'not_yet_approved' ) ;
#84 = EDGE_CURVE ( 'NONE', #52, #42, #289, .T. ) ;
#85 = CYLINDRICAL_SURFACE ( 'NONE', #353, 0.2500000000000000000 ) ;
#86 = COORDINATED_UNIVERSAL_TIME_OFFSET ( 1, 0, .AHEAD. ) ;
#87 = CARTESIAN_POINT ( 'NONE',  ( 0.0000000000000000000, 0.0000000000000000000, 0.0000000000000000000 ) ) ;
#88 =( GEOMETRIC_REPRESENTATION_CONTEXT ( 3 ) GLOBAL_UNCERTAINTY_ASSIGNED_CONTEXT ( ( #24 ) ) GLOBAL_UNIT_ASSIGNED_CONTEXT ( ( #6, #103, #282 ) ) REPRESENTATION_CONTEXT ( 'NONE', 'WORKASPACE' ) );
#89 = DIRECTION ( 'NONE',  ( 3.491481338843133355E-15, -0.0000000000000000000, 1.000000000000000000 ) ) ;
#90 = DIRECTION ( 'NONE',  ( 1.000000000000000000, 0.0000000000000000000, -3.491481338843133355E-15 ) ) ;
#91 = CC_DESIGN_DATE_AND_TIME_ASSIGNMENT ( #73, #222, ( #65 ) ) ;
#92 = DIRECTION ( 'NONE',  ( -3.491481338843133355E-15, 1.224646799147353207E-16, -1.000000000000000000 ) ) ;
#93 = CARTESIAN_POINT ( 'NONE',  ( -0.1500000000000000222, 0.0000000000000000000, 5.237222008264700033E-16 ) ) ;
#94 = APPLICATION_CONTEXT ( 'configuration controlled 3d designs of mechanical parts and assemblies' ) ;
#95 = DIRECTION ( 'NONE',  ( 3.491481338843133355E-15, -1.224646799147353207E-16, 1.000000000000000000 ) ) ;
#96 = FACE_OUTER_BOUND ( 'NONE', #290, .T. ) ;
#97 = LOCAL_TIME ( 14, 0, 56.00000000000000000, #8 ) ;
#98 = VERTEX_POINT ( 'NONE', #70 ) ;
#99 = APPROVAL_ROLE ( '' ) ;
#100 = EDGE_LOOP ( 'NONE', ( #169, #76, #296, #46 ) ) ;
#101 = AXIS2_PLACEMENT_3D ( 'NONE', #17, #239, #232 ) ;
#102 = CALENDAR_DATE ( 2021, 3, 12 ) ;
#103 =( NAMED_UNIT ( * ) PLANE_ANGLE_UNIT ( ) SI_UNIT ( $, .RADIAN. ) );
#104 = VERTEX_POINT ( 'NONE', #58 ) ;
#105 = ADVANCED_FACE ( 'NONE', ( #175, #23 ), #357, .T. ) ;
#106 = EDGE_LOOP ( 'NONE', ( #372 ) ) ;
#107 = PLANE ( 'NONE',  #133 ) ;
#108 = SECURITY_CLASSIFICATION ( '', '', #150 ) ;
#109 = ADVANCED_FACE ( 'NONE', ( #257 ), #107, .T. ) ;
#110 = CARTESIAN_POINT ( 'NONE',  ( -8.551662891793916337E-32, 2.999519565323715216E-33, -2.449293598294706229E-17 ) ) ;
#111 = APPROVAL_ROLE ( '' ) ;
#112 = DIRECTION ( 'NONE',  ( -3.491481338843133355E-15, 1.224646799147353207E-16, -1.000000000000000000 ) ) ;
#113 = COORDINATED_UNIVERSAL_TIME_OFFSET ( 1, 0, .AHEAD. ) ;
#114 = APPLICATION_CONTEXT ( 'configuration controlled 3d designs of mechanical parts and assemblies' ) ;
#115 = CARTESIAN_POINT ( 'NONE',  ( -0.1499999999999982736, 0.0000000000000000000, 0.5000000000000005551 ) ) ;
#116 = APPROVAL_DATE_TIME ( #54, #314 ) ;
#117 = CARTESIAN_POINT ( 'NONE',  ( 1.606081415867841091E-13, -5.633375276077824704E-15, 46.00000000000000000 ) ) ;
#118 = DIRECTION ( 'NONE',  ( -3.491481338843133355E-15, 1.224646799147353207E-16, -1.000000000000000000 ) ) ;
#119 = AXIS2_PLACEMENT_3D ( 'NONE', #59, #189, #331 ) ;
#120 = DIRECTION ( 'NONE',  ( -3.491481338843133355E-15, 1.224646799147353207E-16, -1.000000000000000000 ) ) ;
#121 = ADVANCED_FACE ( 'NONE', ( #178 ), #355, .T. ) ;
#122 = FACE_OUTER_BOUND ( 'NONE', #198, .T. ) ;
#123 = CARTESIAN_POINT ( 'NONE',  ( 6.413747168845437253E-32, 0.2500000000000000000, 1.836970198721029441E-17 ) ) ;
#124 = CIRCLE ( 'NONE', #204, 0.1500000000000000222 ) ;
#125 = B_SPLINE_CURVE_WITH_KNOTS ( 'NONE', 3,
 ( #369, #126, #249, #275, #2, #391 ),
 .UNSPECIFIED., .F., .F.,
 ( 4, 2, 4 ),
 ( 0.0003095989894948070133, 0.0004211741036924760090, 0.0005327492178901450590 ),
 .UNSPECIFIED. ) ;
#126 = CARTESIAN_POINT ( 'NONE',  ( -0.1499999999999996336, 0.03719840708571526405, 0.1082515086138117200 ) ) ;
#127 = EDGE_CURVE ( 'NONE', #171, #52, #387, .T. ) ;
#128 = CIRCLE ( 'NONE', #348, 1.200000000000004396 ) ;
#129 = VERTEX_POINT ( 'NONE', #143 ) ;
#130 = ORIENTED_EDGE ( 'NONE', *, *, #308, .F. ) ;
#131 = PERSON_AND_ORGANIZATION ( #341, #245 ) ;
#132 = CIRCLE ( 'NONE', #377, 0.2500000000000000000 ) ;
#133 = AXIS2_PLACEMENT_3D ( 'NONE', #117, #44, #242 ) ;
#134 = VERTEX_POINT ( 'NONE', #177 ) ;
#135 = PERSON_AND_ORGANIZATION_ROLE ( 'design_owner' ) ;
#136 = ORIENTED_EDGE ( 'NONE', *, *, #34, .T. ) ;
#137 = AXIS2_PLACEMENT_3D ( 'NONE', #192, #195, #311 ) ;
#138 = ORIENTED_EDGE ( 'NONE', *, *, #308, .T. ) ;
#139 = DIRECTION ( 'NONE',  ( -3.491481338843133355E-15, 0.0000000000000000000, -1.000000000000000000 ) ) ;
#140 = VERTEX_POINT ( 'NONE', #182 ) ;
#141 = DIRECTION ( 'NONE',  ( 0.0000000000000000000, 1.000000000000000000, 0.0000000000000000000 ) ) ;
#142 = AXIS2_PLACEMENT_3D ( 'NONE', #38, #50, #340 ) ;
#143 = CARTESIAN_POINT ( 'NONE',  ( 2.154216434020762245E-14, 1.499999999999996003, 6.169921087805498416 ) ) ;
#144 = APPROVAL ( #385, 'UNSPECIFIED' ) ;
#145 = LINE ( 'NONE', #263, #284 ) ;
#146 = AXIS2_PLACEMENT_3D ( 'NONE', #383, #20, #209 ) ;
#147 = DIRECTION ( 'NONE',  ( 4.333342374871280669E-31, 1.000000000000000000, 1.219727444046192488E-16 ) ) ;
#148 = ORIENTED_EDGE ( 'NONE', *, *, #374, .F. ) ;
#149 = ADVANCED_BREP_SHAPE_REPRESENTATION ( '997979', ( #264, #394, #137 ), #88 ) ;
#150 = SECURITY_CLASSIFICATION_LEVEL ( 'unclassified' ) ;
#151 = CARTESIAN_POINT ( 'NONE',  ( 3.491481338843134144E-15, -2.168404344971008868E-16, 1.000000000000000222 ) ) ;
#152 = CARTESIAN_POINT ( 'NONE',  ( 3.779581222265797996E-16, -1.325698635267203619E-17, 0.1082515086137657428 ) ) ;
#153 = CARTESIAN_POINT ( 'NONE',  ( 3.779581222265800955E-16, 0.1500000000000000222, 0.1082515086137658261 ) ) ;
#154 = ORIENTED_EDGE ( 'NONE', *, *, #294, .T. ) ;
#155 = AXIS2_PLACEMENT_3D ( 'NONE', #352, #300, #141 ) ;
#156 = DIRECTION ( 'NONE',  ( 0.0000000000000000000, -1.000000000000000000, 0.0000000000000000000 ) ) ;
#157 = FACE_OUTER_BOUND ( 'NONE', #384, .T. ) ;
#158 = DIRECTION ( 'NONE',  ( 4.275831445896958607E-31, 1.000000000000000000, 1.224646799147353207E-16 ) ) ;
#159 = CARTESIAN_POINT ( 'NONE',  ( 0.0000000000000000000, 0.0000000000000000000, 0.0000000000000000000 ) ) ;
#160 = EDGE_CURVE ( 'NONE', #140, #227, #145, .T. ) ;
#161 = CARTESIAN_POINT ( 'NONE',  ( 0.0000000000000000000, 0.0000000000000000000, 0.0000000000000000000 ) ) ;
#162 = COORDINATED_UNIVERSAL_TIME_OFFSET ( 1, 0, .AHEAD. ) ;
#163 = APPROVAL ( #67, 'UNSPECIFIED' ) ;
#164 = CONICAL_SURFACE ( 'NONE', #381, 0.1840741737109301279, 0.2617993877991427465 ) ;
#165 = PERSON_AND_ORGANIZATION ( #341, #245 ) ;
#166 = EDGE_CURVE ( 'NONE', #42, #104, #124, .T. ) ;
#167 = AXIS2_PLACEMENT_3D ( 'NONE', #161, #393, #183 ) ;
#168 = PERSON_AND_ORGANIZATION ( #341, #245 ) ;
#169 = ORIENTED_EDGE ( 'NONE', *, *, #43, .T. ) ;
#170 = DIRECTION ( 'NONE',  ( -3.548879674468427571E-31, -1.000000000000000000, -1.016439536705160407E-16 ) ) ;
#171 = VERTEX_POINT ( 'NONE', #325 ) ;
#172 = PRODUCT_DEFINITION_SHAPE ( 'NONE', 'NONE',  #65 ) ;
#173 = AXIS2_PLACEMENT_3D ( 'NONE', #152, #336, #221 ) ;
#174 = EDGE_LOOP ( 'NONE', ( #138 ) ) ;
#175 = FACE_OUTER_BOUND ( 'NONE', #306, .T. ) ;
#176 = ORIENTED_EDGE ( 'NONE', *, *, #53, .F. ) ;
#177 = CARTESIAN_POINT ( 'NONE',  ( 3.779581222265798490E-16, 0.1500000000000000222, 0.1082515086137657567 ) ) ;
#178 = FACE_OUTER_BOUND ( 'NONE', #200, .T. ) ;
#179 = ORIENTED_EDGE ( 'NONE', *, *, #250, .F. ) ;
#180 = LOCAL_TIME ( 14, 0, 56.00000000000000000, #162 ) ;
#181 = SHAPE_DEFINITION_REPRESENTATION ( #172, #149 ) ;
#182 = CARTESIAN_POINT ( 'NONE',  ( 3.779581222265802927E-16, 0.1500000000000000222, 0.1082515086137658816 ) ) ;
#183 = DIRECTION ( 'NONE',  ( -3.491481338843133355E-15, 0.0000000000000000000, -1.000000000000000000 ) ) ;
#184 = AXIS2_PLACEMENT_3D ( 'NONE', #153, #272, #244 ) ;
#185 = DIRECTION ( 'NONE',  ( -3.491481338843133355E-15, 1.224646799147353207E-16, -1.000000000000000000 ) ) ;
#186 = EDGE_LOOP ( 'NONE', ( #233 ) ) ;
#187 = DIRECTION ( 'NONE',  ( -3.491481338843133355E-15, 0.0000000000000000000, -1.000000000000000000 ) ) ;
#188 = AXIS2_PLACEMENT_3D ( 'NONE', #322, #379, #293 ) ;
#189 = DIRECTION ( 'NONE',  ( -3.491481338843133355E-15, 1.224646799147353207E-16, -1.000000000000000000 ) ) ;
#190 = CC_DESIGN_APPROVAL ( #314, ( #225 ) ) ;
#191 = CARTESIAN_POINT ( 'NONE',  ( -0.1500000000000000222, 0.1999999999999999833, 5.237222008264700033E-16 ) ) ;
#192 = CARTESIAN_POINT ( 'NONE',  ( 0.0000000000000000000, 0.0000000000000000000, 0.0000000000000000000 ) ) ;
#193 = EDGE_CURVE ( 'NONE', #315, #227, #132, .T. ) ;
#194 = VERTEX_POINT ( 'NONE', #371 ) ;
#195 = DIRECTION ( 'NONE',  ( 0.0000000000000000000, 0.0000000000000000000, 1.000000000000000000 ) ) ;
#196 = PERSON_AND_ORGANIZATION ( #341, #245 ) ;
#197 = DESIGN_CONTEXT ( 'detailed design', #94, 'design' ) ;
#198 = EDGE_LOOP ( 'NONE', ( #82 ) ) ;
#199 = CARTESIAN_POINT ( 'NONE',  ( 5.237222008264715317E-17, -1.836970198721035373E-18, 0.01500000000000004455 ) ) ;
#200 = EDGE_LOOP ( 'NONE', ( #256, #288, #231, #48 ) ) ;
#201 = ORIENTED_EDGE ( 'NONE', *, *, #193, .T. ) ;
#202 = CARTESIAN_POINT ( 'NONE',  ( 2.365919782978951696E-32, 0.2500000000000000000, 6.776263578034402713E-18 ) ) ;
#203 = FACE_OUTER_BOUND ( 'NONE', #298, .T. ) ;
#204 = AXIS2_PLACEMENT_3D ( 'NONE', #87, #89, #360 ) ;
#205 = CIRCLE ( 'NONE', #155, 0.1500000000000001055 ) ;
#206 = CARTESIAN_POINT ( 'NONE',  ( 4.395143204955762335E-15, -1.541608714290522121E-16, 1.258819045102514522 ) ) ;
#207 = ORIENTED_EDGE ( 'NONE', *, *, #160, .T. ) ;
#208 = CALENDAR_DATE ( 2021, 3, 12 ) ;
#209 = DIRECTION ( 'NONE',  ( 3.209883240645392796E-31, 1.000000000000000000, 9.035018104045869462E-17 ) ) ;
#210 = ADVANCED_FACE ( 'NONE', ( #317, #211 ), #345, .F. ) ;
#211 = FACE_OUTER_BOUND ( 'NONE', #380, .T. ) ;
#212 = COORDINATED_UNIVERSAL_TIME_OFFSET ( 1, 0, .AHEAD. ) ;
#213 = PLANE ( 'NONE',  #368 ) ;
#214 = DIRECTION ( 'NONE',  ( -3.491481338843133355E-15, 1.224646799147353207E-16, -1.000000000000000000 ) ) ;
#215 = FACE_OUTER_BOUND ( 'NONE', #100, .T. ) ;
#216 = DIRECTION ( 'NONE',  ( -3.491481338843133355E-15, 0.0000000000000000000, -1.000000000000000000 ) ) ;
#217 = FACE_OUTER_BOUND ( 'NONE', #35, .T. ) ;
#218 = EDGE_CURVE ( 'NONE', #267, #227, #26, .T. ) ;
#219 = AXIS2_PLACEMENT_3D ( 'NONE', #61, #90, #216 ) ;
#220 = AXIS2_PLACEMENT_3D ( 'NONE', #81, #297, #259 ) ;
#221 = DIRECTION ( 'NONE',  ( 3.209883240645392796E-31, 1.000000000000000000, 9.035018104045869462E-17 ) ) ;
#222 = DATE_TIME_ROLE ( 'creation_date' ) ;
#223 = CLOSED_SHELL ( 'NONE', ( #36, #280, #265, #358, #121, #248, #235 ) ) ;
#224 = EDGE_LOOP ( 'NONE', ( #62, #342, #376 ) ) ;
#225 = PRODUCT_DEFINITION_FORMATION_WITH_SPECIFIED_SOURCE ( 'ANY', '', #370, .NOT_KNOWN. ) ;
#226 = CALENDAR_DATE ( 2021, 3, 12 ) ;
#227 = VERTEX_POINT ( 'NONE', #278 ) ;
#228 = ORIENTED_EDGE ( 'NONE', *, *, #374, .T. ) ;
#229 = LOCAL_TIME ( 14, 0, 56.00000000000000000, #113 ) ;
#230 = LINE ( 'NONE', #202, #9 ) ;
#231 = ORIENTED_EDGE ( 'NONE', *, *, #84, .T. ) ;
#232 = DIRECTION ( 'NONE',  ( 3.209883240645392796E-31, 1.000000000000000000, 9.035018104045869462E-17 ) ) ;
#233 = ORIENTED_EDGE ( 'NONE', *, *, #326, .F. ) ;
#234 = AXIS2_PLACEMENT_3D ( 'NONE', #151, #268, #307 ) ;
#235 = ADVANCED_FACE ( 'NONE', ( #217 ), #66, .T. ) ;
#236 = AXIS2_PLACEMENT_3D ( 'NONE', #206, #47, #237 ) ;
#237 = DIRECTION ( 'NONE',  ( 0.0000000000000000000, 1.000000000000000000, 0.0000000000000000000 ) ) ;
#238 = DATE_AND_TIME ( #354, #229 ) ;
#239 = DIRECTION ( 'NONE',  ( -3.491481338843133355E-15, 1.224646799147353207E-16, -1.000000000000000000 ) ) ;
#240 = CC_DESIGN_APPROVAL ( #144, ( #108 ) ) ;
#241 = PERSON_AND_ORGANIZATION ( #341, #245 ) ;
#242 = DIRECTION ( 'NONE',  ( -4.275831445896958607E-31, -1.000000000000000000, -1.224646799147353207E-16 ) ) ;
#243 = DIRECTION ( 'NONE',  ( 0.0000000000000000000, 1.000000000000000000, 0.0000000000000000000 ) ) ;
#244 = DIRECTION ( 'NONE',  ( -4.275831445896958607E-31, -1.000000000000000000, -1.224646799147353207E-16 ) ) ;
#245 = ORGANIZATION ( 'UNSPECIFIED', 'UNSPECIFIED', '' ) ;
#246 = FACE_BOUND ( 'NONE', #332, .T. ) ;
#247 = DIRECTION ( 'NONE',  ( 4.275831445896958607E-31, 1.000000000000000000, 1.224646799147353207E-16 ) ) ;
#248 = ADVANCED_FACE ( 'NONE', ( #33 ), #3, .F. ) ;
#249 = CARTESIAN_POINT ( 'NONE',  ( -0.1499999999999997169, 0.07388888115799582823, 0.09422060985299321456 ) ) ;
#250 = EDGE_CURVE ( 'NONE', #52, #315, #125, .T. ) ;
#251 = DIRECTION ( 'NONE',  ( 0.0000000000000000000, 1.000000000000000000, 0.0000000000000000000 ) ) ;
#252 = ADVANCED_FACE ( 'NONE', ( #303 ), #213, .T. ) ;
#253 = LOCAL_TIME ( 14, 0, 56.00000000000000000, #212 ) ;
#254 = FACE_BOUND ( 'NONE', #16, .T. ) ;
#255 = EDGE_LOOP ( 'NONE', ( #344 ) ) ;
#256 = ORIENTED_EDGE ( 'NONE', *, *, #277, .F. ) ;
#257 = FACE_OUTER_BOUND ( 'NONE', #186, .T. ) ;
#258 = ORIENTED_EDGE ( 'NONE', *, *, #250, .T. ) ;
#259 = DIRECTION ( 'NONE',  ( -1.000000000000000000, 0.0000000000000000000, 3.614007241618347587E-15 ) ) ;
#260 = VERTEX_POINT ( 'NONE', #191 ) ;
#261 = PERSON_AND_ORGANIZATION_ROLE ( 'design_supplier' ) ;
#262 = EDGE_LOOP ( 'NONE', ( #201, #323, #350, #75 ) ) ;
#263 = CARTESIAN_POINT ( 'NONE',  ( 8.663369754424789296E-16, -3.038701058359854724E-17, 0.2481287715344143441 ) ) ;
#264 = MANIFOLD_SOLID_BREP ( 'Corps-Déplacer/Copier1[1]', #223 ) ;
#265 = ADVANCED_FACE ( 'NONE', ( #215 ), #32, .T. ) ;
#266 = DIRECTION ( 'NONE',  ( -3.491481338843133355E-15, 1.224646799147353207E-16, -1.000000000000000000 ) ) ;
#267 = VERTEX_POINT ( 'NONE', #330 ) ;
#268 = DIRECTION ( 'NONE',  ( -3.491481338843133355E-15, 1.224646799147353207E-16, -1.000000000000000000 ) ) ;
#269 = DIRECTION ( 'NONE',  ( 3.491481338843133355E-15, -0.0000000000000000000, 1.000000000000000000 ) ) ;
#270 = DIRECTION ( 'NONE',  ( 4.275831445896957731E-31, 1.000000000000000000, 1.224646799147352961E-16 ) ) ;
#271 = CIRCLE ( 'NONE', #236, 0.1840741737109301279 ) ;
#272 = DIRECTION ( 'NONE',  ( 3.491481338843133355E-15, -1.224646799147353207E-16, 1.000000000000000000 ) ) ;
#273 = LINE ( 'NONE', #27, #68 ) ;
#274 = APPROVAL_PERSON_ORGANIZATION ( #196, #314, #320 ) ;
#275 = CARTESIAN_POINT ( 'NONE',  ( -0.1499999999999998279, 0.1397376578152033921, 0.05860250420176549985 ) ) ;
#276 = CC_DESIGN_PERSON_AND_ORGANIZATION_ASSIGNMENT ( #131, #135, ( #370 ) ) ;
#277 = EDGE_CURVE ( 'NONE', #171, #104, #335, .T. ) ;
#278 = CARTESIAN_POINT ( 'NONE',  ( 5.237222008264744283E-17, 0.2500000000000000000, 0.01500000000000012781 ) ) ;
#279 = DATE_AND_TIME ( #102, #180 ) ;
#280 = ADVANCED_FACE ( 'NONE', ( #96 ), #291, .T. ) ;
#281 = EDGE_LOOP ( 'NONE', ( #45 ) ) ;
#282 =( NAMED_UNIT ( * ) SI_UNIT ( $, .STERADIAN. ) SOLID_ANGLE_UNIT ( ) );
#283 = DIRECTION ( 'NONE',  ( 0.0000000000000000000, -1.000000000000000000, 0.0000000000000000000 ) ) ;
#284 = VECTOR ( 'NONE', #386, 999.9999999999998863 ) ;
#285 = VERTEX_POINT ( 'NONE', #18 ) ;
#286 = ORIENTED_EDGE ( 'NONE', *, *, #160, .F. ) ;
#287 = CC_DESIGN_SECURITY_CLASSIFICATION ( #108, ( #225 ) ) ;
#288 = ORIENTED_EDGE ( 'NONE', *, *, #127, .T. ) ;
#289 = LINE ( 'NONE', #115, #30 ) ;
#290 = EDGE_LOOP ( 'NONE', ( #292, #207, #346, #179 ) ) ;
#291 = CONICAL_SURFACE ( 'NONE', #119, 0.2500000000000000000, 0.8203047484373373610 ) ;
#292 = ORIENTED_EDGE ( 'NONE', *, *, #41, .T. ) ;
#293 = DIRECTION ( 'NONE',  ( 4.275831445896958607E-31, 1.000000000000000000, 1.224646799147353207E-16 ) ) ;
#294 = EDGE_CURVE ( 'NONE', #315, #260, #273, .T. ) ;
#295 = CARTESIAN_POINT ( 'NONE',  ( 1.606081415867841091E-13, 1.199999999999998845, 46.00000000000000000 ) ) ;
#296 = ORIENTED_EDGE ( 'NONE', *, *, #166, .F. ) ;
#297 = DIRECTION ( 'NONE',  ( -3.491481338843133355E-15, 0.0000000000000000000, -1.000000000000000000 ) ) ;
#298 = EDGE_LOOP ( 'NONE', ( #148 ) ) ;
#299 = PERSON_AND_ORGANIZATION ( #341, #245 ) ;
#300 = DIRECTION ( 'NONE',  ( -3.491481338843133355E-15, 1.224646799147353207E-16, -1.000000000000000000 ) ) ;
#301 = DATE_TIME_ROLE ( 'classification_date' ) ;
#302 = DIRECTION ( 'NONE',  ( 4.275831445896958607E-31, 1.000000000000000000, 1.224646799147353207E-16 ) ) ;
#303 = FACE_OUTER_BOUND ( 'NONE', #174, .T. ) ;
#304 = AXIS2_PLACEMENT_3D ( 'NONE', #31, #118, #243 ) ;
#305 = FACE_OUTER_BOUND ( 'NONE', #224, .T. ) ;
#306 = EDGE_LOOP ( 'NONE', ( #228 ) ) ;
#307 = DIRECTION ( 'NONE',  ( 4.337587944509189251E-31, 1.000000000000000000, 1.224646799147353207E-16 ) ) ;
#308 = EDGE_CURVE ( 'NONE', #134, #134, #338, .T. ) ;
#309 = CARTESIAN_POINT ( 'NONE',  ( 3.779581222265800955E-16, 0.1500000000000000222, 0.1082515086137658261 ) ) ;
#310 = CARTESIAN_POINT ( 'NONE',  ( -0.1499999999999999667, 0.1999999999999999833, 0.01500000000000059792 ) ) ;
#311 = DIRECTION ( 'NONE',  ( 1.000000000000000000, 0.0000000000000000000, 0.0000000000000000000 ) ) ;
#312 = CC_DESIGN_PERSON_AND_ORGANIZATION_ASSIGNMENT ( #299, #21, ( #108 ) ) ;
#313 = CONICAL_SURFACE ( 'NONE', #142, 1.500000000000004441, 0.7853981633974453924 ) ;
#314 = APPROVAL ( #83, 'UNSPECIFIED' ) ;
#315 = VERTEX_POINT ( 'NONE', #310 ) ;
#316 = EDGE_CURVE ( 'NONE', #129, #129, #78, .T. ) ;
#317 = FACE_OUTER_BOUND ( 'NONE', #106, .T. ) ;
#318 = CARTESIAN_POINT ( 'NONE',  ( 0.0000000000000000000, 0.0000000000000000000, 0.0000000000000000000 ) ) ;
#319 = AXIS2_PLACEMENT_3D ( 'NONE', #110, #266, #349 ) ;
#320 = APPROVAL_ROLE ( '' ) ;
#321 = ORIENTED_EDGE ( 'NONE', *, *, #218, .T. ) ;
#322 = CARTESIAN_POINT ( 'NONE',  ( 0.0000000000000000000, 0.0000000000000000000, 0.0000000000000000000 ) ) ;
#323 = ORIENTED_EDGE ( 'NONE', *, *, #218, .F. ) ;
#324 = PERSON_AND_ORGANIZATION_ROLE ( 'creator' ) ;
#325 = CARTESIAN_POINT ( 'NONE',  ( 3.779581222265797503E-16, -0.1500000000000000222, 0.1082515086137657290 ) ) ;
#326 = EDGE_CURVE ( 'NONE', #4, #4, #128, .T. ) ;
#327 = PERSON_AND_ORGANIZATION ( #341, #245 ) ;
#328 = DIRECTION ( 'NONE',  ( 4.140359620213165645E-31, 1.000000000000000000, 1.185846126156020475E-16 ) ) ;
#329 = CALENDAR_DATE ( 2021, 3, 12 ) ;
#330 = CARTESIAN_POINT ( 'NONE',  ( 2.365919782978951696E-32, 0.2500000000000000000, 6.776263578034402713E-18 ) ) ;
#331 = DIRECTION ( 'NONE',  ( 4.333342374871280669E-31, 1.000000000000000000, 1.219727444046192488E-16 ) ) ;
#332 = EDGE_LOOP ( 'NONE', ( #176 ) ) ;
#333 = DIRECTION ( 'NONE',  ( -3.491481338843133355E-15, 1.224646799147353207E-16, -1.000000000000000000 ) ) ;
#334 = VECTOR ( 'NONE', #269, 1000.000000000000000 ) ;
#335 = LINE ( 'NONE', #64, #15 ) ;
#336 = DIRECTION ( 'NONE',  ( -3.491481338843133355E-15, 1.224646799147353207E-16, -1.000000000000000000 ) ) ;
#337 = CARTESIAN_POINT ( 'NONE',  ( 1.595606971851311880E-13, -5.596635872103403844E-15, 45.69999999999999574 ) ) ;
#338 = CIRCLE ( 'NONE', #173, 0.1500000000000000222 ) ;
#339 = CLOSED_SHELL ( 'NONE', ( #252, #1, #210, #361, #105, #364, #109 ) ) ;
#340 = DIRECTION ( 'NONE',  ( 0.0000000000000000000, 1.000000000000000000, 0.0000000000000000000 ) ) ;
#341 = PERSON ( 'UNSPECIFIED', 'UNSPECIFIED', 'UNSPECIFIED', ('UNSPECIFIED'), ('UNSPECIFIED'), ('UNSPECIFIED') ) ;
#342 = ORIENTED_EDGE ( 'NONE', *, *, #7, .F. ) ;
#343 = CC_DESIGN_DATE_AND_TIME_ASSIGNMENT ( #238, #301, ( #108 ) ) ;
#344 = ORIENTED_EDGE ( 'NONE', *, *, #316, .F. ) ;
#345 = TOROIDAL_SURFACE ( 'NONE', #234, 1.150000000000000133, 1.000000000000000000 ) ;
#346 = ORIENTED_EDGE ( 'NONE', *, *, #193, .F. ) ;
#348 = AXIS2_PLACEMENT_3D ( 'NONE', #363, #92, #60 ) ;
#347 = LOCAL_TIME ( 14, 0, 56.00000000000000000, #86 ) ;
#349 = DIRECTION ( 'NONE',  ( 4.275831445896958607E-31, 1.000000000000000000, 1.224646799147353207E-16 ) ) ;
#350 = ORIENTED_EDGE ( 'NONE', *, *, #43, .F. ) ;
#351 = MECHANICAL_CONTEXT ( 'NONE', #114, 'mechanical' ) ;
#352 = CARTESIAN_POINT ( 'NONE',  ( 3.491481338843135722E-15, -1.224646799147354193E-16, 1.000000000000000666 ) ) ;
#353 = AXIS2_PLACEMENT_3D ( 'NONE', #318, #112, #302 ) ;
#354 = CALENDAR_DATE ( 2021, 3, 12 ) ;
#355 = CYLINDRICAL_SURFACE ( 'NONE', #220, 0.1500000000000000222 ) ;
#356 = APPROVAL_DATE_TIME ( #388, #144 ) ;
#357 = CYLINDRICAL_SURFACE ( 'NONE', #188, 1.500000000000000444 ) ;
#358 = ADVANCED_FACE ( 'NONE', ( #305 ), #28, .T. ) ;
#359 = EDGE_CURVE ( 'NONE', #260, #42, #365, .T. ) ;
#360 = DIRECTION ( 'NONE',  ( -1.000000000000000000, 0.0000000000000000000, 3.491481338843132961E-15 ) ) ;
#361 = ADVANCED_FACE ( 'NONE', ( #122, #246 ), #164, .T. ) ;
#362 = AXIS2_PLACEMENT_3D ( 'NONE', #123, #185, #247 ) ;
#363 = CARTESIAN_POINT ( 'NONE',  ( 1.606081415867841091E-13, -5.633375276077824704E-15, 46.00000000000000000 ) ) ;
#364 = ADVANCED_FACE ( 'NONE', ( #254, #203 ), #313, .T. ) ;
#365 = LINE ( 'NONE', #93, #56 ) ;
#366 = CARTESIAN_POINT ( 'NONE',  ( 4.395143204955762335E-15, -1.541608714290522121E-16, 1.258819045102514522 ) ) ;
#367 = CYLINDRICAL_SURFACE ( 'NONE', #49, 0.1500000000000000777 ) ;
#368 = AXIS2_PLACEMENT_3D ( 'NONE', #309, #120, #158 ) ;
#369 = CARTESIAN_POINT ( 'NONE',  ( -0.1499999999999996336, 0.0000000000000000000, 0.1082515086137663396 ) ) ;
#370 = PRODUCT ( '997979', '997979', '', ( #351 ) ) ;
#371 = CARTESIAN_POINT ( 'NONE',  ( 1.595606971851311880E-13, 1.499999999999998668, 45.69999999999999574 ) ) ;
#372 = ORIENTED_EDGE ( 'NONE', *, *, #53, .T. ) ;
#373 = APPLICATION_PROTOCOL_DEFINITION ( 'international standard', 'config_control_design', 1994, #94 ) ;
#374 = EDGE_CURVE ( 'NONE', #194, #194, #5, .T. ) ;
#375 = PERSON_AND_ORGANIZATION_ROLE ( 'creator' ) ;
#376 = ORIENTED_EDGE ( 'NONE', *, *, #41, .F. ) ;
#377 = AXIS2_PLACEMENT_3D ( 'NONE', #199, #57, #147 ) ;
#378 = EDGE_LOOP ( 'NONE', ( #258, #154, #77, #80 ) ) ;
#379 = DIRECTION ( 'NONE',  ( -3.491481338843133355E-15, 1.224646799147353207E-16, -1.000000000000000000 ) ) ;
#380 = EDGE_LOOP ( 'NONE', ( #10 ) ) ;
#381 = AXIS2_PLACEMENT_3D ( 'NONE', #366, #95, #283 ) ;
#382 = CC_DESIGN_PERSON_AND_ORGANIZATION_ASSIGNMENT ( #327, #324, ( #225 ) ) ;
#383 = CARTESIAN_POINT ( 'NONE',  ( 3.779581222265797996E-16, -1.325698635267203619E-17, 0.1082515086137657428 ) ) ;
#384 = EDGE_LOOP ( 'NONE', ( #130 ) ) ;
#385 = APPROVAL_STATUS ( 'not_yet_approved' ) ;
#386 = DIRECTION ( 'NONE',  ( -2.381184547279827482E-15, 0.7313537016191723472, -0.6819983600624965892 ) ) ;
#387 = CIRCLE ( 'NONE', #146, 0.1500000000000000222 ) ;
#388 = DATE_AND_TIME ( #208, #347 ) ;
#389 = CARTESIAN_POINT ( 'NONE',  ( -0.1500000000000000222, 0.0000000000000000000, 5.237222008264700033E-16 ) ) ;
#390 = CARTESIAN_POINT ( 'NONE',  ( 3.779581222265803420E-16, 0.2500000000000000000, 0.1082515086137658955 ) ) ;
#391 = CARTESIAN_POINT ( 'NONE',  ( -0.1499999999999999667, 0.1999999999999999833, 0.01500000000000059792 ) ) ;
#392 = CIRCLE ( 'NONE', #319, 0.2500000000000000000 ) ;
#393 = DIRECTION ( 'NONE',  ( 1.000000000000000000, 0.0000000000000000000, -3.491481338843133355E-15 ) ) ;
#394 = MANIFOLD_SOLID_BREP ( 'Corps-Déplacer/Copier1[2]', #339 ) ;
#395 = CC_DESIGN_PERSON_AND_ORGANIZATION_ASSIGNMENT ( #25, #261, ( #225 ) ) ;
#396 = CARTESIAN_POINT ( 'NONE',  ( 3.779581222265803420E-16, 0.2500000000000000000, 0.1082515086137658955 ) ) ;
#397 = CC_DESIGN_APPROVAL ( #163, ( #65 ) ) ;
ENDSEC;
END-ISO-10303-21;
