ISO-10303-21;
HEADER;
FILE_DESCRIPTION (( 'STEP AP203' ),
    '1' );
FILE_NAME ('997977.step',
    '2021-12-03T13:00:55',
    ( '' ),
    ( '' ),
    'SwSTEP 2.0',
    'SolidWorks 2019',
    '' );
FILE_SCHEMA (( 'CONFIG_CONTROL_DESIGN' ));
ENDSEC;

DATA;
#1 = VECTOR ( 'NONE', #137, 1000.000000000000000 ) ;
#2 = CARTESIAN_POINT ( 'NONE',  ( 3.128409417977933936E-16, -0.1200000000000000233, 0.08960120689101262748 ) ) ;
#3 = LINE ( 'NONE', #189, #193 ) ;
#4 = APPROVAL_DATE_TIME ( #261, #116 ) ;
#5 =( NAMED_UNIT ( * ) SI_UNIT ( $, .STERADIAN. ) SOLID_ANGLE_UNIT ( ) );
#6 = ADVANCED_FACE ( 'NONE', ( #41 ), #104, .T. ) ;
#7 = CIRCLE ( 'NONE', #25, 0.1200000000000000094 ) ;
#8 = CC_DESIGN_PERSON_AND_ORGANIZATION_ASSIGNMENT ( #227, #130, ( #72 ) ) ;
#9 = PERSON_AND_ORGANIZATION ( #103, #35 ) ;
#10 = EDGE_LOOP ( 'NONE', ( #327 ) ) ;
#11 = PERSON_AND_ORGANIZATION ( #103, #35 ) ;
#12 = PLANE ( 'NONE',  #289 ) ;
#13 = CIRCLE ( 'NONE', #242, 1.500000000000004441 ) ;
#14 = VERTEX_POINT ( 'NONE', #381 ) ;
#15 = PERSON_AND_ORGANIZATION ( #103, #35 ) ;
#16 = LINE ( 'NONE', #197, #195 ) ;
#17 = ORIENTED_EDGE ( 'NONE', *, *, #359, .F. ) ;
#18 = CARTESIAN_POINT ( 'NONE',  ( -9.463679131915806782E-32, -0.1200000000000000094, -2.710505431213761085E-17 ) ) ;
#19 = VERTEX_POINT ( 'NONE', #18 ) ;
#20 = EDGE_LOOP ( 'NONE', ( #112, #241, #297, #274 ) ) ;
#21 = AXIS2_PLACEMENT_3D ( 'NONE', #281, #393, #283 ) ;
#22 = EDGE_LOOP ( 'NONE', ( #378, #38, #169, #172 ) ) ;
#23 = ORIENTED_EDGE ( 'NONE', *, *, #42, .T. ) ;
#24 = CARTESIAN_POINT ( 'NONE',  ( -0.1199999999999998984, 0.1361440104685664176, 0.03279685610675076718 ) ) ;
#25 = AXIS2_PLACEMENT_3D ( 'NONE', #367, #372, #253 ) ;
#26 = FACE_OUTER_BOUND ( 'NONE', #377, .T. ) ;
#27 = DIRECTION ( 'NONE',  ( -2.957399728723689496E-31, -1.000000000000000000, -8.470329472543004623E-17 ) ) ;
#28 = DIRECTION ( 'NONE',  ( 4.275831445896958607E-31, 1.000000000000000000, 1.224646799147353207E-16 ) ) ;
#29 = CARTESIAN_POINT ( 'NONE',  ( -0.1199999999999997180, 0.05911123673249518012, 0.07837642221160766309 ) ) ;
#30 = DIRECTION ( 'NONE',  ( -3.491481338843133355E-15, 0.0000000000000000000, -1.000000000000000000 ) ) ;
#31 = CARTESIAN_POINT ( 'NONE',  ( 1.606081415867841091E-13, 1.199999999999998845, 46.00000000000000000 ) ) ;
#32 = AXIS2_PLACEMENT_3D ( 'NONE', #246, #250, #88 ) ;
#33 = COORDINATED_UNIVERSAL_TIME_OFFSET ( 1, 0, .AHEAD. ) ;
#34 = CC_DESIGN_PERSON_AND_ORGANIZATION_ASSIGNMENT ( #267, #170, ( #317 ) ) ;
#35 = ORGANIZATION ( 'UNSPECIFIED', 'UNSPECIFIED', '' ) ;
#36 = ADVANCED_FACE ( 'NONE', ( #331 ), #301, .T. ) ;
#37 = UNCERTAINTY_MEASURE_WITH_UNIT (LENGTH_MEASURE( 1.000000000000000082E-05 ), #39, 'distance_accuracy_value', 'NONE');
#38 = ORIENTED_EDGE ( 'NONE', *, *, #244, .T. ) ;
#39 =( LENGTH_UNIT ( ) NAMED_UNIT ( * ) SI_UNIT ( .MILLI., .METRE. ) );
#40 = COORDINATED_UNIVERSAL_TIME_OFFSET ( 1, 0, .AHEAD. ) ;
#41 = FACE_OUTER_BOUND ( 'NONE', #145, .T. ) ;
#42 = EDGE_CURVE ( 'NONE', #114, #263, #16, .T. ) ;
#43 = DATE_TIME_ROLE ( 'classification_date' ) ;
#44 = ORIENTED_EDGE ( 'NONE', *, *, #50, .T. ) ;
#45 = VECTOR ( 'NONE', #30, 1000.000000000000000 ) ;
#46 = APPROVAL_DATE_TIME ( #201, #228 ) ;
#47 = ORIENTED_EDGE ( 'NONE', *, *, #305, .F. ) ;
#48 = CALENDAR_DATE ( 2021, 3, 12 ) ;
#49 = DIRECTION ( 'NONE',  ( -3.491481338843133355E-15, 1.224646799147353207E-16, -1.000000000000000000 ) ) ;
#50 = EDGE_CURVE ( 'NONE', #95, #95, #52, .T. ) ;
#51 = CARTESIAN_POINT ( 'NONE',  ( 1.606081415867841091E-13, -5.633375276077824704E-15, 46.00000000000000000 ) ) ;
#52 = CIRCLE ( 'NONE', #55, 0.1540741737109299070 ) ;
#53 = LOCAL_TIME ( 14, 0, 55.00000000000000000, #135 ) ;
#54 = DIRECTION ( 'NONE',  ( 4.275831445896958607E-31, 1.000000000000000000, 1.224646799147353207E-16 ) ) ;
#55 = AXIS2_PLACEMENT_3D ( 'NONE', #139, #271, #198 ) ;
#56 = CARTESIAN_POINT ( 'NONE',  ( -0.1200000000000000094, 0.0000000000000000000, 4.189777606611759928E-16 ) ) ;
#57 = CARTESIAN_POINT ( 'NONE',  ( -0.1199999999999999539, 0.1600000000000000033, 0.01500000000000049384 ) ) ;
#58 = TOROIDAL_SURFACE ( 'NONE', #21, 1.120000000000000107, 1.000000000000000000 ) ;
#59 = DIRECTION ( 'NONE',  ( -3.491481338843133355E-15, 1.224646799147353207E-16, -1.000000000000000000 ) ) ;
#60 = DIRECTION ( 'NONE',  ( -3.491481338843133355E-15, 1.224646799147353207E-16, -1.000000000000000000 ) ) ;
#61 = CARTESIAN_POINT ( 'NONE',  ( 1.606081415867841091E-13, -5.633375276077824704E-15, 46.00000000000000000 ) ) ;
#62 = CARTESIAN_POINT ( 'NONE',  ( 3.696846937187135663E-15, 0.1540741737109297960, 1.058819045102514567 ) ) ;
#63 = DIRECTION ( 'NONE',  ( 3.491481338843133355E-15, -1.224646799147353207E-16, 1.000000000000000000 ) ) ;
#64 = CC_DESIGN_APPROVAL ( #116, ( #72 ) ) ;
#65 = PLANE ( 'NONE',  #373 ) ;
#66 = AXIS2_PLACEMENT_3D ( 'NONE', #319, #219, #128 ) ;
#67 = DATE_TIME_ROLE ( 'creation_date' ) ;
#68 = ADVANCED_FACE ( 'NONE', ( #326 ), #12, .T. ) ;
#69 = APPLICATION_PROTOCOL_DEFINITION ( 'international standard', 'config_control_design', 1994, #176 ) ;
#70 = AXIS2_PLACEMENT_3D ( 'NONE', #272, #360, #109 ) ;
#71 = AXIS2_PLACEMENT_3D ( 'NONE', #185, #218, #337 ) ;
#72 = PRODUCT_DEFINITION ( 'UNKNOWN', '', #317, #92 ) ;
#73 = EDGE_LOOP ( 'NONE', ( #190 ) ) ;
#74 = CC_DESIGN_PERSON_AND_ORGANIZATION_ASSIGNMENT ( #82, #352, ( #254 ) ) ;
#75 = EDGE_CURVE ( 'NONE', #332, #263, #143, .T. ) ;
#76 = ORIENTED_EDGE ( 'NONE', *, *, #288, .F. ) ;
#77 = ORIENTED_EDGE ( 'NONE', *, *, #390, .T. ) ;
#78 = CALENDAR_DATE ( 2021, 3, 12 ) ;
#79 = MANIFOLD_SOLID_BREP ( 'Corps-Déplacer/Copier1[2]', #323 ) ;
#80 = CARTESIAN_POINT ( 'NONE',  ( 1.595606971851311880E-13, -5.596635872103403844E-15, 45.69999999999999574 ) ) ;
#81 = CARTESIAN_POINT ( 'NONE',  ( 5.344789307371198258E-32, 0.2000000000000000111, 1.530808498934191817E-17 ) ) ;
#82 = PERSON_AND_ORGANIZATION ( #103, #35 ) ;
#83 = VERTEX_POINT ( 'NONE', #270 ) ;
#84 = CIRCLE ( 'NONE', #234, 1.499999999999996669 ) ;
#85 = ORIENTED_EDGE ( 'NONE', *, *, #265, .F. ) ;
#86 = CARTESIAN_POINT ( 'NONE',  ( 3.128409417977943304E-16, -0.1200000000000000094, 0.08960120689101290503 ) ) ;
#87 = CARTESIAN_POINT ( 'NONE',  ( -0.1199999999999982608, 0.0000000000000000000, 0.5000000000000004441 ) ) ;
#88 = DIRECTION ( 'NONE',  ( 4.212971753347078429E-31, 1.000000000000000000, 1.185846126156020475E-16 ) ) ;
#89 = DIRECTION ( 'NONE',  ( -4.275831445896958607E-31, -1.000000000000000000, -1.224646799147353207E-16 ) ) ;
#90 = CARTESIAN_POINT ( 'NONE',  ( 5.237222008264718399E-17, 0.2000000000000000389, 0.01500000000000005322 ) ) ;
#91 = CIRCLE ( 'NONE', #210, 1.200000000000004396 ) ;
#92 = DESIGN_CONTEXT ( 'detailed design', #199, 'design' ) ;
#93 = PRODUCT_DEFINITION_SHAPE ( 'NONE', 'NONE',  #72 ) ;
#94 = DIRECTION ( 'NONE',  ( -3.491481338843133355E-15, 1.224646799147353207E-16, -1.000000000000000000 ) ) ;
#95 = VERTEX_POINT ( 'NONE', #62 ) ;
#96 = FACE_OUTER_BOUND ( 'NONE', #10, .T. ) ;
#97 = CARTESIAN_POINT ( 'NONE',  ( 3.128409417977934429E-16, -1.097298312188184088E-17, 0.08960120689101264135 ) ) ;
#98 = CARTESIAN_POINT ( 'NONE',  ( 0.0000000000000000000, 0.0000000000000000000, 0.0000000000000000000 ) ) ;
#99 = AXIS2_PLACEMENT_3D ( 'NONE', #80, #49, #369 ) ;
#100 = CARTESIAN_POINT ( 'NONE',  ( 3.128409417977934922E-16, 0.1199999999999999956, 0.08960120689101265523 ) ) ;
#101 = LOCAL_TIME ( 14, 0, 55.00000000000000000, #231 ) ;
#102 = PERSON_AND_ORGANIZATION ( #103, #35 ) ;
#103 = PERSON ( 'UNSPECIFIED', 'UNSPECIFIED', 'UNSPECIFIED', ('UNSPECIFIED'), ('UNSPECIFIED'), ('UNSPECIFIED') ) ;
#104 = PLANE ( 'NONE',  #258 ) ;
#105 = ORIENTED_EDGE ( 'NONE', *, *, #147, .F. ) ;
#106 = EDGE_LOOP ( 'NONE', ( #321 ) ) ;
#107 = FACE_OUTER_BOUND ( 'NONE', #106, .T. ) ;
#108 = EDGE_LOOP ( 'NONE', ( #251, #23, #17, #47 ) ) ;
#109 = DIRECTION ( 'NONE',  ( 4.275831445896958607E-31, 1.000000000000000000, 1.224646799147353207E-16 ) ) ;
#110 = CC_DESIGN_SECURITY_CLASSIFICATION ( #254, ( #317 ) ) ;
#111 = CIRCLE ( 'NONE', #279, 0.2000000000000000111 ) ;
#112 = ORIENTED_EDGE ( 'NONE', *, *, #305, .T. ) ;
#113 = DIRECTION ( 'NONE',  ( 4.275831445896958607E-31, 1.000000000000000000, 1.224646799147353207E-16 ) ) ;
#114 = VERTEX_POINT ( 'NONE', #358 ) ;
#115 = ADVANCED_FACE ( 'NONE', ( #107, #237 ), #236, .T. ) ;
#116 = APPROVAL ( #233, 'UNSPECIFIED' ) ;
#117 = LOCAL_TIME ( 14, 0, 55.00000000000000000, #33 ) ;
#118 = ADVANCED_FACE ( 'NONE', ( #239, #334 ), #217, .T. ) ;
#119 = CARTESIAN_POINT ( 'NONE',  ( 3.128409417977934429E-16, -1.097298312188184088E-17, 0.08960120689101264135 ) ) ;
#120 = CYLINDRICAL_SURFACE ( 'NONE', #71, 0.1200000000000000094 ) ;
#121 = DIRECTION ( 'NONE',  ( 4.212971753347078429E-31, 1.000000000000000000, 1.185846126156020475E-16 ) ) ;
#122 = CC_DESIGN_PERSON_AND_ORGANIZATION_ASSIGNMENT ( #11, #161, ( #155 ) ) ;
#123 = PLANE ( 'NONE',  #146 ) ;
#124 = DIRECTION ( 'NONE',  ( 0.0000000000000000000, 1.000000000000000000, 0.0000000000000000000 ) ) ;
#125 = PLANE ( 'NONE',  #339 ) ;
#126 = DIRECTION ( 'NONE',  ( -3.491481338843133750E-15, 0.0000000000000000000, -1.000000000000000000 ) ) ;
#127 = DIRECTION ( 'NONE',  ( 0.0000000000000000000, -1.000000000000000000, 0.0000000000000000000 ) ) ;
#128 = DIRECTION ( 'NONE',  ( 4.012354050806740777E-31, 1.000000000000000000, 1.129377263005733621E-16 ) ) ;
#129 = CC_DESIGN_PERSON_AND_ORGANIZATION_ASSIGNMENT ( #329, #382, ( #317 ) ) ;
#130 = PERSON_AND_ORGANIZATION_ROLE ( 'creator' ) ;
#131 =( NAMED_UNIT ( * ) PLANE_ANGLE_UNIT ( ) SI_UNIT ( $, .RADIAN. ) );
#132 = AXIS2_PLACEMENT_3D ( 'NONE', #245, #392, #157 ) ;
#133 = VERTEX_POINT ( 'NONE', #2 ) ;
#134 = CARTESIAN_POINT ( 'NONE',  ( 1.595606971851311880E-13, 1.499999999999998668, 45.69999999999999574 ) ) ;
#135 = COORDINATED_UNIVERSAL_TIME_OFFSET ( 1, 0, .AHEAD. ) ;
#136 = APPROVAL_PERSON_ORGANIZATION ( #9, #228, #320 ) ;
#137 = DIRECTION ( 'NONE',  ( 3.491481338843133355E-15, -0.0000000000000000000, 1.000000000000000000 ) ) ;
#138 = VECTOR ( 'NONE', #27, 1000.000000000000000 ) ;
#139 = CARTESIAN_POINT ( 'NONE',  ( 3.696846937187135663E-15, -1.296679354461051282E-16, 1.058819045102514567 ) ) ;
#140 = CC_DESIGN_DATE_AND_TIME_ASSIGNMENT ( #164, #43, ( #254 ) ) ;
#141 = EDGE_LOOP ( 'NONE', ( #383 ) ) ;
#142 = ADVANCED_FACE ( 'NONE', ( #285 ), #125, .F. ) ;
#143 = LINE ( 'NONE', #204, #1 ) ;
#144 = ORIENTED_EDGE ( 'NONE', *, *, #75, .F. ) ;
#145 = EDGE_LOOP ( 'NONE', ( #361, #380, #85, #105 ) ) ;
#146 = AXIS2_PLACEMENT_3D ( 'NONE', #290, #59, #28 ) ;
#147 = EDGE_CURVE ( 'NONE', #208, #83, #282, .T. ) ;
#148 = CARTESIAN_POINT ( 'NONE',  ( -0.1199999999999997041, 0.02975885854519982540, 0.08960120689104955627 ) ) ;
#149 = CARTESIAN_POINT ( 'NONE',  ( -0.1200000000000000094, 0.1600000000000000033, 4.189777606611759928E-16 ) ) ;
#150 = FACE_OUTER_BOUND ( 'NONE', #141, .T. ) ;
#151 = CYLINDRICAL_SURFACE ( 'NONE', #132, 1.500000000000000444 ) ;
#152 = FACE_OUTER_BOUND ( 'NONE', #350, .T. ) ;
#153 = DIRECTION ( 'NONE',  ( 1.000000000000000000, 0.0000000000000000000, -3.491481338843133355E-15 ) ) ;
#154 = CARTESIAN_POINT ( 'NONE',  ( 5.237222008264717782E-17, -1.836970198721036143E-18, 0.01500000000000005149 ) ) ;
#155 = PRODUCT ( '997977', '997977', '', ( #160 ) ) ;
#156 = AXIS2_PLACEMENT_3D ( 'NONE', #97, #60, #309 ) ;
#157 = DIRECTION ( 'NONE',  ( 4.275831445896958607E-31, 1.000000000000000000, 1.224646799147353207E-16 ) ) ;
#158 = VERTEX_POINT ( 'NONE', #100 ) ;
#159 = CALENDAR_DATE ( 2021, 3, 12 ) ;
#160 = MECHANICAL_CONTEXT ( 'NONE', #176, 'mechanical' ) ;
#161 = PERSON_AND_ORGANIZATION_ROLE ( 'design_owner' ) ;
#162 = AXIS2_PLACEMENT_3D ( 'NONE', #119, #212, #182 ) ;
#163 = EDGE_CURVE ( 'NONE', #186, #186, #257, .T. ) ;
#164 = DATE_AND_TIME ( #48, #53 ) ;
#165 = DIRECTION ( 'NONE',  ( 3.491481338843133355E-15, -1.224646799147353207E-16, 1.000000000000000000 ) ) ;
#166 = EDGE_LOOP ( 'NONE', ( #335 ) ) ;
#167 = ORIENTED_EDGE ( 'NONE', *, *, #260, .T. ) ;
#168 = AXIS2_PLACEMENT_3D ( 'NONE', #252, #371, #313 ) ;
#169 = ORIENTED_EDGE ( 'NONE', *, *, #222, .T. ) ;
#170 = PERSON_AND_ORGANIZATION_ROLE ( 'design_supplier' ) ;
#171 = DIRECTION ( 'NONE',  ( 4.275831445896958607E-31, 1.000000000000000000, 1.224646799147353207E-16 ) ) ;
#172 = ORIENTED_EDGE ( 'NONE', *, *, #265, .T. ) ;
#173 = DIRECTION ( 'NONE',  ( -2.381184547279827482E-15, 0.7313537016191721252, -0.6819983600624967002 ) ) ;
#174 = CIRCLE ( 'NONE', #32, 0.2000000000000000111 ) ;
#175 = ORIENTED_EDGE ( 'NONE', *, *, #375, .T. ) ;
#176 = APPLICATION_CONTEXT ( 'configuration controlled 3d designs of mechanical parts and assemblies' ) ;
#177 = EDGE_LOOP ( 'NONE', ( #356 ) ) ;
#178 = DIRECTION ( 'NONE',  ( -3.491481338843133355E-15, 0.0000000000000000000, -1.000000000000000000 ) ) ;
#179 = CIRCLE ( 'NONE', #162, 0.1200000000000000094 ) ;
#180 = ADVANCED_FACE ( 'NONE', ( #96, #224 ), #310, .T. ) ;
#181 = FACE_OUTER_BOUND ( 'NONE', #302, .T. ) ;
#182 = DIRECTION ( 'NONE',  ( 4.012354050806740777E-31, 1.000000000000000000, 1.129377263005733621E-16 ) ) ;
#183 = LINE ( 'NONE', #87, #45 ) ;
#184 = LINE ( 'NONE', #287, #138 ) ;
#185 = CARTESIAN_POINT ( 'NONE',  ( 1.745740669421566678E-15, 0.0000000000000000000, 0.5000000000000000000 ) ) ;
#186 = VERTEX_POINT ( 'NONE', #316 ) ;
#187 = EDGE_CURVE ( 'NONE', #291, #291, #91, .T. ) ;
#188 = CC_DESIGN_APPROVAL ( #207, ( #254 ) ) ;
#189 = CARTESIAN_POINT ( 'NONE',  ( -0.1200000000000000094, 0.1600000000000000033, 4.385721094475336500E-16 ) ) ;
#190 = ORIENTED_EDGE ( 'NONE', *, *, #50, .F. ) ;
#191 = ADVANCED_FACE ( 'NONE', ( #214, #249 ), #151, .T. ) ;
#192 = CARTESIAN_POINT ( 'NONE',  ( 2.123477964494623909E-14, 1.499999999999996003, 6.081882612032567081 ) ) ;
#193 = VECTOR ( 'NONE', #223, 1000.000000000000000 ) ;
#194 = CLOSED_SHELL ( 'NONE', ( #36, #333, #6, #200, #209, #142, #256 ) ) ;
#195 = VECTOR ( 'NONE', #173, 1000.000000000000000 ) ;
#196 = ORIENTED_EDGE ( 'NONE', *, *, #359, .T. ) ;
#197 = CARTESIAN_POINT ( 'NONE',  ( 7.035440243705127173E-16, -2.467700250662304664E-17, 0.2015030172275315279 ) ) ;
#198 = DIRECTION ( 'NONE',  ( 0.0000000000000000000, 1.000000000000000000, 0.0000000000000000000 ) ) ;
#199 = APPLICATION_CONTEXT ( 'configuration controlled 3d designs of mechanical parts and assemblies' ) ;
#200 = ADVANCED_FACE ( 'NONE', ( #181 ), #342, .T. ) ;
#201 = DATE_AND_TIME ( #78, #101 ) ;
#202 = ORIENTED_EDGE ( 'NONE', *, *, #294, .F. ) ;
#203 = VECTOR ( 'NONE', #127, 1000.000000000000000 ) ;
#204 = CARTESIAN_POINT ( 'NONE',  ( 3.128409417977944290E-16, 0.2000000000000000111, 0.08960120689101293279 ) ) ;
#205 = DATE_AND_TIME ( #379, #268 ) ;
#206 = ORIENTED_EDGE ( 'NONE', *, *, #244, .F. ) ;
#207 = APPROVAL ( #303, 'UNSPECIFIED' ) ;
#208 = VERTEX_POINT ( 'NONE', #149 ) ;
#209 = ADVANCED_FACE ( 'NONE', ( #280 ), #120, .T. ) ;
#210 = AXIS2_PLACEMENT_3D ( 'NONE', #61, #94, #315 ) ;
#211 = PRODUCT_RELATED_PRODUCT_CATEGORY ( 'detail', '', ( #155 ) ) ;
#212 = DIRECTION ( 'NONE',  ( -3.491481338843133355E-15, 1.224646799147353207E-16, -1.000000000000000000 ) ) ;
#213 = EDGE_CURVE ( 'NONE', #19, #332, #340, .T. ) ;
#214 = FACE_OUTER_BOUND ( 'NONE', #308, .T. ) ;
#215 =( GEOMETRIC_REPRESENTATION_CONTEXT ( 3 ) GLOBAL_UNCERTAINTY_ASSIGNED_CONTEXT ( ( #37 ) ) GLOBAL_UNIT_ASSIGNED_CONTEXT ( ( #39, #131, #5 ) ) REPRESENTATION_CONTEXT ( 'NONE', 'WORKASPACE' ) );
#216 = FACE_OUTER_BOUND ( 'NONE', #108, .T. ) ;
#217 = CONICAL_SURFACE ( 'NONE', #99, 1.500000000000004441, 0.7853981633974453924 ) ;
#218 = DIRECTION ( 'NONE',  ( -3.491481338843133355E-15, 0.0000000000000000000, -1.000000000000000000 ) ) ;
#219 = DIRECTION ( 'NONE',  ( -3.491481338843133355E-15, 1.224646799147353207E-16, -1.000000000000000000 ) ) ;
#220 = ORIENTED_EDGE ( 'NONE', *, *, #375, .F. ) ;
#221 = DIRECTION ( 'NONE',  ( 3.491481338843133355E-15, -1.224646799147353207E-16, 1.000000000000000000 ) ) ;
#222 = EDGE_CURVE ( 'NONE', #300, #83, #183, .T. ) ;
#223 = DIRECTION ( 'NONE',  ( -3.491481338843133355E-15, 1.224646799147353207E-16, -1.000000000000000000 ) ) ;
#224 = FACE_BOUND ( 'NONE', #73, .T. ) ;
#225 = CARTESIAN_POINT ( 'NONE',  ( -0.1199999999999996902, 0.0000000000000000000, 0.08960120689101322422 ) ) ;
#226 = AXIS2_PLACEMENT_3D ( 'NONE', #396, #63, #344 ) ;
#227 = PERSON_AND_ORGANIZATION ( #103, #35 ) ;
#228 = APPROVAL ( #374, 'UNSPECIFIED' ) ;
#229 = MANIFOLD_SOLID_BREP ( 'Corps-Déplacer/Copier1[1]', #194 ) ;
#230 = ADVANCED_FACE ( 'NONE', ( #26 ), #123, .T. ) ;
#231 = COORDINATED_UNIVERSAL_TIME_OFFSET ( 1, 0, .AHEAD. ) ;
#232 = ORIENTED_EDGE ( 'NONE', *, *, #213, .T. ) ;
#233 = APPROVAL_STATUS ( 'not_yet_approved' ) ;
#234 = AXIS2_PLACEMENT_3D ( 'NONE', #338, #312, #397 ) ;
#235 = DIRECTION ( 'NONE',  ( -3.491481338843133355E-15, 1.224646799147353207E-16, -1.000000000000000000 ) ) ;
#236 = CYLINDRICAL_SURFACE ( 'NONE', #70, 0.1200000000000000927 ) ;
#237 = FACE_OUTER_BOUND ( 'NONE', #357, .T. ) ;
#238 = SECURITY_CLASSIFICATION_LEVEL ( 'unclassified' ) ;
#239 = FACE_BOUND ( 'NONE', #166, .T. ) ;
#240 = CIRCLE ( 'NONE', #66, 0.1200000000000000094 ) ;
#241 = ORIENTED_EDGE ( 'NONE', *, *, #284, .T. ) ;
#242 = AXIS2_PLACEMENT_3D ( 'NONE', #370, #395, #124 ) ;
#243 = LINE ( 'NONE', #86, #368 ) ;
#244 = EDGE_CURVE ( 'NONE', #133, #300, #179, .T. ) ;
#245 = CARTESIAN_POINT ( 'NONE',  ( 0.0000000000000000000, 0.0000000000000000000, 0.0000000000000000000 ) ) ;
#246 = CARTESIAN_POINT ( 'NONE',  ( 5.237222008264717782E-17, -1.836970198721036143E-18, 0.01500000000000005149 ) ) ;
#247 = CARTESIAN_POINT ( 'NONE',  ( -0.1199999999999982608, 0.0000000000000000000, 0.5000000000000004441 ) ) ;
#248 = DIRECTION ( 'NONE',  ( 1.000000000000000000, 0.0000000000000000000, -3.491481338843133355E-15 ) ) ;
#249 = FACE_OUTER_BOUND ( 'NONE', #177, .T. ) ;
#250 = DIRECTION ( 'NONE',  ( -3.491481338843133355E-15, 1.224646799147353207E-16, -1.000000000000000000 ) ) ;
#251 = ORIENTED_EDGE ( 'NONE', *, *, #294, .T. ) ;
#252 = CARTESIAN_POINT ( 'NONE',  ( 2.793185071074507868E-15, -9.797174393178829848E-17, 0.8000000000000003775 ) ) ;
#253 = DIRECTION ( 'NONE',  ( -1.000000000000000000, 0.0000000000000000000, 3.491481338843132961E-15 ) ) ;
#254 = SECURITY_CLASSIFICATION ( '', '', #238 ) ;
#255 = COORDINATED_UNIVERSAL_TIME_OFFSET ( 1, 0, .AHEAD. ) ;
#256 = ADVANCED_FACE ( 'NONE', ( #278 ), #65, .T. ) ;
#257 = CIRCLE ( 'NONE', #168, 0.1200000000000001898 ) ;
#258 = AXIS2_PLACEMENT_3D ( 'NONE', #81, #235, #171 ) ;
#259 = DIRECTION ( 'NONE',  ( 0.0000000000000000000, 0.0000000000000000000, 1.000000000000000000 ) ) ;
#260 = EDGE_CURVE ( 'NONE', #133, #19, #243, .T. ) ;
#261 = DATE_AND_TIME ( #159, #117 ) ;
#262 = VERTEX_POINT ( 'NONE', #134 ) ;
#263 = VERTEX_POINT ( 'NONE', #90 ) ;
#264 = EDGE_LOOP ( 'NONE', ( #175, #167, #232, #384, #385 ) ) ;
#265 = EDGE_CURVE ( 'NONE', #83, #19, #7, .T. ) ;
#266 = LOCAL_TIME ( 14, 0, 55.00000000000000000, #255 ) ;
#267 = PERSON_AND_ORGANIZATION ( #103, #35 ) ;
#268 = LOCAL_TIME ( 14, 0, 55.00000000000000000, #40 ) ;
#269 = CONICAL_SURFACE ( 'NONE', #351, 0.2000000000000000111, 0.8203047484373372500 ) ;
#270 = CARTESIAN_POINT ( 'NONE',  ( -0.1200000000000000094, 0.0000000000000000000, 4.189777606611759928E-16 ) ) ;
#271 = DIRECTION ( 'NONE',  ( -3.491481338843133355E-15, 1.224646799147353207E-16, -1.000000000000000000 ) ) ;
#272 = CARTESIAN_POINT ( 'NONE',  ( 0.0000000000000000000, 0.0000000000000000000, 0.0000000000000000000 ) ) ;
#273 = APPROVAL_DATE_TIME ( #205, #207 ) ;
#274 = ORIENTED_EDGE ( 'NONE', *, *, #222, .F. ) ;
#275 = CC_DESIGN_APPROVAL ( #228, ( #317 ) ) ;
#276 = AXIS2_PLACEMENT_3D ( 'NONE', #98, #259, #324 ) ;
#277 = EDGE_CURVE ( 'NONE', #158, #158, #240, .T. ) ;
#278 = FACE_OUTER_BOUND ( 'NONE', #264, .T. ) ;
#279 = AXIS2_PLACEMENT_3D ( 'NONE', #341, #336, #54 ) ;
#280 = FACE_OUTER_BOUND ( 'NONE', #22, .T. ) ;
#281 = CARTESIAN_POINT ( 'NONE',  ( 2.793185071074506684E-15, 0.0000000000000000000, 0.8000000000000000444 ) ) ;
#282 = LINE ( 'NONE', #56, #203 ) ;
#283 = DIRECTION ( 'NONE',  ( 4.338461857225400392E-31, 1.000000000000000000, 1.224646799147353207E-16 ) ) ;
#284 = EDGE_CURVE ( 'NONE', #14, #208, #3, .T. ) ;
#285 = FACE_OUTER_BOUND ( 'NONE', #20, .T. ) ;
#286 = ADVANCED_BREP_SHAPE_REPRESENTATION ( '997977', ( #229, #79, #276 ), #215 ) ;
#287 = CARTESIAN_POINT ( 'NONE',  ( 3.128409417977944290E-16, 0.2000000000000000111, 0.08960120689101293279 ) ) ;
#288 = EDGE_CURVE ( 'NONE', #208, #332, #111, .T. ) ;
#289 = AXIS2_PLACEMENT_3D ( 'NONE', #51, #165, #299 ) ;
#290 = CARTESIAN_POINT ( 'NONE',  ( 3.128409417977939360E-16, 0.1199999999999999956, 0.08960120689101279401 ) ) ;
#291 = VERTEX_POINT ( 'NONE', #31 ) ;
#292 = APPROVAL_PERSON_ORGANIZATION ( #15, #207, #298 ) ;
#293 = B_SPLINE_CURVE_WITH_KNOTS ( 'NONE', 3,
 ( #225, #148, #29, #345, #24, #57 ),
 .UNSPECIFIED., .F., .F.,
 ( 4, 2, 4 ),
 ( 0.0002477307631512185851, 0.0003369911690939855309, 0.0004262515750367524767 ),
 .UNSPECIFIED. ) ;
#294 = EDGE_CURVE ( 'NONE', #300, #114, #330, .T. ) ;
#295 = CALENDAR_DATE ( 2021, 3, 12 ) ;
#296 = ORIENTED_EDGE ( 'NONE', *, *, #277, .T. ) ;
#297 = ORIENTED_EDGE ( 'NONE', *, *, #147, .T. ) ;
#298 = APPROVAL_ROLE ( '' ) ;
#299 = DIRECTION ( 'NONE',  ( -4.275831445896958607E-31, -1.000000000000000000, -1.224646799147353207E-16 ) ) ;
#300 = VERTEX_POINT ( 'NONE', #364 ) ;
#301 = CYLINDRICAL_SURFACE ( 'NONE', #354, 0.2000000000000000111 ) ;
#302 = EDGE_LOOP ( 'NONE', ( #206, #220, #202 ) ) ;
#303 = APPROVAL_STATUS ( 'not_yet_approved' ) ;
#304 = EDGE_LOOP ( 'NONE', ( #328 ) ) ;
#305 = EDGE_CURVE ( 'NONE', #300, #14, #293, .T. ) ;
#306 = CARTESIAN_POINT ( 'NONE',  ( 0.0000000000000000000, 0.0000000000000000000, 0.0000000000000000000 ) ) ;
#307 = ORIENTED_EDGE ( 'NONE', *, *, #284, .F. ) ;
#308 = EDGE_LOOP ( 'NONE', ( #77 ) ) ;
#309 = DIRECTION ( 'NONE',  ( 4.012354050806740777E-31, 1.000000000000000000, 1.129377263005733621E-16 ) ) ;
#310 = CONICAL_SURFACE ( 'NONE', #226, 0.1540741737109299070, 0.2617993877991428020 ) ;
#311 = CARTESIAN_POINT ( 'NONE',  ( 2.365919782978951696E-32, 0.2000000000000000111, 6.776263578034402713E-18 ) ) ;
#312 = DIRECTION ( 'NONE',  ( -3.491481338843133355E-15, 1.224646799147353207E-16, -1.000000000000000000 ) ) ;
#313 = DIRECTION ( 'NONE',  ( 0.0000000000000000000, 1.000000000000000000, 0.0000000000000000000 ) ) ;
#314 = ADVANCED_FACE ( 'NONE', ( #152, #150 ), #58, .F. ) ;
#315 = DIRECTION ( 'NONE',  ( 0.0000000000000000000, 1.000000000000000000, 0.0000000000000000000 ) ) ;
#316 = CARTESIAN_POINT ( 'NONE',  ( 2.793185071074507868E-15, 0.1200000000000000927, 0.8000000000000003775 ) ) ;
#317 = PRODUCT_DEFINITION_FORMATION_WITH_SPECIFIED_SOURCE ( 'ANY', '', #155, .NOT_KNOWN. ) ;
#318 = VECTOR ( 'NONE', #363, 1000.000000000000000 ) ;
#319 = CARTESIAN_POINT ( 'NONE',  ( 3.128409417977934429E-16, -1.097298312188184088E-17, 0.08960120689101264135 ) ) ;
#320 = APPROVAL_ROLE ( '' ) ;
#321 = ORIENTED_EDGE ( 'NONE', *, *, #163, .T. ) ;
#322 = AXIS2_PLACEMENT_3D ( 'NONE', #366, #221, #89 ) ;
#323 = CLOSED_SHELL ( 'NONE', ( #230, #115, #314, #180, #191, #118, #68 ) ) ;
#324 = DIRECTION ( 'NONE',  ( 1.000000000000000000, 0.0000000000000000000, 0.0000000000000000000 ) ) ;
#325 = EDGE_LOOP ( 'NONE', ( #386 ) ) ;
#326 = FACE_OUTER_BOUND ( 'NONE', #304, .T. ) ;
#327 = ORIENTED_EDGE ( 'NONE', *, *, #365, .T. ) ;
#328 = ORIENTED_EDGE ( 'NONE', *, *, #187, .F. ) ;
#329 = PERSON_AND_ORGANIZATION ( #103, #35 ) ;
#330 = CIRCLE ( 'NONE', #156, 0.1200000000000000094 ) ;
#331 = FACE_OUTER_BOUND ( 'NONE', #349, .T. ) ;
#332 = VERTEX_POINT ( 'NONE', #343 ) ;
#333 = ADVANCED_FACE ( 'NONE', ( #216 ), #269, .T. ) ;
#334 = FACE_OUTER_BOUND ( 'NONE', #325, .T. ) ;
#335 = ORIENTED_EDGE ( 'NONE', *, *, #187, .T. ) ;
#336 = DIRECTION ( 'NONE',  ( -3.491481338843133355E-15, 1.224646799147353207E-16, -1.000000000000000000 ) ) ;
#337 = DIRECTION ( 'NONE',  ( -1.000000000000000000, 0.0000000000000000000, 3.614007241618347587E-15 ) ) ;
#338 = CARTESIAN_POINT ( 'NONE',  ( 2.123477964494623909E-14, -7.448158073615627083E-16, 6.081882612032567081 ) ) ;
#339 = AXIS2_PLACEMENT_3D ( 'NONE', #247, #153, #394 ) ;
#340 = LINE ( 'NONE', #311, #318 ) ;
#341 = CARTESIAN_POINT ( 'NONE',  ( -6.413747168845437253E-32, 2.249639673992786070E-33, -1.836970198721029441E-17 ) ) ;
#342 = PLANE ( 'NONE',  #322 ) ;
#343 = CARTESIAN_POINT ( 'NONE',  ( 2.365919782978951696E-32, 0.2000000000000000111, 6.776263578034402713E-18 ) ) ;
#344 = DIRECTION ( 'NONE',  ( 0.0000000000000000000, -1.000000000000000000, 0.0000000000000000000 ) ) ;
#345 = CARTESIAN_POINT ( 'NONE',  ( -0.1199999999999998429, 0.1117900961190548409, 0.04988201403649224902 ) ) ;
#346 = APPROVAL_PERSON_ORGANIZATION ( #102, #116, #353 ) ;
#347 = DATE_AND_TIME ( #295, #266 ) ;
#348 = VERTEX_POINT ( 'NONE', #192 ) ;
#349 = EDGE_LOOP ( 'NONE', ( #196, #144, #76, #307 ) ) ;
#350 = EDGE_LOOP ( 'NONE', ( #44 ) ) ;
#351 = AXIS2_PLACEMENT_3D ( 'NONE', #154, #391, #121 ) ;
#352 = PERSON_AND_ORGANIZATION_ROLE ( 'classification_officer' ) ;
#353 = APPROVAL_ROLE ( '' ) ;
#354 = AXIS2_PLACEMENT_3D ( 'NONE', #306, #388, #113 ) ;
#355 = ORIENTED_EDGE ( 'NONE', *, *, #277, .F. ) ;
#356 = ORIENTED_EDGE ( 'NONE', *, *, #365, .F. ) ;
#357 = EDGE_LOOP ( 'NONE', ( #355 ) ) ;
#358 = CARTESIAN_POINT ( 'NONE',  ( 3.128409417977944290E-16, 0.1200000000000000233, 0.08960120689101293279 ) ) ;
#359 = EDGE_CURVE ( 'NONE', #14, #263, #174, .T. ) ;
#360 = DIRECTION ( 'NONE',  ( -3.491481338843133355E-15, 1.224646799147353207E-16, -1.000000000000000000 ) ) ;
#361 = ORIENTED_EDGE ( 'NONE', *, *, #288, .T. ) ;
#362 = CARTESIAN_POINT ( 'NONE',  ( 0.0000000000000000000, 0.0000000000000000000, 0.0000000000000000000 ) ) ;
#363 = DIRECTION ( 'NONE',  ( 3.696749660904612746E-31, 1.000000000000000000, 1.058791184067875547E-16 ) ) ;
#364 = CARTESIAN_POINT ( 'NONE',  ( -0.1199999999999996902, 0.0000000000000000000, 0.08960120689101322422 ) ) ;
#365 = EDGE_CURVE ( 'NONE', #348, #348, #84, .T. ) ;
#366 = CARTESIAN_POINT ( 'NONE',  ( 3.128409417977939360E-16, 0.1199999999999999956, 0.08960120689101279401 ) ) ;
#367 = CARTESIAN_POINT ( 'NONE',  ( 0.0000000000000000000, 0.0000000000000000000, 0.0000000000000000000 ) ) ;
#368 = VECTOR ( 'NONE', #126, 1000.000000000000000 ) ;
#369 = DIRECTION ( 'NONE',  ( 0.0000000000000000000, 1.000000000000000000, 0.0000000000000000000 ) ) ;
#370 = CARTESIAN_POINT ( 'NONE',  ( 1.595606971851311880E-13, -5.596635872103403844E-15, 45.69999999999999574 ) ) ;
#371 = DIRECTION ( 'NONE',  ( -3.491481338843133355E-15, 1.224646799147353207E-16, -1.000000000000000000 ) ) ;
#372 = DIRECTION ( 'NONE',  ( 3.491481338843133355E-15, -0.0000000000000000000, 1.000000000000000000 ) ) ;
#373 = AXIS2_PLACEMENT_3D ( 'NONE', #362, #248, #178 ) ;
#374 = APPROVAL_STATUS ( 'not_yet_approved' ) ;
#375 = EDGE_CURVE ( 'NONE', #114, #133, #184, .T. ) ;
#376 = APPLICATION_PROTOCOL_DEFINITION ( 'international standard', 'config_control_design', 1994, #199 ) ;
#377 = EDGE_LOOP ( 'NONE', ( #296 ) ) ;
#378 = ORIENTED_EDGE ( 'NONE', *, *, #260, .F. ) ;
#379 = CALENDAR_DATE ( 2021, 3, 12 ) ;
#380 = ORIENTED_EDGE ( 'NONE', *, *, #213, .F. ) ;
#381 = CARTESIAN_POINT ( 'NONE',  ( -0.1199999999999999539, 0.1600000000000000033, 0.01500000000000049384 ) ) ;
#382 = PERSON_AND_ORGANIZATION_ROLE ( 'creator' ) ;
#383 = ORIENTED_EDGE ( 'NONE', *, *, #163, .F. ) ;
#384 = ORIENTED_EDGE ( 'NONE', *, *, #75, .T. ) ;
#385 = ORIENTED_EDGE ( 'NONE', *, *, #42, .F. ) ;
#386 = ORIENTED_EDGE ( 'NONE', *, *, #390, .F. ) ;
#387 = SHAPE_DEFINITION_REPRESENTATION ( #93, #286 ) ;
#388 = DIRECTION ( 'NONE',  ( -3.491481338843133355E-15, 1.224646799147353207E-16, -1.000000000000000000 ) ) ;
#389 = CC_DESIGN_DATE_AND_TIME_ASSIGNMENT ( #347, #67, ( #72 ) ) ;
#390 = EDGE_CURVE ( 'NONE', #262, #262, #13, .T. ) ;
#391 = DIRECTION ( 'NONE',  ( -3.491481338843133355E-15, 1.224646799147353207E-16, -1.000000000000000000 ) ) ;
#392 = DIRECTION ( 'NONE',  ( -3.491481338843133355E-15, 1.224646799147353207E-16, -1.000000000000000000 ) ) ;
#393 = DIRECTION ( 'NONE',  ( -3.491481338843133355E-15, 1.224646799147353207E-16, -1.000000000000000000 ) ) ;
#394 = DIRECTION ( 'NONE',  ( -3.491481338843133355E-15, 0.0000000000000000000, -1.000000000000000000 ) ) ;
#395 = DIRECTION ( 'NONE',  ( -3.491481338843133355E-15, 1.224646799147353207E-16, -1.000000000000000000 ) ) ;
#396 = CARTESIAN_POINT ( 'NONE',  ( 3.696846937187135663E-15, -1.296679354461051282E-16, 1.058819045102514567 ) ) ;
#397 = DIRECTION ( 'NONE',  ( 0.0000000000000000000, 1.000000000000000000, 0.0000000000000000000 ) ) ;
ENDSEC;
END-ISO-10303-21;
