ISO-10303-21;
HEADER;
FILE_DESCRIPTION (( 'STEP AP203' ),
    '1' );
FILE_NAME ('997976.step',
    '2021-12-03T13:00:54',
    ( '' ),
    ( '' ),
    'SwSTEP 2.0',
    'SolidWorks 2019',
    '' );
FILE_SCHEMA (( 'CONFIG_CONTROL_DESIGN' ));
ENDSEC;

DATA;
#1 = CIRCLE ( 'NONE', #270, 0.1200000000000000094 ) ;
#2 = EDGE_CURVE ( 'NONE', #240, #23, #380, .T. ) ;
#3 = DATE_TIME_ROLE ( 'classification_date' ) ;
#4 = APPROVAL_STATUS ( 'not_yet_approved' ) ;
#5 = CARTESIAN_POINT ( 'NONE',  ( 7.035440243705127173E-16, -2.467700250662304664E-17, 0.2015030172275315279 ) ) ;
#6 = DIRECTION ( 'NONE',  ( -3.491481338843133355E-15, 1.224646799147353207E-16, -1.000000000000000000 ) ) ;
#7 = VECTOR ( 'NONE', #290, 1000.000000000000000 ) ;
#8 =( NAMED_UNIT ( * ) PLANE_ANGLE_UNIT ( ) SI_UNIT ( $, .RADIAN. ) );
#9 = ORIENTED_EDGE ( 'NONE', *, *, #331, .T. ) ;
#10 = DIRECTION ( 'NONE',  ( 4.012354050806740777E-31, 1.000000000000000000, 1.129377263005733621E-16 ) ) ;
#11 = DIRECTION ( 'NONE',  ( 1.000000000000000000, 0.0000000000000000000, 0.0000000000000000000 ) ) ;
#12 = FACE_OUTER_BOUND ( 'NONE', #305, .T. ) ;
#13 = PERSON_AND_ORGANIZATION ( #98, #248 ) ;
#14 = EDGE_CURVE ( 'NONE', #288, #63, #336, .T. ) ;
#15 = FACE_OUTER_BOUND ( 'NONE', #172, .T. ) ;
#16 = APPROVAL_PERSON_ORGANIZATION ( #32, #64, #307 ) ;
#17 = PLANE ( 'NONE',  #167 ) ;
#18 = CARTESIAN_POINT ( 'NONE',  ( 2.300254401649881138E-15, -8.068206348021098514E-17, 0.6588190451025143224 ) ) ;
#19 = ORIENTED_EDGE ( 'NONE', *, *, #55, .F. ) ;
#20 = CARTESIAN_POINT ( 'NONE',  ( 2.365919782978951696E-32, 0.2000000000000000111, 6.776263578034402713E-18 ) ) ;
#21 = AXIS2_PLACEMENT_3D ( 'NONE', #71, #373, #189 ) ;
#22 = DIRECTION ( 'NONE',  ( 4.012354050806740777E-31, 1.000000000000000000, 1.129377263005733621E-16 ) ) ;
#23 = VERTEX_POINT ( 'NONE', #198 ) ;
#24 = CARTESIAN_POINT ( 'NONE',  ( 0.0000000000000000000, 0.0000000000000000000, 0.0000000000000000000 ) ) ;
#25 = EDGE_CURVE ( 'NONE', #27, #288, #156, .T. ) ;
#26 = CONICAL_SURFACE ( 'NONE', #340, 1.500000000000004441, 0.7853981633974453924 ) ;
#27 = VERTEX_POINT ( 'NONE', #163 ) ;
#28 = EDGE_LOOP ( 'NONE', ( #95 ) ) ;
#29 = PERSON_AND_ORGANIZATION_ROLE ( 'creator' ) ;
#30 = SECURITY_CLASSIFICATION_LEVEL ( 'unclassified' ) ;
#31 = AXIS2_PLACEMENT_3D ( 'NONE', #289, #157, #123 ) ;
#32 = PERSON_AND_ORGANIZATION ( #98, #248 ) ;
#33 = CARTESIAN_POINT ( 'NONE',  ( 0.0000000000000000000, 0.0000000000000000000, 0.0000000000000000000 ) ) ;
#34 = CALENDAR_DATE ( 2021, 3, 12 ) ;
#35 = CARTESIAN_POINT ( 'NONE',  ( 3.128409417977944290E-16, 0.1200000000000000233, 0.08960120689101293279 ) ) ;
#36 = CC_DESIGN_PERSON_AND_ORGANIZATION_ASSIGNMENT ( #13, #124, ( #132 ) ) ;
#37 = CARTESIAN_POINT ( 'NONE',  ( 1.983818710940898890E-14, 1.499999999999996003, 5.681882612032566726 ) ) ;
#38 = DESIGN_CONTEXT ( 'detailed design', #197, 'design' ) ;
#39 = CARTESIAN_POINT ( 'NONE',  ( 3.128409417977944290E-16, 0.2000000000000000111, 0.08960120689101293279 ) ) ;
#40 = DIRECTION ( 'NONE',  ( -3.491481338843133355E-15, 1.224646799147353207E-16, -1.000000000000000000 ) ) ;
#41 = VERTEX_POINT ( 'NONE', #227 ) ;
#42 = DIRECTION ( 'NONE',  ( 4.275831445896958607E-31, 1.000000000000000000, 1.224646799147353207E-16 ) ) ;
#43 = EDGE_LOOP ( 'NONE', ( #364, #357, #395, #141, #162 ) ) ;
#44 = APPLICATION_PROTOCOL_DEFINITION ( 'international standard', 'config_control_design', 1994, #138 ) ;
#45 = ADVANCED_FACE ( 'NONE', ( #220 ), #321, .T. ) ;
#46 = FACE_OUTER_BOUND ( 'NONE', #81, .T. ) ;
#47 = EDGE_LOOP ( 'NONE', ( #348 ) ) ;
#48 = MECHANICAL_CONTEXT ( 'NONE', #138, 'mechanical' ) ;
#49 = LINE ( 'NONE', #134, #74 ) ;
#50 =( GEOMETRIC_REPRESENTATION_CONTEXT ( 3 ) GLOBAL_UNCERTAINTY_ASSIGNED_CONTEXT ( ( #371 ) ) GLOBAL_UNIT_ASSIGNED_CONTEXT ( ( #78, #8, #222 ) ) REPRESENTATION_CONTEXT ( 'NONE', 'WORKASPACE' ) );
#51 = CARTESIAN_POINT ( 'NONE',  ( -6.413747168845437253E-32, 2.249639673992786070E-33, -1.836970198721029441E-17 ) ) ;
#52 = VERTEX_POINT ( 'NONE', #102 ) ;
#53 = APPROVAL ( #90, 'UNSPECIFIED' ) ;
#54 = CARTESIAN_POINT ( 'NONE',  ( 5.237222008264717782E-17, -1.836970198721036143E-18, 0.01500000000000005149 ) ) ;
#55 = EDGE_CURVE ( 'NONE', #219, #219, #145, .T. ) ;
#56 = DIRECTION ( 'NONE',  ( -3.491481338843133355E-15, 1.224646799147353207E-16, -1.000000000000000000 ) ) ;
#57 = VECTOR ( 'NONE', #378, 1000.000000000000000 ) ;
#58 = LOCAL_TIME ( 14, 0, 54.00000000000000000, #173 ) ;
#59 = CC_DESIGN_PERSON_AND_ORGANIZATION_ASSIGNMENT ( #370, #177, ( #224 ) ) ;
#60 = EDGE_LOOP ( 'NONE', ( #246 ) ) ;
#61 = ORIENTED_EDGE ( 'NONE', *, *, #191, .F. ) ;
#62 = AXIS2_PLACEMENT_3D ( 'NONE', #51, #130, #296 ) ;
#63 = VERTEX_POINT ( 'NONE', #385 ) ;
#64 = APPROVAL ( #149, 'UNSPECIFIED' ) ;
#65 = APPROVAL_ROLE ( '' ) ;
#66 = APPROVAL_PERSON_ORGANIZATION ( #225, #53, #65 ) ;
#67 = DIRECTION ( 'NONE',  ( 0.0000000000000000000, 1.000000000000000000, 0.0000000000000000000 ) ) ;
#68 = PERSON_AND_ORGANIZATION ( #98, #248 ) ;
#69 = EDGE_CURVE ( 'NONE', #320, #320, #350, .T. ) ;
#70 = DIRECTION ( 'NONE',  ( -3.491481338843133355E-15, 1.224646799147353207E-16, -1.000000000000000000 ) ) ;
#71 = CARTESIAN_POINT ( 'NONE',  ( 1.606081415867841091E-13, -5.633375276077824704E-15, 46.00000000000000000 ) ) ;
#72 = DIRECTION ( 'NONE',  ( 4.275831445896958607E-31, 1.000000000000000000, 1.224646799147353207E-16 ) ) ;
#73 = FACE_BOUND ( 'NONE', #301, .T. ) ;
#74 = VECTOR ( 'NONE', #107, 1000.000000000000000 ) ;
#75 = DIRECTION ( 'NONE',  ( -1.000000000000000000, 0.0000000000000000000, 3.614007241618347587E-15 ) ) ;
#76 = ADVANCED_FACE ( 'NONE', ( #256, #96 ), #299, .F. ) ;
#77 = DIRECTION ( 'NONE',  ( -3.491481338843133355E-15, 1.224646799147353207E-16, -1.000000000000000000 ) ) ;
#78 =( LENGTH_UNIT ( ) NAMED_UNIT ( * ) SI_UNIT ( .MILLI., .METRE. ) );
#79 = DIRECTION ( 'NONE',  ( -3.491481338843133355E-15, 0.0000000000000000000, -1.000000000000000000 ) ) ;
#80 = PLANE ( 'NONE',  #114 ) ;
#81 = EDGE_LOOP ( 'NONE', ( #206 ) ) ;
#82 = VECTOR ( 'NONE', #381, 1000.000000000000000 ) ;
#83 = MANIFOLD_SOLID_BREP ( 'Corps-Déplacer/Copier1[1]', #171 ) ;
#84 = DIRECTION ( 'NONE',  ( 4.212971753347078429E-31, 1.000000000000000000, 1.185846126156020475E-16 ) ) ;
#85 = FACE_OUTER_BOUND ( 'NONE', #269, .T. ) ;
#86 = AXIS2_PLACEMENT_3D ( 'NONE', #18, #300, #327 ) ;
#87 = DIRECTION ( 'NONE',  ( 3.491481338843133355E-15, -0.0000000000000000000, 1.000000000000000000 ) ) ;
#88 = ORIENTED_EDGE ( 'NONE', *, *, #2, .F. ) ;
#89 = ORIENTED_EDGE ( 'NONE', *, *, #237, .F. ) ;
#90 = APPROVAL_STATUS ( 'not_yet_approved' ) ;
#91 = EDGE_LOOP ( 'NONE', ( #217 ) ) ;
#92 = COORDINATED_UNIVERSAL_TIME_OFFSET ( 1, 0, .AHEAD. ) ;
#93 = DATE_AND_TIME ( #241, #161 ) ;
#94 = CARTESIAN_POINT ( 'NONE',  ( -0.1199999999999999539, 0.1600000000000000033, 0.01500000000000049384 ) ) ;
#95 = ORIENTED_EDGE ( 'NONE', *, *, #355, .T. ) ;
#96 = FACE_OUTER_BOUND ( 'NONE', #60, .T. ) ;
#97 = CARTESIAN_POINT ( 'NONE',  ( 1.396592535537253342E-15, 0.0000000000000000000, 0.3999999999999999667 ) ) ;
#98 = PERSON ( 'UNSPECIFIED', 'UNSPECIFIED', 'UNSPECIFIED', ('UNSPECIFIED'), ('UNSPECIFIED'), ('UNSPECIFIED') ) ;
#99 = AXIS2_PLACEMENT_3D ( 'NONE', #110, #87, #302 ) ;
#100 = ORIENTED_EDGE ( 'NONE', *, *, #306, .T. ) ;
#101 = CARTESIAN_POINT ( 'NONE',  ( 0.0000000000000000000, 0.0000000000000000000, 0.0000000000000000000 ) ) ;
#102 = CARTESIAN_POINT ( 'NONE',  ( 3.128409417977933936E-16, -0.1200000000000000233, 0.08960120689101262748 ) ) ;
#103 = APPLICATION_PROTOCOL_DEFINITION ( 'international standard', 'config_control_design', 1994, #197 ) ;
#104 = LINE ( 'NONE', #226, #57 ) ;
#105 = ORIENTED_EDGE ( 'NONE', *, *, #297, .F. ) ;
#106 = CARTESIAN_POINT ( 'NONE',  ( 3.128409417977943304E-16, -0.1200000000000000094, 0.08960120689101290503 ) ) ;
#107 = DIRECTION ( 'NONE',  ( -3.491481338843133355E-15, 1.224646799147353207E-16, -1.000000000000000000 ) ) ;
#108 = CARTESIAN_POINT ( 'NONE',  ( 3.128409417977934429E-16, -1.097298312188184088E-17, 0.08960120689101264135 ) ) ;
#109 = AXIS2_PLACEMENT_3D ( 'NONE', #262, #231, #84 ) ;
#110 = CARTESIAN_POINT ( 'NONE',  ( 0.0000000000000000000, 0.0000000000000000000, 0.0000000000000000000 ) ) ;
#111 = CARTESIAN_POINT ( 'NONE',  ( 2.365919782978951696E-32, 0.2000000000000000111, 6.776263578034402713E-18 ) ) ;
#112 = ADVANCED_FACE ( 'NONE', ( #252 ), #121, .T. ) ;
#113 = EDGE_CURVE ( 'NONE', #229, #23, #221, .T. ) ;
#114 = AXIS2_PLACEMENT_3D ( 'NONE', #261, #160, #79 ) ;
#115 = ORIENTED_EDGE ( 'NONE', *, *, #249, .T. ) ;
#116 = ORIENTED_EDGE ( 'NONE', *, *, #200, .F. ) ;
#117 = ORIENTED_EDGE ( 'NONE', *, *, #281, .F. ) ;
#118 = CIRCLE ( 'NONE', #86, 0.1540741737109300735 ) ;
#119 = DIRECTION ( 'NONE',  ( -3.491481338843133355E-15, 1.224646799147353207E-16, -1.000000000000000000 ) ) ;
#120 = CIRCLE ( 'NONE', #125, 0.2000000000000000111 ) ;
#121 = PLANE ( 'NONE',  #329 ) ;
#122 = DIRECTION ( 'NONE',  ( -3.491481338843133355E-15, 0.0000000000000000000, -1.000000000000000000 ) ) ;
#123 = DIRECTION ( 'NONE',  ( 0.0000000000000000000, 1.000000000000000000, 0.0000000000000000000 ) ) ;
#124 = PERSON_AND_ORGANIZATION_ROLE ( 'design_owner' ) ;
#125 = AXIS2_PLACEMENT_3D ( 'NONE', #54, #298, #356 ) ;
#126 = CARTESIAN_POINT ( 'NONE',  ( 5.344789307371198258E-32, 0.2000000000000000111, 1.530808498934191817E-17 ) ) ;
#127 = LOCAL_TIME ( 14, 0, 54.00000000000000000, #92 ) ;
#128 = PRODUCT_RELATED_PRODUCT_CATEGORY ( 'detail', '', ( #132 ) ) ;
#129 = VERTEX_POINT ( 'NONE', #285 ) ;
#130 = DIRECTION ( 'NONE',  ( -3.491481338843133355E-15, 1.224646799147353207E-16, -1.000000000000000000 ) ) ;
#131 = ADVANCED_FACE ( 'NONE', ( #349, #280 ), #148, .T. ) ;
#132 = PRODUCT ( '997976', '997976', '', ( #48 ) ) ;
#133 = CARTESIAN_POINT ( 'NONE',  ( -0.1199999999999997041, 0.02975885854519982540, 0.08960120689104955627 ) ) ;
#134 = CARTESIAN_POINT ( 'NONE',  ( -0.1200000000000000094, 0.1600000000000000033, 4.385721094475336500E-16 ) ) ;
#135 = AXIS2_PLACEMENT_3D ( 'NONE', #218, #283, #247 ) ;
#136 = ADVANCED_FACE ( 'NONE', ( #46, #73 ), #284, .T. ) ;
#137 = FACE_OUTER_BOUND ( 'NONE', #317, .T. ) ;
#138 = APPLICATION_CONTEXT ( 'configuration controlled 3d designs of mechanical parts and assemblies' ) ;
#139 = ORIENTED_EDGE ( 'NONE', *, *, #255, .T. ) ;
#140 = AXIS2_PLACEMENT_3D ( 'NONE', #353, #323, #11 ) ;
#141 = ORIENTED_EDGE ( 'NONE', *, *, #2, .T. ) ;
#142 = CC_DESIGN_DATE_AND_TIME_ASSIGNMENT ( #273, #372, ( #216 ) ) ;
#143 = ORIENTED_EDGE ( 'NONE', *, *, #184, .T. ) ;
#144 = CALENDAR_DATE ( 2021, 3, 12 ) ;
#145 = CIRCLE ( 'NONE', #207, 1.499999999999996669 ) ;
#146 = DATE_AND_TIME ( #144, #214 ) ;
#147 = PRODUCT_DEFINITION_FORMATION_WITH_SPECIFIED_SOURCE ( 'ANY', '', #132, .NOT_KNOWN. ) ;
#148 = CYLINDRICAL_SURFACE ( 'NONE', #338, 1.500000000000000444 ) ;
#149 = APPROVAL_STATUS ( 'not_yet_approved' ) ;
#150 = EDGE_LOOP ( 'NONE', ( #238, #89, #325 ) ) ;
#151 = LINE ( 'NONE', #251, #358 ) ;
#152 = CARTESIAN_POINT ( 'NONE',  ( 2.300254401649881138E-15, 0.1540741737109299903, 0.6588190451025143224 ) ) ;
#153 = PLANE ( 'NONE',  #230 ) ;
#154 = ADVANCED_FACE ( 'NONE', ( #286 ), #259, .T. ) ;
#155 = CARTESIAN_POINT ( 'NONE',  ( 3.128409417977934429E-16, -1.097298312188184088E-17, 0.08960120689101264135 ) ) ;
#156 = LINE ( 'NONE', #330, #7 ) ;
#157 = DIRECTION ( 'NONE',  ( -3.491481338843133355E-15, 1.224646799147353207E-16, -1.000000000000000000 ) ) ;
#158 = ORIENTED_EDGE ( 'NONE', *, *, #377, .F. ) ;
#159 = AXIS2_PLACEMENT_3D ( 'NONE', #108, #164, #22 ) ;
#160 = DIRECTION ( 'NONE',  ( 1.000000000000000000, 0.0000000000000000000, -3.491481338843133355E-15 ) ) ;
#161 = LOCAL_TIME ( 14, 0, 54.00000000000000000, #279 ) ;
#162 = ORIENTED_EDGE ( 'NONE', *, *, #113, .F. ) ;
#163 = CARTESIAN_POINT ( 'NONE',  ( -0.1199999999999996902, 0.0000000000000000000, 0.08960120689101322422 ) ) ;
#164 = DIRECTION ( 'NONE',  ( -3.491481338843133355E-15, 1.224646799147353207E-16, -1.000000000000000000 ) ) ;
#165 = DIRECTION ( 'NONE',  ( -3.491481338843133355E-15, 1.224646799147353207E-16, -1.000000000000000000 ) ) ;
#166 = CARTESIAN_POINT ( 'NONE',  ( -0.1199999999999998429, 0.1117900961190548409, 0.04988201403649224902 ) ) ;
#167 = AXIS2_PLACEMENT_3D ( 'NONE', #228, #199, #332 ) ;
#168 = VECTOR ( 'NONE', #169, 1000.000000000000000 ) ;
#169 = DIRECTION ( 'NONE',  ( 3.491481338843133355E-15, -0.0000000000000000000, 1.000000000000000000 ) ) ;
#170 = ADVANCED_FACE ( 'NONE', ( #183 ), #187, .T. ) ;
#171 = CLOSED_SHELL ( 'NONE', ( #45, #335, #205, #312, #170, #268, #112 ) ) ;
#172 = EDGE_LOOP ( 'NONE', ( #204, #392, #203, #61 ) ) ;
#173 = COORDINATED_UNIVERSAL_TIME_OFFSET ( 1, 0, .AHEAD. ) ;
#174 = ADVANCED_FACE ( 'NONE', ( #324, #12 ), #26, .T. ) ;
#175 = COORDINATED_UNIVERSAL_TIME_OFFSET ( 1, 0, .AHEAD. ) ;
#176 = AXIS2_PLACEMENT_3D ( 'NONE', #267, #56, #185 ) ;
#177 = PERSON_AND_ORGANIZATION_ROLE ( 'classification_officer' ) ;
#178 = APPROVAL_PERSON_ORGANIZATION ( #368, #328, #209 ) ;
#179 = DIRECTION ( 'NONE',  ( 4.275831445896958607E-31, 1.000000000000000000, 1.224646799147353207E-16 ) ) ;
#180 = PRODUCT_DEFINITION_SHAPE ( 'NONE', 'NONE',  #216 ) ;
#181 = DIRECTION ( 'NONE',  ( -3.491481338843133355E-15, 1.224646799147353207E-16, -1.000000000000000000 ) ) ;
#182 = VERTEX_POINT ( 'NONE', #94 ) ;
#183 = FACE_OUTER_BOUND ( 'NONE', #272, .T. ) ;
#184 = EDGE_CURVE ( 'NONE', #52, #27, #1, .T. ) ;
#185 = DIRECTION ( 'NONE',  ( 4.275831445896958607E-31, 1.000000000000000000, 1.224646799147353207E-16 ) ) ;
#186 = AXIS2_PLACEMENT_3D ( 'NONE', #196, #165, #233 ) ;
#187 = CYLINDRICAL_SURFACE ( 'NONE', #293, 0.1200000000000000094 ) ;
#188 = DIRECTION ( 'NONE',  ( -3.491481338843133355E-15, 1.224646799147353207E-16, -1.000000000000000000 ) ) ;
#189 = DIRECTION ( 'NONE',  ( -4.275831445896958607E-31, -1.000000000000000000, -1.224646799147353207E-16 ) ) ;
#190 = ORIENTED_EDGE ( 'NONE', *, *, #255, .F. ) ;
#191 = EDGE_CURVE ( 'NONE', #263, #288, #104, .T. ) ;
#192 = CARTESIAN_POINT ( 'NONE',  ( -0.1200000000000000094, 0.0000000000000000000, 4.189777606611759928E-16 ) ) ;
#193 = AXIS2_PLACEMENT_3D ( 'NONE', #326, #188, #72 ) ;
#194 = CARTESIAN_POINT ( 'NONE',  ( -0.1199999999999997180, 0.05911123673249518012, 0.07837642221160766309 ) ) ;
#195 = ORIENTED_EDGE ( 'NONE', *, *, #297, .T. ) ;
#196 = CARTESIAN_POINT ( 'NONE',  ( 1.396592535537254328E-15, -4.898587196589416773E-17, 0.4000000000000002998 ) ) ;
#197 = APPLICATION_CONTEXT ( 'configuration controlled 3d designs of mechanical parts and assemblies' ) ;
#198 = CARTESIAN_POINT ( 'NONE',  ( 5.237222008264718399E-17, 0.2000000000000000389, 0.01500000000000005322 ) ) ;
#199 = DIRECTION ( 'NONE',  ( 3.491481338843133355E-15, -1.224646799147353207E-16, 1.000000000000000000 ) ) ;
#200 = EDGE_CURVE ( 'NONE', #41, #41, #374, .T. ) ;
#201 = CIRCLE ( 'NONE', #186, 0.1200000000000001482 ) ;
#202 = CC_DESIGN_APPROVAL ( #328, ( #224 ) ) ;
#203 = ORIENTED_EDGE ( 'NONE', *, *, #14, .F. ) ;
#204 = ORIENTED_EDGE ( 'NONE', *, *, #281, .T. ) ;
#205 = ADVANCED_FACE ( 'NONE', ( #15 ), #153, .T. ) ;
#206 = ORIENTED_EDGE ( 'NONE', *, *, #55, .T. ) ;
#207 = AXIS2_PLACEMENT_3D ( 'NONE', #352, #77, #346 ) ;
#208 = EDGE_LOOP ( 'NONE', ( #337 ) ) ;
#209 = APPROVAL_ROLE ( '' ) ;
#210 = DIRECTION ( 'NONE',  ( -3.491481338843133355E-15, 1.224646799147353207E-16, -1.000000000000000000 ) ) ;
#211 = EDGE_CURVE ( 'NONE', #129, #129, #243, .T. ) ;
#212 = EDGE_LOOP ( 'NONE', ( #9, #303, #105, #234 ) ) ;
#213 = DATE_AND_TIME ( #34, #127 ) ;
#214 = LOCAL_TIME ( 14, 0, 54.00000000000000000, #175 ) ;
#215 = DIRECTION ( 'NONE',  ( 4.012354050806740777E-31, 1.000000000000000000, 1.129377263005733621E-16 ) ) ;
#216 = PRODUCT_DEFINITION ( 'UNKNOWN', '', #147, #38 ) ;
#217 = ORIENTED_EDGE ( 'NONE', *, *, #69, .T. ) ;
#218 = CARTESIAN_POINT ( 'NONE',  ( 2.300254401649881138E-15, -8.068206348021098514E-17, 0.6588190451025143224 ) ) ;
#219 = VERTEX_POINT ( 'NONE', #37 ) ;
#220 = FACE_OUTER_BOUND ( 'NONE', #362, .T. ) ;
#221 = LINE ( 'NONE', #5, #82 ) ;
#222 =( NAMED_UNIT ( * ) SI_UNIT ( $, .STERADIAN. ) SOLID_ANGLE_UNIT ( ) );
#223 = CLOSED_SHELL ( 'NONE', ( #391, #366, #76, #136, #131, #174, #154 ) ) ;
#224 = SECURITY_CLASSIFICATION ( '', '', #30 ) ;
#225 = PERSON_AND_ORGANIZATION ( #98, #248 ) ;
#226 = CARTESIAN_POINT ( 'NONE',  ( -0.1200000000000000094, 0.0000000000000000000, 4.189777606611759928E-16 ) ) ;
#227 = CARTESIAN_POINT ( 'NONE',  ( 1.595606971851311880E-13, 1.499999999999998668, 45.69999999999999574 ) ) ;
#228 = CARTESIAN_POINT ( 'NONE',  ( 3.128409417977939360E-16, 0.1199999999999999956, 0.08960120689101279401 ) ) ;
#229 = VERTEX_POINT ( 'NONE', #35 ) ;
#230 = AXIS2_PLACEMENT_3D ( 'NONE', #126, #6, #179 ) ;
#231 = DIRECTION ( 'NONE',  ( -3.491481338843133355E-15, 1.224646799147353207E-16, -1.000000000000000000 ) ) ;
#232 = CC_DESIGN_PERSON_AND_ORGANIZATION_ASSIGNMENT ( #375, #250, ( #147 ) ) ;
#233 = DIRECTION ( 'NONE',  ( 0.0000000000000000000, 1.000000000000000000, 0.0000000000000000000 ) ) ;
#234 = ORIENTED_EDGE ( 'NONE', *, *, #306, .F. ) ;
#235 = AXIS2_PLACEMENT_3D ( 'NONE', #97, #351, #291 ) ;
#236 = CC_DESIGN_SECURITY_CLASSIFICATION ( #224, ( #147 ) ) ;
#237 = EDGE_CURVE ( 'NONE', #229, #52, #151, .T. ) ;
#238 = ORIENTED_EDGE ( 'NONE', *, *, #184, .F. ) ;
#239 = ORIENTED_EDGE ( 'NONE', *, *, #69, .F. ) ;
#240 = VERTEX_POINT ( 'NONE', #20 ) ;
#241 = CALENDAR_DATE ( 2021, 3, 12 ) ;
#242 = CC_DESIGN_PERSON_AND_ORGANIZATION_ASSIGNMENT ( #343, #29, ( #216 ) ) ;
#243 = CIRCLE ( 'NONE', #319, 1.200000000000004396 ) ;
#244 = DIRECTION ( 'NONE',  ( 4.275831445896958607E-31, 1.000000000000000000, 1.224646799147353207E-16 ) ) ;
#245 = CALENDAR_DATE ( 2021, 3, 12 ) ;
#246 = ORIENTED_EDGE ( 'NONE', *, *, #355, .F. ) ;
#247 = DIRECTION ( 'NONE',  ( 0.0000000000000000000, -1.000000000000000000, 0.0000000000000000000 ) ) ;
#248 = ORGANIZATION ( 'UNSPECIFIED', 'UNSPECIFIED', '' ) ;
#249 = EDGE_CURVE ( 'NONE', #260, #260, #118, .T. ) ;
#250 = PERSON_AND_ORGANIZATION_ROLE ( 'creator' ) ;
#251 = CARTESIAN_POINT ( 'NONE',  ( 3.128409417977944290E-16, 0.2000000000000000111, 0.08960120689101293279 ) ) ;
#252 = FACE_OUTER_BOUND ( 'NONE', #43, .T. ) ;
#253 = PLANE ( 'NONE',  #193 ) ;
#254 = ORIENTED_EDGE ( 'NONE', *, *, #25, .T. ) ;
#255 = EDGE_CURVE ( 'NONE', #182, #263, #49, .T. ) ;
#256 = FACE_OUTER_BOUND ( 'NONE', #315, .T. ) ;
#257 = DIRECTION ( 'NONE',  ( -3.491481338843133750E-15, 0.0000000000000000000, -1.000000000000000000 ) ) ;
#258 = CIRCLE ( 'NONE', #62, 0.2000000000000000111 ) ;
#259 = PLANE ( 'NONE',  #21 ) ;
#260 = VERTEX_POINT ( 'NONE', #152 ) ;
#261 = CARTESIAN_POINT ( 'NONE',  ( -0.1199999999999982608, 0.0000000000000000000, 0.5000000000000004441 ) ) ;
#262 = CARTESIAN_POINT ( 'NONE',  ( 5.237222008264717782E-17, -1.836970198721036143E-18, 0.01500000000000005149 ) ) ;
#263 = VERTEX_POINT ( 'NONE', #333 ) ;
#264 = AXIS2_PLACEMENT_3D ( 'NONE', #24, #210, #244 ) ;
#265 = CARTESIAN_POINT ( 'NONE',  ( -0.1199999999999998984, 0.1361440104685664176, 0.03279685610675076718 ) ) ;
#266 = ADVANCED_BREP_SHAPE_REPRESENTATION ( '997976', ( #83, #361, #140 ), #50 ) ;
#267 = CARTESIAN_POINT ( 'NONE',  ( 0.0000000000000000000, 0.0000000000000000000, 0.0000000000000000000 ) ) ;
#268 = ADVANCED_FACE ( 'NONE', ( #85 ), #80, .F. ) ;
#269 = EDGE_LOOP ( 'NONE', ( #100, #139, #295, #365 ) ) ;
#270 = AXIS2_PLACEMENT_3D ( 'NONE', #155, #40, #215 ) ;
#271 = ORIENTED_EDGE ( 'NONE', *, *, #14, .T. ) ;
#272 = EDGE_LOOP ( 'NONE', ( #158, #143, #254, #271 ) ) ;
#273 = DATE_AND_TIME ( #314, #310 ) ;
#274 = B_SPLINE_CURVE_WITH_KNOTS ( 'NONE', 3,
 ( #294, #133, #194, #166, #265, #354 ),
 .UNSPECIFIED., .F., .F.,
 ( 4, 2, 4 ),
 ( 0.0002477307631512185851, 0.0003369911690939855309, 0.0004262515750367524767 ),
 .UNSPECIFIED. ) ;
#275 = DATE_AND_TIME ( #245, #58 ) ;
#276 = EDGE_CURVE ( 'NONE', #63, #240, #388, .T. ) ;
#277 = APPROVAL_DATE_TIME ( #146, #64 ) ;
#278 = CC_DESIGN_PERSON_AND_ORGANIZATION_ASSIGNMENT ( #68, #341, ( #147 ) ) ;
#279 = COORDINATED_UNIVERSAL_TIME_OFFSET ( 1, 0, .AHEAD. ) ;
#280 = FACE_OUTER_BOUND ( 'NONE', #344, .T. ) ;
#281 = EDGE_CURVE ( 'NONE', #263, #240, #258, .T. ) ;
#282 = SHAPE_DEFINITION_REPRESENTATION ( #180, #266 ) ;
#283 = DIRECTION ( 'NONE',  ( 3.491481338843133355E-15, -1.224646799147353207E-16, 1.000000000000000000 ) ) ;
#284 = CONICAL_SURFACE ( 'NONE', #135, 0.1540741737109300735, 0.2617993877991428020 ) ;
#285 = CARTESIAN_POINT ( 'NONE',  ( 1.606081415867841091E-13, 1.199999999999998845, 46.00000000000000000 ) ) ;
#286 = FACE_OUTER_BOUND ( 'NONE', #208, .T. ) ;
#287 = CARTESIAN_POINT ( 'NONE',  ( 3.128409417977934429E-16, -1.097298312188184088E-17, 0.08960120689101264135 ) ) ;
#288 = VERTEX_POINT ( 'NONE', #192 ) ;
#289 = CARTESIAN_POINT ( 'NONE',  ( 1.595606971851311880E-13, -5.596635872103403844E-15, 45.69999999999999574 ) ) ;
#290 = DIRECTION ( 'NONE',  ( -3.491481338843133355E-15, 0.0000000000000000000, -1.000000000000000000 ) ) ;
#291 = DIRECTION ( 'NONE',  ( 4.354119460057511057E-31, 1.000000000000000000, 1.224646799147353207E-16 ) ) ;
#292 = FACE_OUTER_BOUND ( 'NONE', #91, .T. ) ;
#293 = AXIS2_PLACEMENT_3D ( 'NONE', #322, #122, #75 ) ;
#294 = CARTESIAN_POINT ( 'NONE',  ( -0.1199999999999996902, 0.0000000000000000000, 0.08960120689101322422 ) ) ;
#295 = ORIENTED_EDGE ( 'NONE', *, *, #191, .T. ) ;
#296 = DIRECTION ( 'NONE',  ( 4.275831445896958607E-31, 1.000000000000000000, 1.224646799147353207E-16 ) ) ;
#297 = EDGE_CURVE ( 'NONE', #182, #23, #120, .T. ) ;
#298 = DIRECTION ( 'NONE',  ( -3.491481338843133355E-15, 1.224646799147353207E-16, -1.000000000000000000 ) ) ;
#299 = TOROIDAL_SURFACE ( 'NONE', #235, 1.120000000000000107, 1.000000000000000000 ) ;
#300 = DIRECTION ( 'NONE',  ( -3.491481338843133355E-15, 1.224646799147353207E-16, -1.000000000000000000 ) ) ;
#301 = EDGE_LOOP ( 'NONE', ( #367 ) ) ;
#302 = DIRECTION ( 'NONE',  ( -1.000000000000000000, 0.0000000000000000000, 3.491481338843132961E-15 ) ) ;
#303 = ORIENTED_EDGE ( 'NONE', *, *, #113, .T. ) ;
#304 = VECTOR ( 'NONE', #359, 1000.000000000000000 ) ;
#305 = EDGE_LOOP ( 'NONE', ( #116 ) ) ;
#306 = EDGE_CURVE ( 'NONE', #27, #182, #274, .T. ) ;
#307 = APPROVAL_ROLE ( '' ) ;
#308 = COORDINATED_UNIVERSAL_TIME_OFFSET ( 1, 0, .AHEAD. ) ;
#309 = CIRCLE ( 'NONE', #159, 0.1200000000000000094 ) ;
#310 = LOCAL_TIME ( 14, 0, 54.00000000000000000, #308 ) ;
#311 = APPROVAL_DATE_TIME ( #213, #328 ) ;
#312 = ADVANCED_FACE ( 'NONE', ( #390 ), #17, .T. ) ;
#313 = DIRECTION ( 'NONE',  ( -3.491481338843133355E-15, 0.0000000000000000000, -1.000000000000000000 ) ) ;
#314 = CALENDAR_DATE ( 2021, 3, 12 ) ;
#315 = EDGE_LOOP ( 'NONE', ( #115 ) ) ;
#316 = DIRECTION ( 'NONE',  ( 0.0000000000000000000, 1.000000000000000000, 0.0000000000000000000 ) ) ;
#317 = EDGE_LOOP ( 'NONE', ( #239 ) ) ;
#318 = DIRECTION ( 'NONE',  ( -3.491481338843133355E-15, 1.224646799147353207E-16, -1.000000000000000000 ) ) ;
#319 = AXIS2_PLACEMENT_3D ( 'NONE', #342, #181, #316 ) ;
#320 = VERTEX_POINT ( 'NONE', #387 ) ;
#321 = CYLINDRICAL_SURFACE ( 'NONE', #264, 0.2000000000000000111 ) ;
#322 = CARTESIAN_POINT ( 'NONE',  ( 1.745740669421566678E-15, 0.0000000000000000000, 0.5000000000000000000 ) ) ;
#323 = DIRECTION ( 'NONE',  ( 0.0000000000000000000, 0.0000000000000000000, 1.000000000000000000 ) ) ;
#324 = FACE_BOUND ( 'NONE', #397, .T. ) ;
#325 = ORIENTED_EDGE ( 'NONE', *, *, #331, .F. ) ;
#326 = CARTESIAN_POINT ( 'NONE',  ( 3.128409417977939360E-16, 0.1199999999999999956, 0.08960120689101279401 ) ) ;
#327 = DIRECTION ( 'NONE',  ( 0.0000000000000000000, 1.000000000000000000, 0.0000000000000000000 ) ) ;
#328 = APPROVAL ( #4, 'UNSPECIFIED' ) ;
#329 = AXIS2_PLACEMENT_3D ( 'NONE', #101, #345, #313 ) ;
#330 = CARTESIAN_POINT ( 'NONE',  ( -0.1199999999999982608, 0.0000000000000000000, 0.5000000000000004441 ) ) ;
#331 = EDGE_CURVE ( 'NONE', #27, #229, #309, .T. ) ;
#332 = DIRECTION ( 'NONE',  ( -4.275831445896958607E-31, -1.000000000000000000, -1.224646799147353207E-16 ) ) ;
#333 = CARTESIAN_POINT ( 'NONE',  ( -0.1200000000000000094, 0.1600000000000000033, 4.189777606611759928E-16 ) ) ;
#334 = CYLINDRICAL_SURFACE ( 'NONE', #176, 0.1200000000000000649 ) ;
#335 = ADVANCED_FACE ( 'NONE', ( #389 ), #369, .T. ) ;
#336 = CIRCLE ( 'NONE', #99, 0.1200000000000000094 ) ;
#337 = ORIENTED_EDGE ( 'NONE', *, *, #211, .F. ) ;
#338 = AXIS2_PLACEMENT_3D ( 'NONE', #33, #119, #42 ) ;
#339 = ORIENTED_EDGE ( 'NONE', *, *, #211, .T. ) ;
#340 = AXIS2_PLACEMENT_3D ( 'NONE', #386, #318, #67 ) ;
#341 = PERSON_AND_ORGANIZATION_ROLE ( 'design_supplier' ) ;
#342 = CARTESIAN_POINT ( 'NONE',  ( 1.606081415867841091E-13, -5.633375276077824704E-15, 46.00000000000000000 ) ) ;
#343 = PERSON_AND_ORGANIZATION ( #98, #248 ) ;
#344 = EDGE_LOOP ( 'NONE', ( #19 ) ) ;
#345 = DIRECTION ( 'NONE',  ( 1.000000000000000000, 0.0000000000000000000, -3.491481338843133355E-15 ) ) ;
#346 = DIRECTION ( 'NONE',  ( 0.0000000000000000000, 1.000000000000000000, 0.0000000000000000000 ) ) ;
#347 = LINE ( 'NONE', #106, #363 ) ;
#348 = ORIENTED_EDGE ( 'NONE', *, *, #200, .T. ) ;
#349 = FACE_OUTER_BOUND ( 'NONE', #47, .T. ) ;
#350 = CIRCLE ( 'NONE', #393, 0.1200000000000000094 ) ;
#351 = DIRECTION ( 'NONE',  ( -3.491481338843133355E-15, 1.224646799147353207E-16, -1.000000000000000000 ) ) ;
#352 = CARTESIAN_POINT ( 'NONE',  ( 1.983818710940898890E-14, -6.958299353956685898E-16, 5.681882612032566726 ) ) ;
#353 = CARTESIAN_POINT ( 'NONE',  ( 0.0000000000000000000, 0.0000000000000000000, 0.0000000000000000000 ) ) ;
#354 = CARTESIAN_POINT ( 'NONE',  ( -0.1199999999999999539, 0.1600000000000000033, 0.01500000000000049384 ) ) ;
#355 = EDGE_CURVE ( 'NONE', #379, #379, #201, .T. ) ;
#356 = DIRECTION ( 'NONE',  ( 4.212971753347078429E-31, 1.000000000000000000, 1.185846126156020475E-16 ) ) ;
#357 = ORIENTED_EDGE ( 'NONE', *, *, #377, .T. ) ;
#358 = VECTOR ( 'NONE', #376, 1000.000000000000000 ) ;
#359 = DIRECTION ( 'NONE',  ( 3.696749660904612746E-31, 1.000000000000000000, 1.058791184067875547E-16 ) ) ;
#360 = FACE_OUTER_BOUND ( 'NONE', #28, .T. ) ;
#361 = MANIFOLD_SOLID_BREP ( 'Corps-Déplacer/Copier1[2]', #223 ) ;
#362 = EDGE_LOOP ( 'NONE', ( #195, #88, #117, #190 ) ) ;
#363 = VECTOR ( 'NONE', #257, 1000.000000000000000 ) ;
#364 = ORIENTED_EDGE ( 'NONE', *, *, #237, .T. ) ;
#365 = ORIENTED_EDGE ( 'NONE', *, *, #25, .F. ) ;
#366 = ADVANCED_FACE ( 'NONE', ( #360, #137 ), #334, .T. ) ;
#367 = ORIENTED_EDGE ( 'NONE', *, *, #249, .F. ) ;
#368 = PERSON_AND_ORGANIZATION ( #98, #248 ) ;
#369 = CONICAL_SURFACE ( 'NONE', #109, 0.2000000000000000111, 0.8203047484373372500 ) ;
#370 = PERSON_AND_ORGANIZATION ( #98, #248 ) ;
#371 = UNCERTAINTY_MEASURE_WITH_UNIT (LENGTH_MEASURE( 1.000000000000000082E-05 ), #78, 'distance_accuracy_value', 'NONE');
#372 = DATE_TIME_ROLE ( 'creation_date' ) ;
#373 = DIRECTION ( 'NONE',  ( 3.491481338843133355E-15, -1.224646799147353207E-16, 1.000000000000000000 ) ) ;
#374 = CIRCLE ( 'NONE', #31, 1.500000000000004441 ) ;
#375 = PERSON_AND_ORGANIZATION ( #98, #248 ) ;
#376 = DIRECTION ( 'NONE',  ( -2.957399728723689496E-31, -1.000000000000000000, -8.470329472543004623E-17 ) ) ;
#377 = EDGE_CURVE ( 'NONE', #52, #63, #347, .T. ) ;
#378 = DIRECTION ( 'NONE',  ( 0.0000000000000000000, -1.000000000000000000, 0.0000000000000000000 ) ) ;
#379 = VERTEX_POINT ( 'NONE', #384 ) ;
#380 = LINE ( 'NONE', #39, #168 ) ;
#381 = DIRECTION ( 'NONE',  ( -2.381184547279827482E-15, 0.7313537016191721252, -0.6819983600624967002 ) ) ;
#382 = CC_DESIGN_APPROVAL ( #64, ( #147 ) ) ;
#383 = CC_DESIGN_DATE_AND_TIME_ASSIGNMENT ( #275, #3, ( #224 ) ) ;
#384 = CARTESIAN_POINT ( 'NONE',  ( 1.396592535537254328E-15, 0.1200000000000000927, 0.4000000000000002998 ) ) ;
#385 = CARTESIAN_POINT ( 'NONE',  ( -9.463679131915806782E-32, -0.1200000000000000094, -2.710505431213761085E-17 ) ) ;
#386 = CARTESIAN_POINT ( 'NONE',  ( 1.595606971851311880E-13, -5.596635872103403844E-15, 45.69999999999999574 ) ) ;
#387 = CARTESIAN_POINT ( 'NONE',  ( 3.128409417977934922E-16, 0.1199999999999999956, 0.08960120689101265523 ) ) ;
#388 = LINE ( 'NONE', #111, #304 ) ;
#389 = FACE_OUTER_BOUND ( 'NONE', #212, .T. ) ;
#390 = FACE_OUTER_BOUND ( 'NONE', #150, .T. ) ;
#391 = ADVANCED_FACE ( 'NONE', ( #292 ), #253, .T. ) ;
#392 = ORIENTED_EDGE ( 'NONE', *, *, #276, .F. ) ;
#393 = AXIS2_PLACEMENT_3D ( 'NONE', #287, #70, #10 ) ;
#394 = CC_DESIGN_APPROVAL ( #53, ( #216 ) ) ;
#395 = ORIENTED_EDGE ( 'NONE', *, *, #276, .T. ) ;
#396 = APPROVAL_DATE_TIME ( #93, #53 ) ;
#397 = EDGE_LOOP ( 'NONE', ( #339 ) ) ;
ENDSEC;
END-ISO-10303-21;
