ISO-10303-21;
HEADER;
FILE_DESCRIPTION (( 'STEP AP203' ),
    '1' );
FILE_NAME ('997975.step',
    '2021-12-03T13:00:54',
    ( '' ),
    ( '' ),
    'SwSTEP 2.0',
    'SolidWorks 2019',
    '' );
FILE_SCHEMA (( 'CONFIG_CONTROL_DESIGN' ));
ENDSEC;

DATA;
#1 = DATE_TIME_ROLE ( 'creation_date' ) ;
#2 = PLANE ( 'NONE',  #206 ) ;
#3 = AXIS2_PLACEMENT_3D ( 'NONE', #244, #151, #269 ) ;
#4 = CC_DESIGN_APPROVAL ( #284, ( #80 ) ) ;
#5 = CARTESIAN_POINT ( 'NONE',  ( 2.094888803305879619E-15, 0.0000000000000000000, 0.5999999999999999778 ) ) ;
#6 = EDGE_CURVE ( 'NONE', #27, #27, #51, .T. ) ;
#7 = ORIENTED_EDGE ( 'NONE', *, *, #299, .F. ) ;
#8 = FACE_OUTER_BOUND ( 'NONE', #323, .T. ) ;
#9 = FACE_OUTER_BOUND ( 'NONE', #101, .T. ) ;
#10 = ORIENTED_EDGE ( 'NONE', *, *, #237, .T. ) ;
#11 = CARTESIAN_POINT ( 'NONE',  ( 5.237222008264719631E-17, -1.836970198721036528E-18, 0.01500000000000005669 ) ) ;
#12 = APPROVAL ( #264, 'UNSPECIFIED' ) ;
#13 = PLANE ( 'NONE',  #199 ) ;
#14 = ORIENTED_EDGE ( 'NONE', *, *, #30, .T. ) ;
#15 = LINE ( 'NONE', #134, #194 ) ;
#16 = VECTOR ( 'NONE', #306, 1000.000000000000000 ) ;
#17 = CARTESIAN_POINT ( 'NONE',  ( 2.477237613690084667E-16, -0.08999999999999999667, 0.07095090516825995619 ) ) ;
#18 = EDGE_CURVE ( 'NONE', #231, #349, #230, .T. ) ;
#19 = EDGE_LOOP ( 'NONE', ( #229, #93, #245, #22 ) ) ;
#20 = CARTESIAN_POINT ( 'NONE',  ( 2.477237613690067411E-16, -8.688979891091636327E-18, 0.07095090516825947047 ) ) ;
#21 = DIRECTION ( 'NONE',  ( -3.491481338843133355E-15, 1.224646799147353207E-16, -1.000000000000000000 ) ) ;
#22 = ORIENTED_EDGE ( 'NONE', *, *, #148, .T. ) ;
#23 = CARTESIAN_POINT ( 'NONE',  ( 2.477237613690067904E-16, 0.08999999999999999667, 0.07095090516825948435 ) ) ;
#24 = AXIS2_PLACEMENT_3D ( 'NONE', #278, #145, #123 ) ;
#25 = LOCAL_TIME ( 14, 0, 54.00000000000000000, #275 ) ;
#26 = COORDINATED_UNIVERSAL_TIME_OFFSET ( 1, 0, .AHEAD. ) ;
#27 = VERTEX_POINT ( 'NONE', #23 ) ;
#28 = APPROVAL_STATUS ( 'not_yet_approved' ) ;
#29 = DIRECTION ( 'NONE',  ( 3.491481338843133355E-15, -0.0000000000000000000, 1.000000000000000000 ) ) ;
#30 = EDGE_CURVE ( 'NONE', #138, #138, #58, .T. ) ;
#31 = DIRECTION ( 'NONE',  ( -3.491481338843133355E-15, 1.224646799147353207E-16, -1.000000000000000000 ) ) ;
#32 = LINE ( 'NONE', #208, #16 ) ;
#33 = EDGE_CURVE ( 'NONE', #231, #280, #339, .T. ) ;
#34 = PERSON_AND_ORGANIZATION_ROLE ( 'creator' ) ;
#35 = FACE_OUTER_BOUND ( 'NONE', #73, .T. ) ;
#36 = CARTESIAN_POINT ( 'NONE',  ( 5.237222008264720864E-17, 0.1499999999999999667, 0.01500000000000006016 ) ) ;
#37 = CARTESIAN_POINT ( 'NONE',  ( -0.08999999999999824807, 0.0000000000000000000, 0.5000000000000003331 ) ) ;
#38 = ORIENTED_EDGE ( 'NONE', *, *, #100, .F. ) ;
#39 = DIRECTION ( 'NONE',  ( -3.491481338843133355E-15, 1.224646799147353207E-16, -1.000000000000000000 ) ) ;
#40 = AXIS2_PLACEMENT_3D ( 'NONE', #99, #39, #249 ) ;
#41 = EDGE_CURVE ( 'NONE', #359, #359, #330, .T. ) ;
#42 = CARTESIAN_POINT ( 'NONE',  ( -0.08999999999999999667, 0.1199999999999999956, 3.289290820856502375E-16 ) ) ;
#43 = ORIENTED_EDGE ( 'NONE', *, *, #357, .F. ) ;
#44 = CARTESIAN_POINT ( 'NONE',  ( 2.477237613690085160E-16, 0.08999999999999999667, 0.07095090516825997007 ) ) ;
#45 = EDGE_CURVE ( 'NONE', #231, #226, #317, .T. ) ;
#46 = DIRECTION ( 'NONE',  ( -4.275831445896958607E-31, -1.000000000000000000, -1.224646799147353207E-16 ) ) ;
#47 = ORIENTED_EDGE ( 'NONE', *, *, #41, .F. ) ;
#48 = AXIS2_PLACEMENT_3D ( 'NONE', #54, #21, #195 ) ;
#49 = DATE_AND_TIME ( #81, #236 ) ;
#50 = ORIENTED_EDGE ( 'NONE', *, *, #248, .F. ) ;
#51 = CIRCLE ( 'NONE', #304, 0.09000000000000001055 ) ;
#52 = APPROVAL_PERSON_ORGANIZATION ( #203, #340, #112 ) ;
#53 =( LENGTH_UNIT ( ) NAMED_UNIT ( * ) SI_UNIT ( .MILLI., .METRE. ) );
#54 = CARTESIAN_POINT ( 'NONE',  ( 1.595606971851311880E-13, -5.596635872103403844E-15, 45.69999999999999574 ) ) ;
#55 = COORDINATED_UNIVERSAL_TIME_OFFSET ( 1, 0, .AHEAD. ) ;
#56 = CARTESIAN_POINT ( 'NONE',  ( 2.477237613690066918E-16, -0.09000000000000001055, 0.07095090516825945659 ) ) ;
#57 = CALENDAR_DATE ( 2021, 3, 12 ) ;
#58 = CIRCLE ( 'NONE', #3, 0.09000000000000009381 ) ;
#59 = DIRECTION ( 'NONE',  ( 5.349805401075654369E-31, 1.000000000000000000, 1.505836350674311495E-16 ) ) ;
#60 = CARTESIAN_POINT ( 'NONE',  ( 2.477237613690067411E-16, -8.688979891091636327E-18, 0.07095090516825947047 ) ) ;
#61 = CARTESIAN_POINT ( 'NONE',  ( -0.08999999999999994116, 0.1199999999999999956, 0.01500000000000038802 ) ) ;
#62 = CARTESIAN_POINT ( 'NONE',  ( 2.365919782978951696E-32, 0.1499999999999999944, 6.776263578034402713E-18 ) ) ;
#63 = DIRECTION ( 'NONE',  ( 3.491481338843133355E-15, -1.224646799147353207E-16, 1.000000000000000000 ) ) ;
#64 = PERSON ( 'UNSPECIFIED', 'UNSPECIFIED', 'UNSPECIFIED', ('UNSPECIFIED'), ('UNSPECIFIED'), ('UNSPECIFIED') ) ;
#65 = DIRECTION ( 'NONE',  ( 0.0000000000000000000, 1.000000000000000000, 0.0000000000000000000 ) ) ;
#66 = ADVANCED_FACE ( 'NONE', ( #397 ), #2, .T. ) ;
#67 = ORIENTED_EDGE ( 'NONE', *, *, #6, .F. ) ;
#68 = LINE ( 'NONE', #17, #260 ) ;
#69 = DIRECTION ( 'NONE',  ( 4.275831445896958607E-31, 1.000000000000000000, 1.224646799147353207E-16 ) ) ;
#70 = ORIENTED_EDGE ( 'NONE', *, *, #33, .F. ) ;
#71 = ADVANCED_FACE ( 'NONE', ( #243, #180 ), #307, .T. ) ;
#72 = DIRECTION ( 'NONE',  ( 0.0000000000000000000, 1.000000000000000000, 0.0000000000000000000 ) ) ;
#73 = EDGE_LOOP ( 'NONE', ( #250 ) ) ;
#74 = COORDINATED_UNIVERSAL_TIME_OFFSET ( 1, 0, .AHEAD. ) ;
#75 = AXIS2_PLACEMENT_3D ( 'NONE', #191, #346, #319 ) ;
#76 = ORIENTED_EDGE ( 'NONE', *, *, #45, .F. ) ;
#77 = VERTEX_POINT ( 'NONE', #258 ) ;
#78 = CARTESIAN_POINT ( 'NONE',  ( 1.595606971851311880E-13, 1.499999999999998668, 45.69999999999999574 ) ) ;
#79 = VECTOR ( 'NONE', #157, 1000.000000000000000 ) ;
#80 = SECURITY_CLASSIFICATION ( '', '', #146 ) ;
#81 = CALENDAR_DATE ( 2021, 3, 12 ) ;
#82 = EDGE_CURVE ( 'NONE', #96, #231, #124, .T. ) ;
#83 = LINE ( 'NONE', #89, #337 ) ;
#84 = MANIFOLD_SOLID_BREP ( 'Corps-Déplacer/Copier1[2]', #295 ) ;
#85 = DIRECTION ( 'NONE',  ( -3.491481338843133355E-15, 0.0000000000000000000, -1.000000000000000000 ) ) ;
#86 = DATE_AND_TIME ( #57, #164 ) ;
#87 = DIRECTION ( 'NONE',  ( 3.491481338843133355E-15, -0.0000000000000000000, 1.000000000000000000 ) ) ;
#88 = CARTESIAN_POINT ( 'NONE',  ( 0.0000000000000000000, 0.0000000000000000000, 0.0000000000000000000 ) ) ;
#89 = CARTESIAN_POINT ( 'NONE',  ( 2.477237613690085653E-16, 0.1499999999999999944, 0.07095090516825998395 ) ) ;
#90 = VERTEX_POINT ( 'NONE', #176 ) ;
#91 = CYLINDRICAL_SURFACE ( 'NONE', #40, 0.09000000000000005218 ) ;
#92 = AXIS2_PLACEMENT_3D ( 'NONE', #169, #294, #297 ) ;
#93 = ORIENTED_EDGE ( 'NONE', *, *, #82, .T. ) ;
#94 = EDGE_CURVE ( 'NONE', #90, #98, #83, .T. ) ;
#95 = FACE_OUTER_BOUND ( 'NONE', #334, .T. ) ;
#96 = VERTEX_POINT ( 'NONE', #56 ) ;
#97 = DIRECTION ( 'NONE',  ( -3.491481338843133355E-15, 1.224646799147353207E-16, -1.000000000000000000 ) ) ;
#98 = VERTEX_POINT ( 'NONE', #36 ) ;
#99 = CARTESIAN_POINT ( 'NONE',  ( 0.0000000000000000000, 0.0000000000000000000, 0.0000000000000000000 ) ) ;
#100 = EDGE_CURVE ( 'NONE', #349, #96, #32, .T. ) ;
#101 = EDGE_LOOP ( 'NONE', ( #67 ) ) ;
#102 = CARTESIAN_POINT ( 'NONE',  ( 2.998550669418508204E-15, -1.051749994631580567E-16, 0.8588190451025142780 ) ) ;
#103 = ORIENTED_EDGE ( 'NONE', *, *, #100, .T. ) ;
#104 = CARTESIAN_POINT ( 'NONE',  ( 2.998550669418508204E-15, 0.1240741737109299220, 0.8588190451025142780 ) ) ;
#105 = PERSON_AND_ORGANIZATION ( #64, #296 ) ;
#106 = ORIENTED_EDGE ( 'NONE', *, *, #148, .F. ) ;
#107 = CC_DESIGN_PERSON_AND_ORGANIZATION_ASSIGNMENT ( #201, #361, ( #254 ) ) ;
#108 = DIRECTION ( 'NONE',  ( -3.491481338843133355E-15, 0.0000000000000000000, -1.000000000000000000 ) ) ;
#109 = CARTESIAN_POINT ( 'NONE',  ( 2.094888803305880802E-15, 0.09000000000000002442, 0.6000000000000003109 ) ) ;
#110 = CC_DESIGN_PERSON_AND_ORGANIZATION_ASSIGNMENT ( #393, #270, ( #80 ) ) ;
#111 = AXIS2_PLACEMENT_3D ( 'NONE', #102, #63, #153 ) ;
#112 = APPROVAL_ROLE ( '' ) ;
#113 = CALENDAR_DATE ( 2021, 3, 12 ) ;
#114 = DIRECTION ( 'NONE',  ( 4.275831445896958607E-31, 1.000000000000000000, 1.224646799147353207E-16 ) ) ;
#115 = CARTESIAN_POINT ( 'NONE',  ( 1.606081415867841091E-13, -5.633375276077824704E-15, 46.00000000000000000 ) ) ;
#116 = PERSON_AND_ORGANIZATION ( #64, #296 ) ;
#117 = CLOSED_SHELL ( 'NONE', ( #142, #344, #188, #266, #331, #364, #227 ) ) ;
#118 = CC_DESIGN_PERSON_AND_ORGANIZATION_ASSIGNMENT ( #308, #332, ( #325 ) ) ;
#119 = CYLINDRICAL_SURFACE ( 'NONE', #316, 0.1499999999999999944 ) ;
#120 = PRODUCT_DEFINITION_SHAPE ( 'NONE', 'NONE',  #254 ) ;
#121 = DIRECTION ( 'NONE',  ( -3.491481338843133355E-15, 1.224646799147353207E-16, -1.000000000000000000 ) ) ;
#122 = EDGE_LOOP ( 'NONE', ( #130 ) ) ;
#123 = DIRECTION ( 'NONE',  ( 0.0000000000000000000, 1.000000000000000000, 0.0000000000000000000 ) ) ;
#124 = CIRCLE ( 'NONE', #174, 0.09000000000000001055 ) ;
#125 = CARTESIAN_POINT ( 'NONE',  ( 4.275831445896957621E-32, 0.1499999999999999944, 1.224646799147352961E-17 ) ) ;
#126 = CONICAL_SURFACE ( 'NONE', #48, 1.500000000000004441, 0.7853981633974453924 ) ;
#127 = PLANE ( 'NONE',  #252 ) ;
#128 = DIRECTION ( 'NONE',  ( -3.491481338843133355E-15, 1.224646799147353207E-16, -1.000000000000000000 ) ) ;
#129 = CARTESIAN_POINT ( 'NONE',  ( 1.745740669421566678E-15, 0.0000000000000000000, 0.5000000000000000000 ) ) ;
#130 = ORIENTED_EDGE ( 'NONE', *, *, #386, .F. ) ;
#131 = DIRECTION ( 'NONE',  ( 3.491481338843133355E-15, -1.224646799147353207E-16, 1.000000000000000000 ) ) ;
#132 = ORIENTED_EDGE ( 'NONE', *, *, #18, .F. ) ;
#133 = VECTOR ( 'NONE', #183, 1000.000000000000000 ) ;
#134 = CARTESIAN_POINT ( 'NONE',  ( -0.08999999999999999667, 0.0000000000000000000, 3.142333204958819823E-16 ) ) ;
#135 = ORIENTED_EDGE ( 'NONE', *, *, #372, .T. ) ;
#136 = ORIENTED_EDGE ( 'NONE', *, *, #6, .T. ) ;
#137 = EDGE_CURVE ( 'NONE', #349, #98, #178, .T. ) ;
#138 = VERTEX_POINT ( 'NONE', #109 ) ;
#139 = ORIENTED_EDGE ( 'NONE', *, *, #328, .F. ) ;
#140 = PERSON_AND_ORGANIZATION ( #64, #296 ) ;
#141 = CALENDAR_DATE ( 2021, 3, 12 ) ;
#142 = ADVANCED_FACE ( 'NONE', ( #8 ), #119, .T. ) ;
#143 = AXIS2_PLACEMENT_3D ( 'NONE', #20, #31, #59 ) ;
#144 = AXIS2_PLACEMENT_3D ( 'NONE', #233, #168, #292 ) ;
#145 = DIRECTION ( 'NONE',  ( -3.491481338843133355E-15, 1.224646799147353207E-16, -1.000000000000000000 ) ) ;
#146 = SECURITY_CLASSIFICATION_LEVEL ( 'unclassified' ) ;
#147 = CARTESIAN_POINT ( 'NONE',  ( -0.08999999999999989952, 0.1021079808162513314, 0.02834766224862699316 ) ) ;
#148 = EDGE_CURVE ( 'NONE', #280, #255, #155, .T. ) ;
#149 = APPROVAL_STATUS ( 'not_yet_approved' ) ;
#150 = AXIS2_PLACEMENT_3D ( 'NONE', #395, #369, #114 ) ;
#151 = DIRECTION ( 'NONE',  ( -3.491481338843133355E-15, 1.224646799147353207E-16, -1.000000000000000000 ) ) ;
#152 = ADVANCED_FACE ( 'NONE', ( #35, #342 ), #389, .F. ) ;
#153 = DIRECTION ( 'NONE',  ( 0.0000000000000000000, -1.000000000000000000, 0.0000000000000000000 ) ) ;
#154 = APPLICATION_CONTEXT ( 'configuration controlled 3d designs of mechanical parts and assemblies' ) ;
#155 = CIRCLE ( 'NONE', #356, 0.08999999999999999667 ) ;
#156 = CARTESIAN_POINT ( 'NONE',  ( -0.08999999999999994116, 0.1199999999999999956, 0.01500000000000038802 ) ) ;
#157 = DIRECTION ( 'NONE',  ( -3.491481338843133355E-15, 1.224646799147353207E-16, -1.000000000000000000 ) ) ;
#158 = ORIENTED_EDGE ( 'NONE', *, *, #299, .T. ) ;
#159 = FACE_OUTER_BOUND ( 'NONE', #247, .T. ) ;
#160 = ORIENTED_EDGE ( 'NONE', *, *, #248, .T. ) ;
#161 = DIRECTION ( 'NONE',  ( -3.491481338843133355E-15, 0.0000000000000000000, -1.000000000000000000 ) ) ;
#162 = EDGE_LOOP ( 'NONE', ( #381 ) ) ;
#163 = AXIS2_PLACEMENT_3D ( 'NONE', #5, #121, #205 ) ;
#164 = LOCAL_TIME ( 14, 0, 54.00000000000000000, #55 ) ;
#165 = VERTEX_POINT ( 'NONE', #197 ) ;
#166 = EDGE_CURVE ( 'NONE', #255, #90, #276, .T. ) ;
#167 = ORIENTED_EDGE ( 'NONE', *, *, #94, .F. ) ;
#168 = DIRECTION ( 'NONE',  ( -3.491481338843133355E-15, 1.224646799147353207E-16, -1.000000000000000000 ) ) ;
#169 = CARTESIAN_POINT ( 'NONE',  ( 0.0000000000000000000, 0.0000000000000000000, 0.0000000000000000000 ) ) ;
#170 = DESIGN_CONTEXT ( 'detailed design', #374, 'design' ) ;
#171 = DIRECTION ( 'NONE',  ( 0.0000000000000000000, 1.000000000000000000, 0.0000000000000000000 ) ) ;
#172 = CALENDAR_DATE ( 2021, 3, 12 ) ;
#173 = PLANE ( 'NONE',  #375 ) ;
#174 = AXIS2_PLACEMENT_3D ( 'NONE', #60, #333, #240 ) ;
#175 = CONICAL_SURFACE ( 'NONE', #383, 0.1499999999999999944, 0.8203047484373372500 ) ;
#176 = CARTESIAN_POINT ( 'NONE',  ( 2.365919782978951696E-32, 0.1499999999999999944, 6.776263578034402713E-18 ) ) ;
#177 = ADVANCED_FACE ( 'NONE', ( #312 ), #173, .T. ) ;
#178 = LINE ( 'NONE', #242, #222 ) ;
#179 = DATE_AND_TIME ( #172, #376 ) ;
#180 = FACE_OUTER_BOUND ( 'NONE', #122, .T. ) ;
#181 = CC_DESIGN_PERSON_AND_ORGANIZATION_ASSIGNMENT ( #105, #256, ( #394 ) ) ;
#182 = PERSON_AND_ORGANIZATION ( #64, #296 ) ;
#183 = DIRECTION ( 'NONE',  ( 4.928999547872816995E-31, 1.000000000000000000, 1.411721578757167396E-16 ) ) ;
#184 = CARTESIAN_POINT ( 'NONE',  ( 2.477237613690076778E-16, 0.08999999999999999667, 0.07095090516825972027 ) ) ;
#185 = FACE_OUTER_BOUND ( 'NONE', #347, .T. ) ;
#186 = ORIENTED_EDGE ( 'NONE', *, *, #137, .T. ) ;
#187 = PLANE ( 'NONE',  #75 ) ;
#188 = ADVANCED_FACE ( 'NONE', ( #377 ), #127, .T. ) ;
#189 = DIRECTION ( 'NONE',  ( -3.491481338843133355E-15, 1.224646799147353207E-16, -1.000000000000000000 ) ) ;
#190 = ORIENTED_EDGE ( 'NONE', *, *, #30, .F. ) ;
#191 = CARTESIAN_POINT ( 'NONE',  ( 0.0000000000000000000, 0.0000000000000000000, 0.0000000000000000000 ) ) ;
#192 = ADVANCED_FACE ( 'NONE', ( #225, #322 ), #214, .T. ) ;
#193 = DIRECTION ( 'NONE',  ( -3.491481338843133355E-15, 1.224646799147353207E-16, -1.000000000000000000 ) ) ;
#194 = VECTOR ( 'NONE', #373, 1000.000000000000000 ) ;
#195 = DIRECTION ( 'NONE',  ( 0.0000000000000000000, 1.000000000000000000, 0.0000000000000000000 ) ) ;
#196 = ORIENTED_EDGE ( 'NONE', *, *, #82, .F. ) ;
#197 = CARTESIAN_POINT ( 'NONE',  ( 1.606081415867841091E-13, 1.199999999999998845, 46.00000000000000000 ) ) ;
#198 =( NAMED_UNIT ( * ) PLANE_ANGLE_UNIT ( ) SI_UNIT ( $, .RADIAN. ) );
#199 = AXIS2_PLACEMENT_3D ( 'NONE', #184, #131, #46 ) ;
#200 =( GEOMETRIC_REPRESENTATION_CONTEXT ( 3 ) GLOBAL_UNCERTAINTY_ASSIGNED_CONTEXT ( ( #234 ) ) GLOBAL_UNIT_ASSIGNED_CONTEXT ( ( #53, #198, #290 ) ) REPRESENTATION_CONTEXT ( 'NONE', 'WORKASPACE' ) );
#201 = PERSON_AND_ORGANIZATION ( #64, #296 ) ;
#202 = CARTESIAN_POINT ( 'NONE',  ( 0.0000000000000000000, 0.0000000000000000000, 0.0000000000000000000 ) ) ;
#203 = PERSON_AND_ORGANIZATION ( #64, #296 ) ;
#204 = ADVANCED_FACE ( 'NONE', ( #159, #9 ), #91, .T. ) ;
#205 = DIRECTION ( 'NONE',  ( 4.339360858344947546E-31, 1.000000000000000000, 1.224646799147353207E-16 ) ) ;
#206 = AXIS2_PLACEMENT_3D ( 'NONE', #115, #341, #239 ) ;
#207 = APPROVAL_PERSON_ORGANIZATION ( #182, #284, #238 ) ;
#208 = CARTESIAN_POINT ( 'NONE',  ( 2.477237613690085653E-16, 0.1499999999999999944, 0.07095090516825998395 ) ) ;
#209 = DIRECTION ( 'NONE',  ( -3.491481338843133355E-15, 1.224646799147353207E-16, -1.000000000000000000 ) ) ;
#210 = PRODUCT_RELATED_PRODUCT_CATEGORY ( 'detail', '', ( #394 ) ) ;
#211 = DATE_AND_TIME ( #113, #25 ) ;
#212 = DIRECTION ( 'NONE',  ( -1.000000000000000000, 0.0000000000000000000, 3.491481338843133355E-15 ) ) ;
#213 = ORIENTED_EDGE ( 'NONE', *, *, #41, .T. ) ;
#214 = CONICAL_SURFACE ( 'NONE', #111, 0.1240741737109300330, 0.2617993877991428020 ) ;
#215 = AXIS2_PLACEMENT_3D ( 'NONE', #327, #193, #171 ) ;
#216 = CARTESIAN_POINT ( 'NONE',  ( -0.08999999999999999667, 0.1199999999999999956, 3.142333204958819823E-16 ) ) ;
#217 = EDGE_LOOP ( 'NONE', ( #371 ) ) ;
#218 = DIRECTION ( 'NONE',  ( -3.491481338843133750E-15, 0.0000000000000000000, -1.000000000000000000 ) ) ;
#219 = EDGE_LOOP ( 'NONE', ( #139 ) ) ;
#220 = DIRECTION ( 'NONE',  ( -3.491481338843133355E-15, 1.224646799147353207E-16, -1.000000000000000000 ) ) ;
#221 = EDGE_CURVE ( 'NONE', #96, #255, #68, .T. ) ;
#222 = VECTOR ( 'NONE', #363, 1000.000000000000000 ) ;
#223 = CARTESIAN_POINT ( 'NONE',  ( 5.237222008264719631E-17, -1.836970198721036528E-18, 0.01500000000000005669 ) ) ;
#224 = CC_DESIGN_APPROVAL ( #340, ( #325 ) ) ;
#225 = FACE_OUTER_BOUND ( 'NONE', #217, .T. ) ;
#226 = VERTEX_POINT ( 'NONE', #156 ) ;
#227 = ADVANCED_FACE ( 'NONE', ( #95 ), #187, .T. ) ;
#228 = APPROVAL_DATE_TIME ( #265, #12 ) ;
#229 = ORIENTED_EDGE ( 'NONE', *, *, #221, .F. ) ;
#230 = CIRCLE ( 'NONE', #143, 0.09000000000000001055 ) ;
#231 = VERTEX_POINT ( 'NONE', #384 ) ;
#232 = CC_DESIGN_APPROVAL ( #12, ( #254 ) ) ;
#233 = CARTESIAN_POINT ( 'NONE',  ( -4.275831445896958716E-32, 1.499759782661857779E-33, -1.224646799147353269E-17 ) ) ;
#234 = UNCERTAINTY_MEASURE_WITH_UNIT (LENGTH_MEASURE( 1.000000000000000082E-05 ), #53, 'distance_accuracy_value', 'NONE');
#235 = FACE_BOUND ( 'NONE', #321, .T. ) ;
#236 = LOCAL_TIME ( 14, 0, 54.00000000000000000, #74 ) ;
#237 = EDGE_CURVE ( 'NONE', #165, #165, #303, .T. ) ;
#238 = APPROVAL_ROLE ( '' ) ;
#239 = DIRECTION ( 'NONE',  ( -4.275831445896958607E-31, -1.000000000000000000, -1.224646799147353207E-16 ) ) ;
#240 = DIRECTION ( 'NONE',  ( 5.349805401075654369E-31, 1.000000000000000000, 1.505836350674311495E-16 ) ) ;
#241 = CIRCLE ( 'NONE', #144, 0.1499999999999999944 ) ;
#242 = CARTESIAN_POINT ( 'NONE',  ( 5.407510732985463078E-16, -1.896699442964753988E-17, 0.1548772629206486562 ) ) ;
#243 = FACE_OUTER_BOUND ( 'NONE', #370, .T. ) ;
#244 = CARTESIAN_POINT ( 'NONE',  ( 2.094888803305880802E-15, -7.347880794884121462E-17, 0.6000000000000003109 ) ) ;
#245 = ORIENTED_EDGE ( 'NONE', *, *, #33, .T. ) ;
#246 = DIRECTION ( 'NONE',  ( 4.413589455887416080E-31, 1.000000000000000000, 1.242314989306307328E-16 ) ) ;
#247 = EDGE_LOOP ( 'NONE', ( #14 ) ) ;
#248 = EDGE_CURVE ( 'NONE', #226, #98, #382, .T. ) ;
#249 = DIRECTION ( 'NONE',  ( 4.275831445896958607E-31, 1.000000000000000000, 1.224646799147352961E-16 ) ) ;
#250 = ORIENTED_EDGE ( 'NONE', *, *, #328, .T. ) ;
#251 = DIRECTION ( 'NONE',  ( -1.000000000000000000, 0.0000000000000000000, 3.614007241618348376E-15 ) ) ;
#252 = AXIS2_PLACEMENT_3D ( 'NONE', #125, #287, #69 ) ;
#253 = DIRECTION ( 'NONE',  ( 4.275831445896958607E-31, 1.000000000000000000, 1.224646799147353207E-16 ) ) ;
#254 = PRODUCT_DEFINITION ( 'UNKNOWN', '', #325, #170 ) ;
#255 = VERTEX_POINT ( 'NONE', #315 ) ;
#256 = PERSON_AND_ORGANIZATION_ROLE ( 'design_owner' ) ;
#257 = EDGE_LOOP ( 'NONE', ( #190 ) ) ;
#258 = CARTESIAN_POINT ( 'NONE',  ( 2.092739494968485888E-14, 1.499999999999996003, 5.993844136259636635 ) ) ;
#259 = ORIENTED_EDGE ( 'NONE', *, *, #357, .T. ) ;
#260 = VECTOR ( 'NONE', #218, 1000.000000000000000 ) ;
#261 = EDGE_LOOP ( 'NONE', ( #47 ) ) ;
#262 = LOCAL_TIME ( 14, 0, 54.00000000000000000, #26 ) ;
#263 = CC_DESIGN_PERSON_AND_ORGANIZATION_ASSIGNMENT ( #116, #34, ( #325 ) ) ;
#264 = APPROVAL_STATUS ( 'not_yet_approved' ) ;
#265 = DATE_AND_TIME ( #141, #262 ) ;
#266 = ADVANCED_FACE ( 'NONE', ( #185 ), #13, .T. ) ;
#267 = AXIS2_PLACEMENT_3D ( 'NONE', #11, #189, #246 ) ;
#268 = AXIS2_PLACEMENT_3D ( 'NONE', #37, #390, #108 ) ;
#269 = DIRECTION ( 'NONE',  ( 0.0000000000000000000, 1.000000000000000000, 0.0000000000000000000 ) ) ;
#270 = PERSON_AND_ORGANIZATION_ROLE ( 'classification_officer' ) ;
#271 = CARTESIAN_POINT ( 'NONE',  ( -0.08999999999999824807, 0.0000000000000000000, 0.5000000000000003331 ) ) ;
#272 = CARTESIAN_POINT ( 'NONE',  ( -0.08999999999999984401, 0.08384253436026133099, 0.04116152393597837661 ) ) ;
#273 = ORIENTED_EDGE ( 'NONE', *, *, #18, .T. ) ;
#274 = CC_DESIGN_SECURITY_CLASSIFICATION ( #80, ( #325 ) ) ;
#275 = COORDINATED_UNIVERSAL_TIME_OFFSET ( 1, 0, .AHEAD. ) ;
#276 = LINE ( 'NONE', #62, #133 ) ;
#277 = ORIENTED_EDGE ( 'NONE', *, *, #166, .F. ) ;
#278 = CARTESIAN_POINT ( 'NONE',  ( 1.595606971851311880E-13, -5.596635872103403844E-15, 45.69999999999999574 ) ) ;
#279 = DIRECTION ( 'NONE',  ( -3.491481338843133355E-15, 1.224646799147353207E-16, -1.000000000000000000 ) ) ;
#280 = VERTEX_POINT ( 'NONE', #282 ) ;
#281 = VECTOR ( 'NONE', #85, 1000.000000000000000 ) ;
#282 = CARTESIAN_POINT ( 'NONE',  ( -0.08999999999999999667, 0.0000000000000000000, 3.142333204958819823E-16 ) ) ;
#283 = CYLINDRICAL_SURFACE ( 'NONE', #324, 0.08999999999999999667 ) ;
#284 = APPROVAL ( #149, 'UNSPECIFIED' ) ;
#285 = LINE ( 'NONE', #42, #79 ) ;
#286 = ORIENTED_EDGE ( 'NONE', *, *, #166, .T. ) ;
#287 = DIRECTION ( 'NONE',  ( -3.491481338843133355E-15, 1.224646799147353207E-16, -1.000000000000000000 ) ) ;
#288 = ORIENTED_EDGE ( 'NONE', *, *, #94, .T. ) ;
#289 = DIRECTION ( 'NONE',  ( 5.349805401075654369E-31, 1.000000000000000000, 1.505836350674311495E-16 ) ) ;
#290 =( NAMED_UNIT ( * ) SI_UNIT ( $, .STERADIAN. ) SOLID_ANGLE_UNIT ( ) );
#291 = ORIENTED_EDGE ( 'NONE', *, *, #372, .F. ) ;
#292 = DIRECTION ( 'NONE',  ( 4.275831445896958607E-31, 1.000000000000000000, 1.224646799147352961E-16 ) ) ;
#293 = CC_DESIGN_DATE_AND_TIME_ASSIGNMENT ( #49, #1, ( #254 ) ) ;
#294 = DIRECTION ( 'NONE',  ( 0.0000000000000000000, 0.0000000000000000000, 1.000000000000000000 ) ) ;
#295 = CLOSED_SHELL ( 'NONE', ( #177, #204, #152, #192, #71, #396, #66 ) ) ;
#296 = ORGANIZATION ( 'UNSPECIFIED', 'UNSPECIFIED', '' ) ;
#297 = DIRECTION ( 'NONE',  ( 1.000000000000000000, 0.0000000000000000000, 0.0000000000000000000 ) ) ;
#298 = APPLICATION_PROTOCOL_DEFINITION ( 'international standard', 'config_control_design', 1994, #154 ) ;
#299 = EDGE_CURVE ( 'NONE', #226, #353, #285, .T. ) ;
#300 = DATE_TIME_ROLE ( 'classification_date' ) ;
#301 = ADVANCED_BREP_SHAPE_REPRESENTATION ( '997975', ( #355, #84, #92 ), #200 ) ;
#302 = CARTESIAN_POINT ( 'NONE',  ( 2.477237613690076778E-16, 0.08999999999999999667, 0.07095090516825972027 ) ) ;
#303 = CIRCLE ( 'NONE', #367, 1.200000000000004396 ) ;
#304 = AXIS2_PLACEMENT_3D ( 'NONE', #318, #128, #289 ) ;
#305 = COORDINATED_UNIVERSAL_TIME_OFFSET ( 1, 0, .AHEAD. ) ;
#306 = DIRECTION ( 'NONE',  ( -3.943199638298253246E-31, -1.000000000000000000, -1.129377263005733868E-16 ) ) ;
#307 = CYLINDRICAL_SURFACE ( 'NONE', #150, 1.500000000000000444 ) ;
#308 = PERSON_AND_ORGANIZATION ( #64, #296 ) ;
#309 = DIRECTION ( 'NONE',  ( 4.275831445896958607E-31, 1.000000000000000000, 1.224646799147352961E-16 ) ) ;
#310 = CIRCLE ( 'NONE', #362, 0.1240741737109300330 ) ;
#311 = SHAPE_DEFINITION_REPRESENTATION ( #120, #301 ) ;
#312 = FACE_OUTER_BOUND ( 'NONE', #314, .T. ) ;
#313 = PLANE ( 'NONE',  #268 ) ;
#314 = EDGE_LOOP ( 'NONE', ( #136 ) ) ;
#315 = CARTESIAN_POINT ( 'NONE',  ( -9.463679131915806782E-32, -0.08999999999999999667, -2.710505431213761085E-17 ) ) ;
#316 = AXIS2_PLACEMENT_3D ( 'NONE', #88, #209, #309 ) ;
#317 = B_SPLINE_CURVE_WITH_KNOTS ( 'NONE', 3,
 ( #365, #336, #368, #272, #147, #61 ),
 .UNSPECIFIED., .F., .F.,
 ( 4, 2, 4 ),
 ( 0.0001858625386186727650, 0.0002528082363982029159, 0.0003197539341777330397 ),
 .UNSPECIFIED. ) ;
#318 = CARTESIAN_POINT ( 'NONE',  ( 2.477237613690067411E-16, -8.688979891091636327E-18, 0.07095090516825947047 ) ) ;
#319 = DIRECTION ( 'NONE',  ( -3.491481338843133355E-15, 0.0000000000000000000, -1.000000000000000000 ) ) ;
#320 = DIRECTION ( 'NONE',  ( 4.413589455887416080E-31, 1.000000000000000000, 1.242314989306307328E-16 ) ) ;
#321 = EDGE_LOOP ( 'NONE', ( #10 ) ) ;
#322 = FACE_BOUND ( 'NONE', #219, .T. ) ;
#323 = EDGE_LOOP ( 'NONE', ( #160, #167, #291, #7 ) ) ;
#324 = AXIS2_PLACEMENT_3D ( 'NONE', #129, #161, #251 ) ;
#325 = PRODUCT_DEFINITION_FORMATION_WITH_SPECIFIED_SOURCE ( 'ANY', '', #394, .NOT_KNOWN. ) ;
#326 = EDGE_LOOP ( 'NONE', ( #135, #277, #106, #43 ) ) ;
#327 = CARTESIAN_POINT ( 'NONE',  ( 2.092739494968485888E-14, -7.340342036058495243E-16, 5.993844136259636635 ) ) ;
#328 = EDGE_CURVE ( 'NONE', #354, #354, #310, .T. ) ;
#329 = ORIENTED_EDGE ( 'NONE', *, *, #45, .T. ) ;
#330 = CIRCLE ( 'NONE', #24, 1.500000000000004441 ) ;
#331 = ADVANCED_FACE ( 'NONE', ( #348 ), #283, .T. ) ;
#332 = PERSON_AND_ORGANIZATION_ROLE ( 'design_supplier' ) ;
#333 = DIRECTION ( 'NONE',  ( -3.491481338843133355E-15, 1.224646799147353207E-16, -1.000000000000000000 ) ) ;
#334 = EDGE_LOOP ( 'NONE', ( #103, #378, #286, #288, #358 ) ) ;
#335 = APPROVAL_DATE_TIME ( #179, #340 ) ;
#336 = CARTESIAN_POINT ( 'NONE',  ( -0.08999999999999974687, 0.02231931059396812661, 0.07095090516828728155 ) ) ;
#337 = VECTOR ( 'NONE', #87, 1000.000000000000000 ) ;
#338 = APPROVAL_DATE_TIME ( #211, #284 ) ;
#339 = LINE ( 'NONE', #271, #281 ) ;
#340 = APPROVAL ( #28, 'UNSPECIFIED' ) ;
#341 = DIRECTION ( 'NONE',  ( 3.491481338843133355E-15, -1.224646799147353207E-16, 1.000000000000000000 ) ) ;
#342 = FACE_OUTER_BOUND ( 'NONE', #257, .T. ) ;
#343 = CIRCLE ( 'NONE', #215, 1.499999999999996669 ) ;
#344 = ADVANCED_FACE ( 'NONE', ( #380 ), #175, .T. ) ;
#345 = FACE_OUTER_BOUND ( 'NONE', #366, .T. ) ;
#346 = DIRECTION ( 'NONE',  ( 1.000000000000000000, 0.0000000000000000000, -3.491481338843133355E-15 ) ) ;
#347 = EDGE_LOOP ( 'NONE', ( #196, #38, #132 ) ) ;
#348 = FACE_OUTER_BOUND ( 'NONE', #19, .T. ) ;
#349 = VERTEX_POINT ( 'NONE', #44 ) ;
#350 = APPROVAL_PERSON_ORGANIZATION ( #140, #12, #391 ) ;
#351 = DIRECTION ( 'NONE',  ( -3.491481338843133355E-15, 1.224646799147353207E-16, -1.000000000000000000 ) ) ;
#352 = CARTESIAN_POINT ( 'NONE',  ( 2.998550669418508204E-15, -1.051749994631580567E-16, 0.8588190451025142780 ) ) ;
#353 = VERTEX_POINT ( 'NONE', #216 ) ;
#354 = VERTEX_POINT ( 'NONE', #104 ) ;
#355 = MANIFOLD_SOLID_BREP ( 'Corps-Déplacer/Copier1[1]', #117 ) ;
#356 = AXIS2_PLACEMENT_3D ( 'NONE', #202, #29, #212 ) ;
#357 = EDGE_CURVE ( 'NONE', #353, #280, #15, .T. ) ;
#358 = ORIENTED_EDGE ( 'NONE', *, *, #137, .F. ) ;
#359 = VERTEX_POINT ( 'NONE', #78 ) ;
#360 = CC_DESIGN_DATE_AND_TIME_ASSIGNMENT ( #86, #300, ( #80 ) ) ;
#361 = PERSON_AND_ORGANIZATION_ROLE ( 'creator' ) ;
#362 = AXIS2_PLACEMENT_3D ( 'NONE', #352, #220, #72 ) ;
#363 = DIRECTION ( 'NONE',  ( -2.381184547279827482E-15, 0.7313537016191721252, -0.6819983600624967002 ) ) ;
#364 = ADVANCED_FACE ( 'NONE', ( #345 ), #313, .F. ) ;
#365 = CARTESIAN_POINT ( 'NONE',  ( -0.08999999999999974687, 0.0000000000000000000, 0.07095090516826006721 ) ) ;
#366 = EDGE_LOOP ( 'NONE', ( #329, #158, #259, #70 ) ) ;
#367 = AXIS2_PLACEMENT_3D ( 'NONE', #379, #97, #65 ) ;
#368 = CARTESIAN_POINT ( 'NONE',  ( -0.08999999999999977462, 0.04433359181230938501, 0.06253223480689090730 ) ) ;
#369 = DIRECTION ( 'NONE',  ( -3.491481338843133355E-15, 1.224646799147353207E-16, -1.000000000000000000 ) ) ;
#370 = EDGE_LOOP ( 'NONE', ( #213 ) ) ;
#371 = ORIENTED_EDGE ( 'NONE', *, *, #386, .T. ) ;
#372 = EDGE_CURVE ( 'NONE', #353, #90, #241, .T. ) ;
#373 = DIRECTION ( 'NONE',  ( 0.0000000000000000000, -1.000000000000000000, 0.0000000000000000000 ) ) ;
#374 = APPLICATION_CONTEXT ( 'configuration controlled 3d designs of mechanical parts and assemblies' ) ;
#375 = AXIS2_PLACEMENT_3D ( 'NONE', #302, #279, #253 ) ;
#376 = LOCAL_TIME ( 14, 0, 54.00000000000000000, #305 ) ;
#377 = FACE_OUTER_BOUND ( 'NONE', #326, .T. ) ;
#378 = ORIENTED_EDGE ( 'NONE', *, *, #221, .T. ) ;
#379 = CARTESIAN_POINT ( 'NONE',  ( 1.606081415867841091E-13, -5.633375276077824704E-15, 46.00000000000000000 ) ) ;
#380 = FACE_OUTER_BOUND ( 'NONE', #388, .T. ) ;
#381 = ORIENTED_EDGE ( 'NONE', *, *, #237, .F. ) ;
#382 = CIRCLE ( 'NONE', #267, 0.1499999999999999944 ) ;
#383 = AXIS2_PLACEMENT_3D ( 'NONE', #223, #351, #320 ) ;
#384 = CARTESIAN_POINT ( 'NONE',  ( -0.08999999999999974687, 0.0000000000000000000, 0.07095090516826006721 ) ) ;
#385 = APPLICATION_PROTOCOL_DEFINITION ( 'international standard', 'config_control_design', 1994, #374 ) ;
#386 = EDGE_CURVE ( 'NONE', #77, #77, #343, .T. ) ;
#387 = MECHANICAL_CONTEXT ( 'NONE', #154, 'mechanical' ) ;
#388 = EDGE_LOOP ( 'NONE', ( #273, #186, #50, #76 ) ) ;
#389 = TOROIDAL_SURFACE ( 'NONE', #163, 1.090000000000000080, 1.000000000000000000 ) ;
#390 = DIRECTION ( 'NONE',  ( 1.000000000000000000, 0.0000000000000000000, -3.491481338843133355E-15 ) ) ;
#391 = APPROVAL_ROLE ( '' ) ;
#392 = FACE_OUTER_BOUND ( 'NONE', #261, .T. ) ;
#393 = PERSON_AND_ORGANIZATION ( #64, #296 ) ;
#394 = PRODUCT ( '997975', '997975', '', ( #387 ) ) ;
#395 = CARTESIAN_POINT ( 'NONE',  ( 0.0000000000000000000, 0.0000000000000000000, 0.0000000000000000000 ) ) ;
#396 = ADVANCED_FACE ( 'NONE', ( #235, #392 ), #126, .T. ) ;
#397 = FACE_OUTER_BOUND ( 'NONE', #162, .T. ) ;
ENDSEC;
END-ISO-10303-21;
