ISO-10303-21;
HEADER;
FILE_DESCRIPTION (( 'STEP AP203' ),
    '1' );
FILE_NAME ('997974.step',
    '2021-12-03T13:00:53',
    ( '' ),
    ( '' ),
    'SwSTEP 2.0',
    'SolidWorks 2019',
    '' );
FILE_SCHEMA (( 'CONFIG_CONTROL_DESIGN' ));
ENDSEC;

DATA;
#1 = APPROVAL ( #349, 'UNSPECIFIED' ) ;
#2 =( GEOMETRIC_REPRESENTATION_CONTEXT ( 3 ) GLOBAL_UNCERTAINTY_ASSIGNED_CONTEXT ( ( #140 ) ) GLOBAL_UNIT_ASSIGNED_CONTEXT ( ( #194, #292, #319 ) ) REPRESENTATION_CONTEXT ( 'NONE', 'WORKASPACE' ) );
#3 = VERTEX_POINT ( 'NONE', #122 ) ;
#4 = ORIENTED_EDGE ( 'NONE', *, *, #226, .T. ) ;
#5 = ORIENTED_EDGE ( 'NONE', *, *, #340, .T. ) ;
#6 = CARTESIAN_POINT ( 'NONE',  ( 5.237222008264719631E-17, -1.836970198721036528E-18, 0.01500000000000005669 ) ) ;
#7 = DIRECTION ( 'NONE',  ( 0.0000000000000000000, 1.000000000000000000, 0.0000000000000000000 ) ) ;
#8 = ORIENTED_EDGE ( 'NONE', *, *, #57, .T. ) ;
#9 = CIRCLE ( 'NONE', #60, 1.500000000000004441 ) ;
#10 = CARTESIAN_POINT ( 'NONE',  ( 1.951106267765567803E-15, -6.843559548873745553E-17, 0.5588190451025142336 ) ) ;
#11 = CARTESIAN_POINT ( 'NONE',  ( 1.987995054803191888E-14, -6.972947996314289602E-16, 5.693844136259636812 ) ) ;
#12 = CARTESIAN_POINT ( 'NONE',  ( -0.08999999999999999667, 0.1199999999999999956, 3.142333204958819823E-16 ) ) ;
#13 = CARTESIAN_POINT ( 'NONE',  ( 2.477237613690066918E-16, -0.09000000000000001055, 0.07095090516825945659 ) ) ;
#14 = AXIS2_PLACEMENT_3D ( 'NONE', #29, #261, #328 ) ;
#15 = VERTEX_POINT ( 'NONE', #85 ) ;
#16 = AXIS2_PLACEMENT_3D ( 'NONE', #163, #219, #224 ) ;
#17 = CARTESIAN_POINT ( 'NONE',  ( 1.606081415867841091E-13, 1.199999999999998845, 46.00000000000000000 ) ) ;
#18 = EDGE_CURVE ( 'NONE', #3, #370, #221, .T. ) ;
#19 = PERSON_AND_ORGANIZATION ( #100, #367 ) ;
#20 = CIRCLE ( 'NONE', #287, 0.08999999999999999667 ) ;
#21 = LOCAL_TIME ( 14, 0, 53.00000000000000000, #56 ) ;
#22 = PERSON_AND_ORGANIZATION ( #100, #367 ) ;
#23 = DIRECTION ( 'NONE',  ( 1.000000000000000000, 0.0000000000000000000, -3.491481338843133355E-15 ) ) ;
#24 = COORDINATED_UNIVERSAL_TIME_OFFSET ( 1, 0, .AHEAD. ) ;
#25 = DIRECTION ( 'NONE',  ( -3.491481338843133355E-15, 1.224646799147353207E-16, -1.000000000000000000 ) ) ;
#26 = EDGE_CURVE ( 'NONE', #3, #35, #346, .T. ) ;
#27 = EDGE_LOOP ( 'NONE', ( #96, #309, #233, #273 ) ) ;
#28 = LOCAL_TIME ( 14, 0, 53.00000000000000000, #76 ) ;
#29 = CARTESIAN_POINT ( 'NONE',  ( -4.275831445896958716E-32, 1.499759782661857779E-33, -1.224646799147353269E-17 ) ) ;
#30 = EDGE_LOOP ( 'NONE', ( #397 ) ) ;
#31 = PERSON_AND_ORGANIZATION ( #100, #367 ) ;
#32 = EDGE_LOOP ( 'NONE', ( #39, #395, #201 ) ) ;
#33 = CARTESIAN_POINT ( 'NONE',  ( -9.463679131915806782E-32, -0.08999999999999999667, -2.710505431213761085E-17 ) ) ;
#34 = LOCAL_TIME ( 14, 0, 53.00000000000000000, #334 ) ;
#35 = VERTEX_POINT ( 'NONE', #13 ) ;
#36 = ORIENTED_EDGE ( 'NONE', *, *, #281, .T. ) ;
#37 = FACE_OUTER_BOUND ( 'NONE', #155, .T. ) ;
#38 = DIRECTION ( 'NONE',  ( 0.0000000000000000000, -1.000000000000000000, 0.0000000000000000000 ) ) ;
#39 = ORIENTED_EDGE ( 'NONE', *, *, #356, .F. ) ;
#40 = DIRECTION ( 'NONE',  ( -3.491481338843133355E-15, 1.224646799147353207E-16, -1.000000000000000000 ) ) ;
#41 = AXIS2_PLACEMENT_3D ( 'NONE', #95, #68, #124 ) ;
#42 = VECTOR ( 'NONE', #322, 1000.000000000000000 ) ;
#43 = DIRECTION ( 'NONE',  ( -3.491481338843133355E-15, 0.0000000000000000000, -1.000000000000000000 ) ) ;
#44 = DIRECTION ( 'NONE',  ( 4.413589455887416080E-31, 1.000000000000000000, 1.242314989306307328E-16 ) ) ;
#45 = ADVANCED_FACE ( 'NONE', ( #131, #82 ), #355, .T. ) ;
#46 = DIRECTION ( 'NONE',  ( 4.275831445896958607E-31, 1.000000000000000000, 1.224646799147353207E-16 ) ) ;
#47 = DIRECTION ( 'NONE',  ( 5.349805401075654369E-31, 1.000000000000000000, 1.505836350674311495E-16 ) ) ;
#48 = DIRECTION ( 'NONE',  ( 4.355243211456945218E-31, 1.000000000000000000, 1.224646799147353207E-16 ) ) ;
#49 = AXIS2_PLACEMENT_3D ( 'NONE', #348, #316, #344 ) ;
#50 = ADVANCED_FACE ( 'NONE', ( #198 ), #237, .F. ) ;
#51 = CARTESIAN_POINT ( 'NONE',  ( 1.047444401652940795E-15, -3.673940397442062580E-17, 0.3000000000000002665 ) ) ;
#52 = CARTESIAN_POINT ( 'NONE',  ( 0.0000000000000000000, 0.0000000000000000000, 0.0000000000000000000 ) ) ;
#53 = DIRECTION ( 'NONE',  ( 3.491481338843133355E-15, -0.0000000000000000000, 1.000000000000000000 ) ) ;
#54 = DIRECTION ( 'NONE',  ( 0.0000000000000000000, 0.0000000000000000000, 1.000000000000000000 ) ) ;
#55 = SECURITY_CLASSIFICATION ( '', '', #173 ) ;
#56 = COORDINATED_UNIVERSAL_TIME_OFFSET ( 1, 0, .AHEAD. ) ;
#57 = EDGE_CURVE ( 'NONE', #275, #372, #145, .T. ) ;
#58 = EDGE_LOOP ( 'NONE', ( #308, #116, #241, #337 ) ) ;
#59 = CLOSED_SHELL ( 'NONE', ( #211, #208, #291, #376, #333, #50, #156 ) ) ;
#60 = AXIS2_PLACEMENT_3D ( 'NONE', #222, #73, #382 ) ;
#61 = LINE ( 'NONE', #206, #232 ) ;
#62 = ORIENTED_EDGE ( 'NONE', *, *, #371, .T. ) ;
#63 = VERTEX_POINT ( 'NONE', #363 ) ;
#64 = ORIENTED_EDGE ( 'NONE', *, *, #330, .F. ) ;
#65 = CIRCLE ( 'NONE', #205, 0.09000000000000006606 ) ;
#66 = EDGE_LOOP ( 'NONE', ( #148 ) ) ;
#67 = DIRECTION ( 'NONE',  ( -3.491481338843133750E-15, 0.0000000000000000000, -1.000000000000000000 ) ) ;
#68 = DIRECTION ( 'NONE',  ( 1.000000000000000000, 0.0000000000000000000, -3.491481338843133355E-15 ) ) ;
#69 = EDGE_LOOP ( 'NONE', ( #264 ) ) ;
#70 = FACE_OUTER_BOUND ( 'NONE', #69, .T. ) ;
#71 = DIRECTION ( 'NONE',  ( 0.0000000000000000000, 1.000000000000000000, 0.0000000000000000000 ) ) ;
#72 = LINE ( 'NONE', #339, #159 ) ;
#73 = DIRECTION ( 'NONE',  ( -3.491481338843133355E-15, 1.224646799147353207E-16, -1.000000000000000000 ) ) ;
#74 = CARTESIAN_POINT ( 'NONE',  ( 2.477237613690085653E-16, 0.1499999999999999944, 0.07095090516825998395 ) ) ;
#75 = CARTESIAN_POINT ( 'NONE',  ( 1.606081415867841091E-13, -5.633375276077824704E-15, 46.00000000000000000 ) ) ;
#76 = COORDINATED_UNIVERSAL_TIME_OFFSET ( 1, 0, .AHEAD. ) ;
#77 = LINE ( 'NONE', #104, #135 ) ;
#78 = MANIFOLD_SOLID_BREP ( 'Corps-Déplacer/Copier1[2]', #169 ) ;
#79 = DIRECTION ( 'NONE',  ( -3.491481338843133355E-15, 1.224646799147353207E-16, -1.000000000000000000 ) ) ;
#80 = EDGE_CURVE ( 'NONE', #311, #118, #20, .T. ) ;
#81 = CARTESIAN_POINT ( 'NONE',  ( -0.08999999999999977462, 0.04433359181230938501, 0.06253223480689090730 ) ) ;
#82 = FACE_OUTER_BOUND ( 'NONE', #176, .T. ) ;
#83 = DIRECTION ( 'NONE',  ( 1.000000000000000000, 0.0000000000000000000, 0.0000000000000000000 ) ) ;
#84 = AXIS2_PLACEMENT_3D ( 'NONE', #183, #313, #321 ) ;
#85 = CARTESIAN_POINT ( 'NONE',  ( 1.987995054803191888E-14, 1.499999999999996003, 5.693844136259636812 ) ) ;
#86 = CARTESIAN_POINT ( 'NONE',  ( 0.0000000000000000000, 0.0000000000000000000, 0.0000000000000000000 ) ) ;
#87 = APPROVAL ( #358, 'UNSPECIFIED' ) ;
#88 = CC_DESIGN_SECURITY_CLASSIFICATION ( #55, ( #242 ) ) ;
#89 = ORIENTED_EDGE ( 'NONE', *, *, #80, .F. ) ;
#90 = SHAPE_DEFINITION_REPRESENTATION ( #126, #258 ) ;
#91 = DATE_AND_TIME ( #365, #331 ) ;
#92 = AXIS2_PLACEMENT_3D ( 'NONE', #392, #25, #263 ) ;
#93 = EDGE_LOOP ( 'NONE', ( #181 ) ) ;
#94 = ORIENTED_EDGE ( 'NONE', *, *, #314, .F. ) ;
#95 = CARTESIAN_POINT ( 'NONE',  ( 0.0000000000000000000, 0.0000000000000000000, 0.0000000000000000000 ) ) ;
#96 = ORIENTED_EDGE ( 'NONE', *, *, #320, .T. ) ;
#97 = ADVANCED_FACE ( 'NONE', ( #168, #231 ), #300, .T. ) ;
#98 = ORIENTED_EDGE ( 'NONE', *, *, #189, .T. ) ;
#99 = FACE_OUTER_BOUND ( 'NONE', #178, .T. ) ;
#100 = PERSON ( 'UNSPECIFIED', 'UNSPECIFIED', 'UNSPECIFIED', ('UNSPECIFIED'), ('UNSPECIFIED'), ('UNSPECIFIED') ) ;
#101 = FACE_OUTER_BOUND ( 'NONE', #66, .T. ) ;
#102 = DIRECTION ( 'NONE',  ( -3.491481338843133355E-15, 1.224646799147353207E-16, -1.000000000000000000 ) ) ;
#103 = AXIS2_PLACEMENT_3D ( 'NONE', #274, #43, #343 ) ;
#104 = CARTESIAN_POINT ( 'NONE',  ( 2.365919782978951696E-32, 0.1499999999999999944, 6.776263578034402713E-18 ) ) ;
#105 = APPLICATION_CONTEXT ( 'configuration controlled 3d designs of mechanical parts and assemblies' ) ;
#106 = APPROVAL_DATE_TIME ( #385, #1 ) ;
#107 = CARTESIAN_POINT ( 'NONE',  ( 1.047444401652939809E-15, 0.0000000000000000000, 0.2999999999999999889 ) ) ;
#108 = VECTOR ( 'NONE', #216, 1000.000000000000000 ) ;
#109 = AXIS2_PLACEMENT_3D ( 'NONE', #6, #317, #283 ) ;
#110 = VERTEX_POINT ( 'NONE', #229 ) ;
#111 = CC_DESIGN_PERSON_AND_ORGANIZATION_ASSIGNMENT ( #393, #299, ( #242 ) ) ;
#112 = DIRECTION ( 'NONE',  ( 4.275831445896957731E-31, 1.000000000000000000, 1.224646799147353207E-16 ) ) ;
#113 = VERTEX_POINT ( 'NONE', #115 ) ;
#114 = DATE_AND_TIME ( #235, #220 ) ;
#115 = CARTESIAN_POINT ( 'NONE',  ( -0.08999999999999994116, 0.1199999999999999956, 0.01500000000000038802 ) ) ;
#116 = ORIENTED_EDGE ( 'NONE', *, *, #18, .T. ) ;
#117 = AXIS2_PLACEMENT_3D ( 'NONE', #197, #54, #83 ) ;
#118 = VERTEX_POINT ( 'NONE', #33 ) ;
#119 = EDGE_LOOP ( 'NONE', ( #62 ) ) ;
#120 = APPLICATION_CONTEXT ( 'configuration controlled 3d designs of mechanical parts and assemblies' ) ;
#121 = LINE ( 'NONE', #160, #170 ) ;
#122 = CARTESIAN_POINT ( 'NONE',  ( 2.477237613690085160E-16, 0.08999999999999999667, 0.07095090516825997007 ) ) ;
#123 = CARTESIAN_POINT ( 'NONE',  ( 2.477237613690067411E-16, -8.688979891091636327E-18, 0.07095090516825947047 ) ) ;
#124 = DIRECTION ( 'NONE',  ( -3.491481338843133355E-15, 0.0000000000000000000, -1.000000000000000000 ) ) ;
#125 = CIRCLE ( 'NONE', #109, 0.1499999999999999944 ) ;
#126 = PRODUCT_DEFINITION_SHAPE ( 'NONE', 'NONE',  #164 ) ;
#127 = ORIENTED_EDGE ( 'NONE', *, *, #296, .T. ) ;
#128 = PRODUCT_RELATED_PRODUCT_CATEGORY ( 'detail', '', ( #217 ) ) ;
#129 = FACE_OUTER_BOUND ( 'NONE', #30, .T. ) ;
#130 = PLANE ( 'NONE',  #335 ) ;
#131 = FACE_OUTER_BOUND ( 'NONE', #119, .T. ) ;
#132 = VERTEX_POINT ( 'NONE', #166 ) ;
#133 = FACE_OUTER_BOUND ( 'NONE', #27, .T. ) ;
#134 = APPROVAL_ROLE ( '' ) ;
#135 = VECTOR ( 'NONE', #255, 1000.000000000000000 ) ;
#136 = VECTOR ( 'NONE', #67, 1000.000000000000000 ) ;
#137 = DIRECTION ( 'NONE',  ( -3.491481338843133355E-15, 1.224646799147353207E-16, -1.000000000000000000 ) ) ;
#138 = CC_DESIGN_PERSON_AND_ORGANIZATION_ASSIGNMENT ( #256, #325, ( #164 ) ) ;
#139 = CARTESIAN_POINT ( 'NONE',  ( 2.477237613690067904E-16, 0.08999999999999999667, 0.07095090516825948435 ) ) ;
#140 = UNCERTAINTY_MEASURE_WITH_UNIT (LENGTH_MEASURE( 1.000000000000000082E-05 ), #194, 'distance_accuracy_value', 'NONE');
#141 = APPROVAL_STATUS ( 'not_yet_approved' ) ;
#142 = DIRECTION ( 'NONE',  ( -1.000000000000000000, 0.0000000000000000000, 3.491481338843133355E-15 ) ) ;
#143 = EDGE_CURVE ( 'NONE', #63, #311, #61, .T. ) ;
#144 = PERSON_AND_ORGANIZATION ( #100, #367 ) ;
#145 = CIRCLE ( 'NONE', #14, 0.1499999999999999944 ) ;
#146 = AXIS2_PLACEMENT_3D ( 'NONE', #228, #351, #191 ) ;
#147 = ORIENTED_EDGE ( 'NONE', *, *, #245, .F. ) ;
#148 = ORIENTED_EDGE ( 'NONE', *, *, #245, .T. ) ;
#149 = AXIS2_PLACEMENT_3D ( 'NONE', #10, #161, #190 ) ;
#150 = CC_DESIGN_DATE_AND_TIME_ASSIGNMENT ( #262, #266, ( #55 ) ) ;
#151 = LINE ( 'NONE', #157, #136 ) ;
#152 = ORIENTED_EDGE ( 'NONE', *, *, #26, .T. ) ;
#153 = DIRECTION ( 'NONE',  ( -3.491481338843133355E-15, 1.224646799147353207E-16, -1.000000000000000000 ) ) ;
#154 = CARTESIAN_POINT ( 'NONE',  ( -0.08999999999999994116, 0.1199999999999999956, 0.01500000000000038802 ) ) ;
#155 = EDGE_LOOP ( 'NONE', ( #278 ) ) ;
#156 = ADVANCED_FACE ( 'NONE', ( #305 ), #369, .T. ) ;
#157 = CARTESIAN_POINT ( 'NONE',  ( 2.477237613690084667E-16, -0.08999999999999999667, 0.07095090516825995619 ) ) ;
#158 = CARTESIAN_POINT ( 'NONE',  ( 0.0000000000000000000, 0.0000000000000000000, 0.0000000000000000000 ) ) ;
#159 = VECTOR ( 'NONE', #38, 1000.000000000000000 ) ;
#160 = CARTESIAN_POINT ( 'NONE',  ( -0.08999999999999999667, 0.1199999999999999956, 3.289290820856502375E-16 ) ) ;
#161 = DIRECTION ( 'NONE',  ( -3.491481338843133355E-15, 1.224646799147353207E-16, -1.000000000000000000 ) ) ;
#162 = CARTESIAN_POINT ( 'NONE',  ( -0.08999999999999974687, 0.0000000000000000000, 0.07095090516826006721 ) ) ;
#163 = CARTESIAN_POINT ( 'NONE',  ( 1.606081415867841091E-13, -5.633375276077824704E-15, 46.00000000000000000 ) ) ;
#164 = PRODUCT_DEFINITION ( 'UNKNOWN', '', #242, #298 ) ;
#165 = AXIS2_PLACEMENT_3D ( 'NONE', #249, #377, #44 ) ;
#166 = CARTESIAN_POINT ( 'NONE',  ( 1.595606971851311880E-13, 1.499999999999998668, 45.69999999999999574 ) ) ;
#167 = LINE ( 'NONE', #327, #42 ) ;
#168 = FACE_OUTER_BOUND ( 'NONE', #270, .T. ) ;
#169 = CLOSED_SHELL ( 'NONE', ( #310, #45, #362, #252, #97, #180, #276 ) ) ;
#170 = VECTOR ( 'NONE', #373, 1000.000000000000000 ) ;
#171 = MECHANICAL_CONTEXT ( 'NONE', #105, 'mechanical' ) ;
#172 = APPROVAL_ROLE ( '' ) ;
#173 = SECURITY_CLASSIFICATION_LEVEL ( 'unclassified' ) ;
#174 = AXIS2_PLACEMENT_3D ( 'NONE', #75, #352, #187 ) ;
#175 = EDGE_LOOP ( 'NONE', ( #94, #244, #204, #312 ) ) ;
#176 = EDGE_LOOP ( 'NONE', ( #374 ) ) ;
#177 = CC_DESIGN_PERSON_AND_ORGANIZATION_ASSIGNMENT ( #19, #295, ( #217 ) ) ;
#178 = EDGE_LOOP ( 'NONE', ( #4 ) ) ;
#179 = ORIENTED_EDGE ( 'NONE', *, *, #189, .F. ) ;
#180 = ADVANCED_FACE ( 'NONE', ( #277, #129 ), #366, .T. ) ;
#181 = ORIENTED_EDGE ( 'NONE', *, *, #281, .F. ) ;
#182 = CYLINDRICAL_SURFACE ( 'NONE', #103, 0.08999999999999999667 ) ;
#183 = CARTESIAN_POINT ( 'NONE',  ( 1.951106267765567803E-15, -6.843559548873745553E-17, 0.5588190451025142336 ) ) ;
#184 = AXIS2_PLACEMENT_3D ( 'NONE', #185, #40, #7 ) ;
#185 = CARTESIAN_POINT ( 'NONE',  ( 1.595606971851311880E-13, -5.596635872103403844E-15, 45.69999999999999574 ) ) ;
#186 = CC_DESIGN_APPROVAL ( #1, ( #164 ) ) ;
#187 = DIRECTION ( 'NONE',  ( 0.0000000000000000000, 1.000000000000000000, 0.0000000000000000000 ) ) ;
#188 = CALENDAR_DATE ( 2021, 3, 12 ) ;
#189 = EDGE_CURVE ( 'NONE', #118, #372, #77, .T. ) ;
#190 = DIRECTION ( 'NONE',  ( 0.0000000000000000000, 1.000000000000000000, 0.0000000000000000000 ) ) ;
#191 = DIRECTION ( 'NONE',  ( -4.275831445896958607E-31, -1.000000000000000000, -1.224646799147353207E-16 ) ) ;
#192 = CARTESIAN_POINT ( 'NONE',  ( -0.08999999999999984401, 0.08384253436026133099, 0.04116152393597837661 ) ) ;
#193 = APPROVAL_PERSON_ORGANIZATION ( #22, #1, #134 ) ;
#194 =( LENGTH_UNIT ( ) NAMED_UNIT ( * ) SI_UNIT ( .MILLI., .METRE. ) );
#195 = DIRECTION ( 'NONE',  ( -3.491481338843133355E-15, 1.224646799147353207E-16, -1.000000000000000000 ) ) ;
#196 = CC_DESIGN_PERSON_AND_ORGANIZATION_ASSIGNMENT ( #304, #260, ( #242 ) ) ;
#197 = CARTESIAN_POINT ( 'NONE',  ( 0.0000000000000000000, 0.0000000000000000000, 0.0000000000000000000 ) ) ;
#198 = FACE_OUTER_BOUND ( 'NONE', #306, .T. ) ;
#199 = APPROVAL_PERSON_ORGANIZATION ( #31, #268, #172 ) ;
#200 = COORDINATED_UNIVERSAL_TIME_OFFSET ( 1, 0, .AHEAD. ) ;
#201 = ORIENTED_EDGE ( 'NONE', *, *, #236, .F. ) ;
#202 = CALENDAR_DATE ( 2021, 3, 12 ) ;
#203 = MANIFOLD_SOLID_BREP ( 'Corps-Déplacer/Copier1[1]', #59 ) ;
#204 = ORIENTED_EDGE ( 'NONE', *, *, #143, .T. ) ;
#205 = AXIS2_PLACEMENT_3D ( 'NONE', #51, #79, #387 ) ;
#206 = CARTESIAN_POINT ( 'NONE',  ( -0.08999999999999824807, 0.0000000000000000000, 0.5000000000000003331 ) ) ;
#207 = ORIENTED_EDGE ( 'NONE', *, *, #302, .T. ) ;
#208 = ADVANCED_FACE ( 'NONE', ( #215 ), #248, .T. ) ;
#209 = EDGE_LOOP ( 'NONE', ( #152, #338, #98, #213, #246 ) ) ;
#210 = PLANE ( 'NONE',  #279 ) ;
#211 = ADVANCED_FACE ( 'NONE', ( #133 ), #282, .T. ) ;
#212 = CIRCLE ( 'NONE', #49, 0.09000000000000001055 ) ;
#213 = ORIENTED_EDGE ( 'NONE', *, *, #390, .T. ) ;
#214 = FACE_OUTER_BOUND ( 'NONE', #175, .T. ) ;
#215 = FACE_OUTER_BOUND ( 'NONE', #58, .T. ) ;
#216 = DIRECTION ( 'NONE',  ( -2.381184547279827482E-15, 0.7313537016191721252, -0.6819983600624967002 ) ) ;
#217 = PRODUCT ( '997974', '997974', '', ( #171 ) ) ;
#218 = CARTESIAN_POINT ( 'NONE',  ( -0.08999999999999999667, 0.0000000000000000000, 3.142333204958819823E-16 ) ) ;
#219 = DIRECTION ( 'NONE',  ( 3.491481338843133355E-15, -1.224646799147353207E-16, 1.000000000000000000 ) ) ;
#220 = LOCAL_TIME ( 14, 0, 53.00000000000000000, #200 ) ;
#221 = LINE ( 'NONE', #290, #108 ) ;
#222 = CARTESIAN_POINT ( 'NONE',  ( 1.595606971851311880E-13, -5.596635872103403844E-15, 45.69999999999999574 ) ) ;
#223 = APPLICATION_PROTOCOL_DEFINITION ( 'international standard', 'config_control_design', 1994, #120 ) ;
#224 = DIRECTION ( 'NONE',  ( -4.275831445896958607E-31, -1.000000000000000000, -1.224646799147353207E-16 ) ) ;
#225 = VERTEX_POINT ( 'NONE', #293 ) ;
#226 = EDGE_CURVE ( 'NONE', #225, #225, #394, .T. ) ;
#227 = CIRCLE ( 'NONE', #174, 1.200000000000004396 ) ;
#228 = CARTESIAN_POINT ( 'NONE',  ( 2.477237613690076778E-16, 0.08999999999999999667, 0.07095090516825972027 ) ) ;
#229 = CARTESIAN_POINT ( 'NONE',  ( 1.047444401652940795E-15, 0.09000000000000002442, 0.3000000000000002665 ) ) ;
#230 = PERSON_AND_ORGANIZATION ( #100, #367 ) ;
#231 = FACE_OUTER_BOUND ( 'NONE', #368, .T. ) ;
#232 = VECTOR ( 'NONE', #269, 1000.000000000000000 ) ;
#233 = ORIENTED_EDGE ( 'NONE', *, *, #57, .F. ) ;
#234 = TOROIDAL_SURFACE ( 'NONE', #294, 1.090000000000000080, 1.000000000000000000 ) ;
#235 = CALENDAR_DATE ( 2021, 3, 12 ) ;
#236 = EDGE_CURVE ( 'NONE', #63, #3, #212, .T. ) ;
#237 = PLANE ( 'NONE',  #341 ) ;
#238 = APPROVAL_DATE_TIME ( #114, #268 ) ;
#239 = DATE_TIME_ROLE ( 'creation_date' ) ;
#240 = CC_DESIGN_PERSON_AND_ORGANIZATION_ASSIGNMENT ( #144, #307, ( #55 ) ) ;
#241 = ORIENTED_EDGE ( 'NONE', *, *, #320, .F. ) ;
#242 = PRODUCT_DEFINITION_FORMATION_WITH_SPECIFIED_SOURCE ( 'ANY', '', #217, .NOT_KNOWN. ) ;
#243 = EDGE_LOOP ( 'NONE', ( #36 ) ) ;
#244 = ORIENTED_EDGE ( 'NONE', *, *, #356, .T. ) ;
#245 = EDGE_CURVE ( 'NONE', #15, #15, #353, .T. ) ;
#246 = ORIENTED_EDGE ( 'NONE', *, *, #18, .F. ) ;
#247 = DIRECTION ( 'NONE',  ( -3.491481338843133355E-15, 1.224646799147353207E-16, -1.000000000000000000 ) ) ;
#248 = CONICAL_SURFACE ( 'NONE', #165, 0.1499999999999999944, 0.8203047484373372500 ) ;
#249 = CARTESIAN_POINT ( 'NONE',  ( 5.237222008264719631E-17, -1.836970198721036528E-18, 0.01500000000000005669 ) ) ;
#250 = ORIENTED_EDGE ( 'NONE', *, *, #143, .F. ) ;
#251 = DIRECTION ( 'NONE',  ( -3.491481338843133355E-15, 1.224646799147353207E-16, -1.000000000000000000 ) ) ;
#252 = ADVANCED_FACE ( 'NONE', ( #101, #288 ), #301, .T. ) ;
#253 = DIRECTION ( 'NONE',  ( 4.275831445896958607E-31, 1.000000000000000000, 1.224646799147352961E-16 ) ) ;
#254 = CC_DESIGN_APPROVAL ( #87, ( #55 ) ) ;
#255 = DIRECTION ( 'NONE',  ( 4.928999547872816995E-31, 1.000000000000000000, 1.411721578757167396E-16 ) ) ;
#256 = PERSON_AND_ORGANIZATION ( #100, #367 ) ;
#257 = EDGE_CURVE ( 'NONE', #391, #391, #265, .T. ) ;
#258 = ADVANCED_BREP_SHAPE_REPRESENTATION ( '997974', ( #203, #78, #117 ), #2 ) ;
#259 = FACE_OUTER_BOUND ( 'NONE', #32, .T. ) ;
#260 = PERSON_AND_ORGANIZATION_ROLE ( 'design_supplier' ) ;
#261 = DIRECTION ( 'NONE',  ( -3.491481338843133355E-15, 1.224646799147353207E-16, -1.000000000000000000 ) ) ;
#262 = DATE_AND_TIME ( #361, #34 ) ;
#263 = DIRECTION ( 'NONE',  ( 4.275831445896958607E-31, 1.000000000000000000, 1.224646799147353207E-16 ) ) ;
#264 = ORIENTED_EDGE ( 'NONE', *, *, #371, .F. ) ;
#265 = CIRCLE ( 'NONE', #303, 0.09000000000000001055 ) ;
#266 = DATE_TIME_ROLE ( 'classification_date' ) ;
#267 = B_SPLINE_CURVE_WITH_KNOTS ( 'NONE', 3,
 ( #162, #350, #81, #192, #323, #154 ),
 .UNSPECIFIED., .F., .F.,
 ( 4, 2, 4 ),
 ( 0.0001858625386186727650, 0.0002528082363982029159, 0.0003197539341777330397 ),
 .UNSPECIFIED. ) ;
#268 = APPROVAL ( #141, 'UNSPECIFIED' ) ;
#269 = DIRECTION ( 'NONE',  ( -3.491481338843133355E-15, 0.0000000000000000000, -1.000000000000000000 ) ) ;
#270 = EDGE_LOOP ( 'NONE', ( #127 ) ) ;
#271 = APPROVAL_DATE_TIME ( #91, #87 ) ;
#272 = APPROVAL_PERSON_ORGANIZATION ( #230, #87, #364 ) ;
#273 = ORIENTED_EDGE ( 'NONE', *, *, #340, .F. ) ;
#274 = CARTESIAN_POINT ( 'NONE',  ( 1.745740669421566678E-15, 0.0000000000000000000, 0.5000000000000000000 ) ) ;
#275 = VERTEX_POINT ( 'NONE', #12 ) ;
#276 = ADVANCED_FACE ( 'NONE', ( #380 ), #280, .T. ) ;
#277 = FACE_BOUND ( 'NONE', #243, .T. ) ;
#278 = ORIENTED_EDGE ( 'NONE', *, *, #257, .T. ) ;
#279 = AXIS2_PLACEMENT_3D ( 'NONE', #381, #153, #379 ) ;
#280 = PLANE ( 'NONE',  #16 ) ;
#281 = EDGE_CURVE ( 'NONE', #354, #354, #227, .T. ) ;
#282 = CYLINDRICAL_SURFACE ( 'NONE', #360, 0.1499999999999999944 ) ;
#283 = DIRECTION ( 'NONE',  ( 4.413589455887416080E-31, 1.000000000000000000, 1.242314989306307328E-16 ) ) ;
#284 = DIRECTION ( 'NONE',  ( -3.491481338843133355E-15, 1.224646799147353207E-16, -1.000000000000000000 ) ) ;
#285 = DIRECTION ( 'NONE',  ( -3.943199638298253246E-31, -1.000000000000000000, -1.129377263005733868E-16 ) ) ;
#286 = CARTESIAN_POINT ( 'NONE',  ( 2.365919782978951696E-32, 0.1499999999999999944, 6.776263578034402713E-18 ) ) ;
#287 = AXIS2_PLACEMENT_3D ( 'NONE', #52, #53, #142 ) ;
#288 = FACE_BOUND ( 'NONE', #342, .T. ) ;
#289 = CC_DESIGN_APPROVAL ( #268, ( #242 ) ) ;
#290 = CARTESIAN_POINT ( 'NONE',  ( 5.407510732985463078E-16, -1.896699442964753988E-17, 0.1548772629206486562 ) ) ;
#291 = ADVANCED_FACE ( 'NONE', ( #384 ), #130, .T. ) ;
#292 =( NAMED_UNIT ( * ) PLANE_ANGLE_UNIT ( ) SI_UNIT ( $, .RADIAN. ) );
#293 = CARTESIAN_POINT ( 'NONE',  ( 1.951106267765567803E-15, 0.1240741737109299220, 0.5588190451025142336 ) ) ;
#294 = AXIS2_PLACEMENT_3D ( 'NONE', #107, #137, #48 ) ;
#295 = PERSON_AND_ORGANIZATION_ROLE ( 'design_owner' ) ;
#296 = EDGE_CURVE ( 'NONE', #132, #132, #9, .T. ) ;
#297 = CARTESIAN_POINT ( 'NONE',  ( -0.08999999999999824807, 0.0000000000000000000, 0.5000000000000003331 ) ) ;
#298 = DESIGN_CONTEXT ( 'detailed design', #120, 'design' ) ;
#299 = PERSON_AND_ORGANIZATION_ROLE ( 'creator' ) ;
#300 = CYLINDRICAL_SURFACE ( 'NONE', #92, 1.500000000000000444 ) ;
#301 = CONICAL_SURFACE ( 'NONE', #84, 0.1240741737109300052, 0.2617993877991428020 ) ;
#302 = EDGE_CURVE ( 'NONE', #63, #113, #267, .T. ) ;
#303 = AXIS2_PLACEMENT_3D ( 'NONE', #386, #251, #47 ) ;
#304 = PERSON_AND_ORGANIZATION ( #100, #367 ) ;
#305 = FACE_OUTER_BOUND ( 'NONE', #209, .T. ) ;
#306 = EDGE_LOOP ( 'NONE', ( #207, #5, #336, #250 ) ) ;
#307 = PERSON_AND_ORGANIZATION_ROLE ( 'classification_officer' ) ;
#308 = ORIENTED_EDGE ( 'NONE', *, *, #236, .T. ) ;
#309 = ORIENTED_EDGE ( 'NONE', *, *, #390, .F. ) ;
#310 = ADVANCED_FACE ( 'NONE', ( #37 ), #210, .T. ) ;
#311 = VERTEX_POINT ( 'NONE', #218 ) ;
#312 = ORIENTED_EDGE ( 'NONE', *, *, #80, .T. ) ;
#313 = DIRECTION ( 'NONE',  ( 3.491481338843133355E-15, -1.224646799147353207E-16, 1.000000000000000000 ) ) ;
#314 = EDGE_CURVE ( 'NONE', #35, #118, #151, .T. ) ;
#315 = AXIS2_PLACEMENT_3D ( 'NONE', #11, #284, #71 ) ;
#316 = DIRECTION ( 'NONE',  ( -3.491481338843133355E-15, 1.224646799147353207E-16, -1.000000000000000000 ) ) ;
#317 = DIRECTION ( 'NONE',  ( -3.491481338843133355E-15, 1.224646799147353207E-16, -1.000000000000000000 ) ) ;
#318 = DIRECTION ( 'NONE',  ( -3.491481338843133355E-15, 1.224646799147353207E-16, -1.000000000000000000 ) ) ;
#319 =( NAMED_UNIT ( * ) SI_UNIT ( $, .STERADIAN. ) SOLID_ANGLE_UNIT ( ) );
#320 = EDGE_CURVE ( 'NONE', #113, #370, #125, .T. ) ;
#321 = DIRECTION ( 'NONE',  ( 0.0000000000000000000, -1.000000000000000000, 0.0000000000000000000 ) ) ;
#322 = DIRECTION ( 'NONE',  ( 3.491481338843133355E-15, -0.0000000000000000000, 1.000000000000000000 ) ) ;
#323 = CARTESIAN_POINT ( 'NONE',  ( -0.08999999999999989952, 0.1021079808162513314, 0.02834766224862699316 ) ) ;
#324 = CIRCLE ( 'NONE', #389, 0.09000000000000001055 ) ;
#325 = PERSON_AND_ORGANIZATION_ROLE ( 'creator' ) ;
#326 = DIRECTION ( 'NONE',  ( -3.491481338843133355E-15, 0.0000000000000000000, -1.000000000000000000 ) ) ;
#327 = CARTESIAN_POINT ( 'NONE',  ( 2.477237613690085653E-16, 0.1499999999999999944, 0.07095090516825998395 ) ) ;
#328 = DIRECTION ( 'NONE',  ( 4.275831445896958607E-31, 1.000000000000000000, 1.224646799147352961E-16 ) ) ;
#329 = APPLICATION_PROTOCOL_DEFINITION ( 'international standard', 'config_control_design', 1994, #105 ) ;
#330 = EDGE_CURVE ( 'NONE', #275, #311, #72, .T. ) ;
#331 = LOCAL_TIME ( 14, 0, 53.00000000000000000, #24 ) ;
#332 = ORIENTED_EDGE ( 'NONE', *, *, #226, .F. ) ;
#333 = ADVANCED_FACE ( 'NONE', ( #214 ), #182, .T. ) ;
#334 = COORDINATED_UNIVERSAL_TIME_OFFSET ( 1, 0, .AHEAD. ) ;
#335 = AXIS2_PLACEMENT_3D ( 'NONE', #347, #318, #46 ) ;
#336 = ORIENTED_EDGE ( 'NONE', *, *, #330, .T. ) ;
#337 = ORIENTED_EDGE ( 'NONE', *, *, #302, .F. ) ;
#338 = ORIENTED_EDGE ( 'NONE', *, *, #314, .T. ) ;
#339 = CARTESIAN_POINT ( 'NONE',  ( -0.08999999999999999667, 0.0000000000000000000, 3.142333204958819823E-16 ) ) ;
#340 = EDGE_CURVE ( 'NONE', #113, #275, #121, .T. ) ;
#341 = AXIS2_PLACEMENT_3D ( 'NONE', #297, #23, #326 ) ;
#342 = EDGE_LOOP ( 'NONE', ( #332 ) ) ;
#343 = DIRECTION ( 'NONE',  ( -1.000000000000000000, 0.0000000000000000000, 3.614007241618348376E-15 ) ) ;
#344 = DIRECTION ( 'NONE',  ( 5.349805401075654369E-31, 1.000000000000000000, 1.505836350674311495E-16 ) ) ;
#345 = CC_DESIGN_DATE_AND_TIME_ASSIGNMENT ( #396, #239, ( #164 ) ) ;
#346 = LINE ( 'NONE', #74, #359 ) ;
#347 = CARTESIAN_POINT ( 'NONE',  ( 4.275831445896957621E-32, 0.1499999999999999944, 1.224646799147352961E-17 ) ) ;
#348 = CARTESIAN_POINT ( 'NONE',  ( 2.477237613690067411E-16, -8.688979891091636327E-18, 0.07095090516825947047 ) ) ;
#349 = APPROVAL_STATUS ( 'not_yet_approved' ) ;
#350 = CARTESIAN_POINT ( 'NONE',  ( -0.08999999999999974687, 0.02231931059396812661, 0.07095090516828728155 ) ) ;
#351 = DIRECTION ( 'NONE',  ( 3.491481338843133355E-15, -1.224646799147353207E-16, 1.000000000000000000 ) ) ;
#352 = DIRECTION ( 'NONE',  ( -3.491481338843133355E-15, 1.224646799147353207E-16, -1.000000000000000000 ) ) ;
#353 = CIRCLE ( 'NONE', #315, 1.499999999999996669 ) ;
#354 = VERTEX_POINT ( 'NONE', #17 ) ;
#355 = CYLINDRICAL_SURFACE ( 'NONE', #388, 0.09000000000000003830 ) ;
#356 = EDGE_CURVE ( 'NONE', #35, #63, #324, .T. ) ;
#357 = PLANE ( 'NONE',  #146 ) ;
#358 = APPROVAL_STATUS ( 'not_yet_approved' ) ;
#359 = VECTOR ( 'NONE', #285, 1000.000000000000000 ) ;
#360 = AXIS2_PLACEMENT_3D ( 'NONE', #158, #102, #253 ) ;
#361 = CALENDAR_DATE ( 2021, 3, 12 ) ;
#362 = ADVANCED_FACE ( 'NONE', ( #99, #70 ), #234, .F. ) ;
#363 = CARTESIAN_POINT ( 'NONE',  ( -0.08999999999999974687, 0.0000000000000000000, 0.07095090516826006721 ) ) ;
#364 = APPROVAL_ROLE ( '' ) ;
#365 = CALENDAR_DATE ( 2021, 3, 12 ) ;
#366 = CONICAL_SURFACE ( 'NONE', #184, 1.500000000000004441, 0.7853981633974453924 ) ;
#367 = ORGANIZATION ( 'UNSPECIFIED', 'UNSPECIFIED', '' ) ;
#368 = EDGE_LOOP ( 'NONE', ( #147 ) ) ;
#369 = PLANE ( 'NONE',  #41 ) ;
#370 = VERTEX_POINT ( 'NONE', #383 ) ;
#371 = EDGE_CURVE ( 'NONE', #110, #110, #65, .T. ) ;
#372 = VERTEX_POINT ( 'NONE', #286 ) ;
#373 = DIRECTION ( 'NONE',  ( -3.491481338843133355E-15, 1.224646799147353207E-16, -1.000000000000000000 ) ) ;
#374 = ORIENTED_EDGE ( 'NONE', *, *, #257, .F. ) ;
#375 = DIRECTION ( 'NONE',  ( 5.349805401075654369E-31, 1.000000000000000000, 1.505836350674311495E-16 ) ) ;
#376 = ADVANCED_FACE ( 'NONE', ( #259 ), #357, .T. ) ;
#377 = DIRECTION ( 'NONE',  ( -3.491481338843133355E-15, 1.224646799147353207E-16, -1.000000000000000000 ) ) ;
#378 = EDGE_LOOP ( 'NONE', ( #8, #179, #89, #64 ) ) ;
#379 = DIRECTION ( 'NONE',  ( 4.275831445896958607E-31, 1.000000000000000000, 1.224646799147353207E-16 ) ) ;
#380 = FACE_OUTER_BOUND ( 'NONE', #93, .T. ) ;
#381 = CARTESIAN_POINT ( 'NONE',  ( 2.477237613690076778E-16, 0.08999999999999999667, 0.07095090516825972027 ) ) ;
#382 = DIRECTION ( 'NONE',  ( 0.0000000000000000000, 1.000000000000000000, 0.0000000000000000000 ) ) ;
#383 = CARTESIAN_POINT ( 'NONE',  ( 5.237222008264720864E-17, 0.1499999999999999667, 0.01500000000000006016 ) ) ;
#384 = FACE_OUTER_BOUND ( 'NONE', #378, .T. ) ;
#385 = DATE_AND_TIME ( #188, #28 ) ;
#386 = CARTESIAN_POINT ( 'NONE',  ( 2.477237613690067411E-16, -8.688979891091636327E-18, 0.07095090516825947047 ) ) ;
#387 = DIRECTION ( 'NONE',  ( 0.0000000000000000000, 1.000000000000000000, 0.0000000000000000000 ) ) ;
#388 = AXIS2_PLACEMENT_3D ( 'NONE', #86, #195, #112 ) ;
#389 = AXIS2_PLACEMENT_3D ( 'NONE', #123, #247, #375 ) ;
#390 = EDGE_CURVE ( 'NONE', #372, #370, #167, .T. ) ;
#391 = VERTEX_POINT ( 'NONE', #139 ) ;
#392 = CARTESIAN_POINT ( 'NONE',  ( 0.0000000000000000000, 0.0000000000000000000, 0.0000000000000000000 ) ) ;
#393 = PERSON_AND_ORGANIZATION ( #100, #367 ) ;
#394 = CIRCLE ( 'NONE', #149, 0.1240741737109300052 ) ;
#395 = ORIENTED_EDGE ( 'NONE', *, *, #26, .F. ) ;
#396 = DATE_AND_TIME ( #202, #21 ) ;
#397 = ORIENTED_EDGE ( 'NONE', *, *, #296, .F. ) ;
ENDSEC;
END-ISO-10303-21;
