ISO-10303-21;
HEADER;
FILE_DESCRIPTION (( 'STEP AP203' ),
    '1' );
FILE_NAME ('997973.step',
    '2021-12-03T13:00:52',
    ( '' ),
    ( '' ),
    'SwSTEP 2.0',
    'SolidWorks 2019',
    '' );
FILE_SCHEMA (( 'CONFIG_CONTROL_DESIGN' ));
ENDSEC;

DATA;
#1 = ORIENTED_EDGE ( 'NONE', *, *, #260, .T. ) ;
#2 = DIRECTION ( 'NONE',  ( 4.275831445896958607E-31, 1.000000000000000000, 1.224646799147353207E-16 ) ) ;
#3 = FACE_OUTER_BOUND ( 'NONE', #338, .T. ) ;
#4 = CARTESIAN_POINT ( 'NONE',  ( 5.237222008264706689E-17, -1.836970198721031906E-18, 0.01500000000000001853 ) ) ;
#5 = FACE_OUTER_BOUND ( 'NONE', #170, .T. ) ;
#6 = SHAPE_DEFINITION_REPRESENTATION ( #394, #53 ) ;
#7 = ORGANIZATION ( 'UNSPECIFIED', 'UNSPECIFIED', '' ) ;
#8 = DIRECTION ( 'NONE',  ( 4.212971753347078429E-31, 1.000000000000000000, 1.185846126156020475E-16 ) ) ;
#9 = ORIENTED_EDGE ( 'NONE', *, *, #253, .T. ) ;
#10 = APPROVAL_DATE_TIME ( #93, #212 ) ;
#11 = VERTEX_POINT ( 'NONE', #343 ) ;
#12 = PERSON_AND_ORGANIZATION ( #284, #7 ) ;
#13 = CARTESIAN_POINT ( 'NONE',  ( 1.396592535537254131E-15, 0.05999999999999994227, 0.4000000000000002442 ) ) ;
#14 = DIRECTION ( 'NONE',  ( 4.012354050806740777E-31, 1.000000000000000000, 1.129377263005733621E-16 ) ) ;
#15 = AXIS2_PLACEMENT_3D ( 'NONE', #285, #289, #14 ) ;
#16 = CIRCLE ( 'NONE', #175, 1.499999999999996669 ) ;
#17 = FACE_OUTER_BOUND ( 'NONE', #215, .T. ) ;
#18 = LINE ( 'NONE', #245, #223 ) ;
#19 = CARTESIAN_POINT ( 'NONE',  ( 0.0000000000000000000, 0.0000000000000000000, 0.0000000000000000000 ) ) ;
#20 = ADVANCED_FACE ( 'NONE', ( #5 ), #179, .F. ) ;
#21 = LINE ( 'NONE', #389, #38 ) ;
#22 = MECHANICAL_CONTEXT ( 'NONE', #101, 'mechanical' ) ;
#23 = FACE_OUTER_BOUND ( 'NONE', #138, .T. ) ;
#24 = VERTEX_POINT ( 'NONE', #39 ) ;
#25 = CYLINDRICAL_SURFACE ( 'NONE', #358, 1.500000000000000444 ) ;
#26 = ORIENTED_EDGE ( 'NONE', *, *, #328, .F. ) ;
#27 = DIRECTION ( 'NONE',  ( -3.491481338843133355E-15, 1.224646799147353207E-16, -1.000000000000000000 ) ) ;
#28 = ORIENTED_EDGE ( 'NONE', *, *, #268, .T. ) ;
#29 = APPLICATION_PROTOCOL_DEFINITION ( 'international standard', 'config_control_design', 1994, #195 ) ;
#30 = CARTESIAN_POINT ( 'NONE',  ( 1.826065809402200392E-16, -0.06000000000000001166, 0.05230060344550627877 ) ) ;
#31 = DIRECTION ( 'NONE',  ( -1.000000000000000000, 0.0000000000000000000, 3.614007241618348376E-15 ) ) ;
#32 = DIRECTION ( 'NONE',  ( -3.491481338843133355E-15, 1.224646799147353207E-16, -1.000000000000000000 ) ) ;
#33 = FACE_OUTER_BOUND ( 'NONE', #235, .T. ) ;
#34 = DATE_AND_TIME ( #242, #46 ) ;
#35 = CC_DESIGN_APPROVAL ( #286, ( #243 ) ) ;
#36 = ORIENTED_EDGE ( 'NONE', *, *, #268, .F. ) ;
#37 = DATE_TIME_ROLE ( 'classification_date' ) ;
#38 = VECTOR ( 'NONE', #41, 1000.000000000000000 ) ;
#39 = CARTESIAN_POINT ( 'NONE',  ( -0.05999999999999994227, 0.07999999999999998779, 0.01500000000000024057 ) ) ;
#40 = ADVANCED_FACE ( 'NONE', ( #241, #378 ), #274, .T. ) ;
#41 = DIRECTION ( 'NONE',  ( 3.491481338843133355E-15, -0.0000000000000000000, 1.000000000000000000 ) ) ;
#42 = PRODUCT_DEFINITION_FORMATION_WITH_SPECIFIED_SOURCE ( 'ANY', '', #191, .NOT_KNOWN. ) ;
#43 = CC_DESIGN_PERSON_AND_ORGANIZATION_ASSIGNMENT ( #108, #295, ( #191 ) ) ;
#44 =( NAMED_UNIT ( * ) PLANE_ANGLE_UNIT ( ) SI_UNIT ( $, .RADIAN. ) );
#45 = CARTESIAN_POINT ( 'NONE',  ( -0.05999999999999987982, 0.05614390222989405071, 0.03279693685385377117 ) ) ;
#46 = LOCAL_TIME ( 14, 0, 52.00000000000000000, #277 ) ;
#47 = UNCERTAINTY_MEASURE_WITH_UNIT (LENGTH_MEASURE( 1.000000000000000082E-05 ), #287, 'distance_accuracy_value', 'NONE');
#48 = CARTESIAN_POINT ( 'NONE',  ( -0.05999999999999981043, 0.0000000000000000000, 0.05230060344550685469 ) ) ;
#49 = EDGE_CURVE ( 'NONE', #11, #345, #309, .T. ) ;
#50 = CIRCLE ( 'NONE', #247, 0.06000000000000000472 ) ;
#51 = CARTESIAN_POINT ( 'NONE',  ( -1.301255880638423501E-31, 0.09999999999999999167, -3.726944967918921492E-17 ) ) ;
#52 = EDGE_LOOP ( 'NONE', ( #363, #147, #361, #56 ) ) ;
#53 = ADVANCED_BREP_SHAPE_REPRESENTATION ( '997973', ( #183, #322, #331 ), #103 ) ;
#54 = DIRECTION ( 'NONE',  ( 4.275831445896958607E-31, 1.000000000000000000, 1.224646799147353207E-16 ) ) ;
#55 = CC_DESIGN_PERSON_AND_ORGANIZATION_ASSIGNMENT ( #177, #349, ( #243 ) ) ;
#56 = ORIENTED_EDGE ( 'NONE', *, *, #184, .T. ) ;
#57 = AXIS2_PLACEMENT_3D ( 'NONE', #169, #299, #395 ) ;
#58 = FACE_BOUND ( 'NONE', #189, .T. ) ;
#59 = DIRECTION ( 'NONE',  ( -3.491481338843133355E-15, 1.224646799147353207E-16, -1.000000000000000000 ) ) ;
#60 = VERTEX_POINT ( 'NONE', #123 ) ;
#61 = FACE_OUTER_BOUND ( 'NONE', #114, .T. ) ;
#62 = DIRECTION ( 'NONE',  ( -3.491481338843133355E-15, 0.0000000000000000000, -1.000000000000000000 ) ) ;
#63 = AXIS2_PLACEMENT_3D ( 'NONE', #222, #362, #127 ) ;
#64 = CARTESIAN_POINT ( 'NONE',  ( 1.606081415867841091E-13, 1.199999999999998845, 46.00000000000000000 ) ) ;
#65 = CC_DESIGN_DATE_AND_TIME_ASSIGNMENT ( #34, #281, ( #243 ) ) ;
#66 = ORIENTED_EDGE ( 'NONE', *, *, #95, .F. ) ;
#67 = DATE_AND_TIME ( #313, #125 ) ;
#68 = AXIS2_PLACEMENT_3D ( 'NONE', #92, #206, #314 ) ;
#69 = PERSON_AND_ORGANIZATION ( #284, #7 ) ;
#70 = ADVANCED_FACE ( 'NONE', ( #33 ), #157, .T. ) ;
#71 = CARTESIAN_POINT ( 'NONE',  ( 1.826065809402200885E-16, 0.05999999999999999778, 0.05230060344550629264 ) ) ;
#72 = CIRCLE ( 'NONE', #15, 0.06000000000000000472 ) ;
#73 = CARTESIAN_POINT ( 'NONE',  ( 1.826065809402200639E-16, -6.404976660301430231E-18, 0.05230060344550628570 ) ) ;
#74 = ORIENTED_EDGE ( 'NONE', *, *, #382, .F. ) ;
#75 = DIRECTION ( 'NONE',  ( 3.491481338843133355E-15, -1.224646799147353207E-16, 1.000000000000000000 ) ) ;
#76 = AXIS2_PLACEMENT_3D ( 'NONE', #84, #301, #120 ) ;
#77 = FACE_OUTER_BOUND ( 'NONE', #176, .T. ) ;
#78 = CIRCLE ( 'NONE', #63, 0.05999999999999999778 ) ;
#79 = CARTESIAN_POINT ( 'NONE',  ( -1.892735826383161356E-31, -0.05999999999999999778, -5.421010862427522170E-17 ) ) ;
#80 = ORIENTED_EDGE ( 'NONE', *, *, #158, .T. ) ;
#81 = CARTESIAN_POINT ( 'NONE',  ( 0.0000000000000000000, 0.0000000000000000000, 0.0000000000000000000 ) ) ;
#82 = DIRECTION ( 'NONE',  ( -3.491481338843133355E-15, 1.224646799147353207E-16, -1.000000000000000000 ) ) ;
#83 = AXIS2_PLACEMENT_3D ( 'NONE', #155, #324, #187 ) ;
#84 = CARTESIAN_POINT ( 'NONE',  ( 1.595606971851311880E-13, -5.596635872103403844E-15, 45.69999999999999574 ) ) ;
#85 = COORDINATED_UNIVERSAL_TIME_OFFSET ( 1, 0, .AHEAD. ) ;
#86 = CYLINDRICAL_SURFACE ( 'NONE', #217, 0.05999999999999999778 ) ;
#87 = ADVANCED_FACE ( 'NONE', ( #149, #276 ), #254, .T. ) ;
#88 = CARTESIAN_POINT ( 'NONE',  ( 2.300254401649881138E-15, -8.068206348021098514E-17, 0.6588190451025143224 ) ) ;
#89 = CARTESIAN_POINT ( 'NONE',  ( 0.0000000000000000000, 0.0000000000000000000, 0.0000000000000000000 ) ) ;
#90 = ORIENTED_EDGE ( 'NONE', *, *, #184, .F. ) ;
#91 = B_SPLINE_CURVE_WITH_KNOTS ( 'NONE', 3,
 ( #48, #393, #45, #109 ),
 .UNSPECIFIED., .F., .F.,
 ( 4, 4 ),
 ( 0.0001239943185974781985, 0.0002132562982680826966 ),
 .UNSPECIFIED. ) ;
#92 = CARTESIAN_POINT ( 'NONE',  ( 5.237222008264706689E-17, -1.836970198721031906E-18, 0.01500000000000001853 ) ) ;
#93 = DATE_AND_TIME ( #310, #351 ) ;
#94 = AXIS2_PLACEMENT_3D ( 'NONE', #104, #218, #100 ) ;
#95 = EDGE_CURVE ( 'NONE', #327, #167, #251, .T. ) ;
#96 = DIRECTION ( 'NONE',  ( 0.0000000000000000000, 1.000000000000000000, 0.0000000000000000000 ) ) ;
#97 = ORIENTED_EDGE ( 'NONE', *, *, #204, .T. ) ;
#98 = CLOSED_SHELL ( 'NONE', ( #283, #70, #190, #226, #341, #20, #360 ) ) ;
#99 = ORIENTED_EDGE ( 'NONE', *, *, #180, .T. ) ;
#100 = DIRECTION ( 'NONE',  ( 4.275831445896957731E-31, 1.000000000000000000, 1.224646799147353454E-16 ) ) ;
#101 = APPLICATION_CONTEXT ( 'configuration controlled 3d designs of mechanical parts and assemblies' ) ;
#102 = PLANE ( 'NONE',  #188 ) ;
#103 =( GEOMETRIC_REPRESENTATION_CONTEXT ( 3 ) GLOBAL_UNCERTAINTY_ASSIGNED_CONTEXT ( ( #47 ) ) GLOBAL_UNIT_ASSIGNED_CONTEXT ( ( #287, #44, #252 ) ) REPRESENTATION_CONTEXT ( 'NONE', 'WORKASPACE' ) );
#104 = CARTESIAN_POINT ( 'NONE',  ( -1.710332578358783705E-31, 5.999039130647431800E-33, -4.898587196589413692E-17 ) ) ;
#105 = EDGE_CURVE ( 'NONE', #255, #352, #390, .T. ) ;
#106 = ORIENTED_EDGE ( 'NONE', *, *, #219, .T. ) ;
#107 = CIRCLE ( 'NONE', #83, 0.05999999999999999084 ) ;
#108 = PERSON_AND_ORGANIZATION ( #284, #7 ) ;
#109 = CARTESIAN_POINT ( 'NONE',  ( -0.05999999999999994227, 0.07999999999999998779, 0.01500000000000024057 ) ) ;
#110 = EDGE_LOOP ( 'NONE', ( #106 ) ) ;
#111 = CARTESIAN_POINT ( 'NONE',  ( 0.0000000000000000000, 0.0000000000000000000, 0.0000000000000000000 ) ) ;
#112 = CC_DESIGN_APPROVAL ( #354, ( #42 ) ) ;
#113 = FACE_OUTER_BOUND ( 'NONE', #237, .T. ) ;
#114 = EDGE_LOOP ( 'NONE', ( #347 ) ) ;
#115 = DIRECTION ( 'NONE',  ( 0.0000000000000000000, 1.000000000000000000, 0.0000000000000000000 ) ) ;
#116 = ORIENTED_EDGE ( 'NONE', *, *, #136, .F. ) ;
#117 = LINE ( 'NONE', #236, #291 ) ;
#118 = ORIENTED_EDGE ( 'NONE', *, *, #153, .F. ) ;
#119 = CONICAL_SURFACE ( 'NONE', #76, 1.500000000000004441, 0.7853981633974453924 ) ;
#120 = DIRECTION ( 'NONE',  ( 0.0000000000000000000, 1.000000000000000000, 0.0000000000000000000 ) ) ;
#121 = ORIENTED_EDGE ( 'NONE', *, *, #370, .F. ) ;
#122 = EDGE_CURVE ( 'NONE', #11, #300, #392, .T. ) ;
#123 = CARTESIAN_POINT ( 'NONE',  ( -0.05999999999999999778, 0.07999999999999998779, 2.094888803305879717E-16 ) ) ;
#124 = PERSON_AND_ORGANIZATION_ROLE ( 'creator' ) ;
#125 = LOCAL_TIME ( 14, 0, 52.00000000000000000, #376 ) ;
#126 = VERTEX_POINT ( 'NONE', #282 ) ;
#127 = DIRECTION ( 'NONE',  ( -1.000000000000000000, 0.0000000000000000000, 3.491481338843132961E-15 ) ) ;
#128 = APPROVAL_DATE_TIME ( #244, #354 ) ;
#129 = CC_DESIGN_SECURITY_CLASSIFICATION ( #249, ( #42 ) ) ;
#130 = DIRECTION ( 'NONE',  ( -3.491481338843133355E-15, 1.224646799147353207E-16, -1.000000000000000000 ) ) ;
#131 = AXIS2_PLACEMENT_3D ( 'NONE', #194, #27, #366 ) ;
#132 = DIRECTION ( 'NONE',  ( -3.491481338843133355E-15, 1.224646799147353207E-16, -1.000000000000000000 ) ) ;
#133 = ORIENTED_EDGE ( 'NONE', *, *, #105, .T. ) ;
#134 = DIRECTION ( 'NONE',  ( 0.0000000000000000000, 0.0000000000000000000, 1.000000000000000000 ) ) ;
#135 = PLANE ( 'NONE',  #325 ) ;
#136 = EDGE_CURVE ( 'NONE', #345, #327, #50, .T. ) ;
#137 = CARTESIAN_POINT ( 'NONE',  ( 1.826065809402200639E-16, -6.404976660301430231E-18, 0.05230060344550628570 ) ) ;
#138 = EDGE_LOOP ( 'NONE', ( #116, #388, #36 ) ) ;
#139 = CARTESIAN_POINT ( 'NONE',  ( -0.05999999999999981043, 0.0000000000000000000, 0.05230060344550685469 ) ) ;
#140 = FACE_OUTER_BOUND ( 'NONE', #298, .T. ) ;
#141 = ORIENTED_EDGE ( 'NONE', *, *, #311, .F. ) ;
#142 = AXIS2_PLACEMENT_3D ( 'NONE', #150, #130, #216 ) ;
#143 = CARTESIAN_POINT ( 'NONE',  ( -1.301255880638423501E-31, 0.09999999999999999167, -3.726944967918921492E-17 ) ) ;
#144 = VERTEX_POINT ( 'NONE', #230 ) ;
#145 = ORIENTED_EDGE ( 'NONE', *, *, #328, .T. ) ;
#146 = APPROVAL_PERSON_ORGANIZATION ( #197, #286, #368 ) ;
#147 = ORIENTED_EDGE ( 'NONE', *, *, #136, .T. ) ;
#148 = AXIS2_PLACEMENT_3D ( 'NONE', #81, #132, #156 ) ;
#149 = FACE_OUTER_BOUND ( 'NONE', #110, .T. ) ;
#150 = CARTESIAN_POINT ( 'NONE',  ( 2.300254401649881138E-15, -8.068206348021098514E-17, 0.6588190451025143224 ) ) ;
#151 = ADVANCED_FACE ( 'NONE', ( #77 ), #102, .T. ) ;
#152 = VECTOR ( 'NONE', #336, 1000.000000000000000 ) ;
#153 = EDGE_CURVE ( 'NONE', #352, #300, #21, .T. ) ;
#154 = CIRCLE ( 'NONE', #228, 0.09999999999999999167 ) ;
#155 = CARTESIAN_POINT ( 'NONE',  ( 1.396592535537254131E-15, -4.898587196589415540E-17, 0.4000000000000002442 ) ) ;
#156 = DIRECTION ( 'NONE',  ( 4.275831445896957731E-31, 1.000000000000000000, 1.224646799147353207E-16 ) ) ;
#157 = CONICAL_SURFACE ( 'NONE', #68, 0.09999999999999999167, 0.8203047484373374720 ) ;
#158 = EDGE_CURVE ( 'NONE', #60, #352, #250, .T. ) ;
#159 = DIRECTION ( 'NONE',  ( -3.491481338843133355E-15, 0.0000000000000000000, -1.000000000000000000 ) ) ;
#160 = DIRECTION ( 'NONE',  ( -4.275831445896958607E-31, -1.000000000000000000, -1.224646799147353207E-16 ) ) ;
#161 = ORIENTED_EDGE ( 'NONE', *, *, #337, .T. ) ;
#162 = DIRECTION ( 'NONE',  ( -3.491481338843133355E-15, 0.0000000000000000000, -1.000000000000000000 ) ) ;
#163 = TOROIDAL_SURFACE ( 'NONE', #131, 1.060000000000000053, 1.000000000000000000 ) ;
#164 = ORIENTED_EDGE ( 'NONE', *, *, #122, .F. ) ;
#165 = DIRECTION ( 'NONE',  ( -3.491481338843133355E-15, 1.224646799147353207E-16, -1.000000000000000000 ) ) ;
#166 = PRODUCT_RELATED_PRODUCT_CATEGORY ( 'detail', '', ( #191 ) ) ;
#167 = VERTEX_POINT ( 'NONE', #225 ) ;
#168 = PLANE ( 'NONE',  #302 ) ;
#169 = CARTESIAN_POINT ( 'NONE',  ( 0.0000000000000000000, 0.0000000000000000000, 0.0000000000000000000 ) ) ;
#170 = EDGE_LOOP ( 'NONE', ( #97, #193, #145, #66 ) ) ;
#171 = CIRCLE ( 'NONE', #142, 0.09407417371092992309 ) ;
#172 = CC_DESIGN_PERSON_AND_ORGANIZATION_ASSIGNMENT ( #69, #272, ( #42 ) ) ;
#173 = FACE_OUTER_BOUND ( 'NONE', #224, .T. ) ;
#174 = ORIENTED_EDGE ( 'NONE', *, *, #311, .T. ) ;
#175 = AXIS2_PLACEMENT_3D ( 'NONE', #296, #165, #374 ) ;
#176 = EDGE_LOOP ( 'NONE', ( #321 ) ) ;
#177 = PERSON_AND_ORGANIZATION ( #284, #7 ) ;
#178 = VECTOR ( 'NONE', #307, 1000.000000000000000 ) ;
#179 = PLANE ( 'NONE',  #348 ) ;
#180 = EDGE_CURVE ( 'NONE', #144, #144, #171, .T. ) ;
#181 = APPROVAL_ROLE ( '' ) ;
#182 = DATE_AND_TIME ( #275, #202 ) ;
#183 = MANIFOLD_SOLID_BREP ( 'Corps-Déplacer/Copier1[1]', #98 ) ;
#184 = EDGE_CURVE ( 'NONE', #167, #255, #78, .T. ) ;
#185 = DIRECTION ( 'NONE',  ( -3.491481338843133355E-15, 1.224646799147353207E-16, -1.000000000000000000 ) ) ;
#186 = DIRECTION ( 'NONE',  ( 3.491481338843133355E-15, -1.224646799147353207E-16, 1.000000000000000000 ) ) ;
#187 = DIRECTION ( 'NONE',  ( 0.0000000000000000000, 1.000000000000000000, 0.0000000000000000000 ) ) ;
#188 = AXIS2_PLACEMENT_3D ( 'NONE', #279, #186, #160 ) ;
#189 = EDGE_LOOP ( 'NONE', ( #1 ) ) ;
#190 = ADVANCED_FACE ( 'NONE', ( #17 ), #135, .T. ) ;
#191 = PRODUCT ( '997973', '997973', '', ( #22 ) ) ;
#192 = DIRECTION ( 'NONE',  ( -3.491481338843133355E-15, 1.224646799147353207E-16, -1.000000000000000000 ) ) ;
#193 = ORIENTED_EDGE ( 'NONE', *, *, #370, .T. ) ;
#194 = CARTESIAN_POINT ( 'NONE',  ( 1.396592535537253342E-15, 0.0000000000000000000, 0.3999999999999999667 ) ) ;
#195 = APPLICATION_CONTEXT ( 'configuration controlled 3d designs of mechanical parts and assemblies' ) ;
#196 = EDGE_LOOP ( 'NONE', ( #174 ) ) ;
#197 = PERSON_AND_ORGANIZATION ( #284, #7 ) ;
#198 = DIRECTION ( 'NONE',  ( -3.491481338843133355E-15, 1.224646799147353207E-16, -1.000000000000000000 ) ) ;
#199 = EDGE_LOOP ( 'NONE', ( #161, #118, #330, #121 ) ) ;
#200 = CARTESIAN_POINT ( 'NONE',  ( 1.745740669421566678E-15, 0.0000000000000000000, 0.5000000000000000000 ) ) ;
#201 = ORIENTED_EDGE ( 'NONE', *, *, #337, .F. ) ;
#202 = LOCAL_TIME ( 14, 0, 52.00000000000000000, #85 ) ;
#203 = DIRECTION ( 'NONE',  ( 3.491481338843133355E-15, -1.224646799147353207E-16, 1.000000000000000000 ) ) ;
#204 = EDGE_CURVE ( 'NONE', #327, #24, #91, .T. ) ;
#205 = VERTEX_POINT ( 'NONE', #342 ) ;
#206 = DIRECTION ( 'NONE',  ( -3.491481338843133355E-15, 1.224646799147353207E-16, -1.000000000000000000 ) ) ;
#207 = EDGE_LOOP ( 'NONE', ( #232, #9, #133, #264, #164 ) ) ;
#208 = VERTEX_POINT ( 'NONE', #64 ) ;
#209 = PERSON_AND_ORGANIZATION ( #284, #7 ) ;
#210 = VECTOR ( 'NONE', #323, 1000.000000000000000 ) ;
#211 = APPROVAL_STATUS ( 'not_yet_approved' ) ;
#212 = APPROVAL ( #211, 'UNSPECIFIED' ) ;
#213 = CIRCLE ( 'NONE', #315, 0.06000000000000000472 ) ;
#214 = CARTESIAN_POINT ( 'NONE',  ( -0.05999999999999824918, 0.0000000000000000000, 0.5000000000000002220 ) ) ;
#215 = EDGE_LOOP ( 'NONE', ( #80, #365, #90, #26 ) ) ;
#216 = DIRECTION ( 'NONE',  ( 0.0000000000000000000, 1.000000000000000000, 0.0000000000000000000 ) ) ;
#217 = AXIS2_PLACEMENT_3D ( 'NONE', #200, #162, #31 ) ;
#218 = DIRECTION ( 'NONE',  ( -3.491481338843133355E-15, 1.224646799147353207E-16, -1.000000000000000000 ) ) ;
#219 = EDGE_CURVE ( 'NONE', #377, #377, #107, .T. ) ;
#220 = ORIENTED_EDGE ( 'NONE', *, *, #234, .F. ) ;
#221 = APPLICATION_PROTOCOL_DEFINITION ( 'international standard', 'config_control_design', 1994, #101 ) ;
#222 = CARTESIAN_POINT ( 'NONE',  ( 0.0000000000000000000, 0.0000000000000000000, 0.0000000000000000000 ) ) ;
#223 = VECTOR ( 'NONE', #290, 1000.000000000000000 ) ;
#224 = EDGE_LOOP ( 'NONE', ( #141 ) ) ;
#225 = CARTESIAN_POINT ( 'NONE',  ( -0.05999999999999999778, 0.0000000000000000000, 2.094888803305879717E-16 ) ) ;
#226 = ADVANCED_FACE ( 'NONE', ( #23 ), #357, .T. ) ;
#227 = CARTESIAN_POINT ( 'NONE',  ( 5.237222008264702991E-17, 0.09999999999999999167, 0.01500000000000000812 ) ) ;
#228 = AXIS2_PLACEMENT_3D ( 'NONE', #4, #59, #8 ) ;
#229 = EDGE_LOOP ( 'NONE', ( #356 ) ) ;
#230 = CARTESIAN_POINT ( 'NONE',  ( 2.300254401649881138E-15, 0.09407417371092983982, 0.6588190451025143224 ) ) ;
#231 = VECTOR ( 'NONE', #159, 1000.000000000000000 ) ;
#232 = ORIENTED_EDGE ( 'NONE', *, *, #49, .T. ) ;
#233 = CARTESIAN_POINT ( 'NONE',  ( -0.05999999999999999778, 0.0000000000000000000, 2.094888803305879717E-16 ) ) ;
#234 = EDGE_CURVE ( 'NONE', #278, #278, #72, .T. ) ;
#235 = EDGE_LOOP ( 'NONE', ( #28, #371, #201, #294 ) ) ;
#236 = CARTESIAN_POINT ( 'NONE',  ( -0.05999999999999999778, 0.07999999999999998779, 2.192860547237668250E-16 ) ) ;
#237 = EDGE_LOOP ( 'NONE', ( #99 ) ) ;
#238 = PERSON_AND_ORGANIZATION ( #284, #7 ) ;
#239 = DIRECTION ( 'NONE',  ( 1.000000000000000000, 0.0000000000000000000, -3.491481338843133355E-15 ) ) ;
#240 = DIRECTION ( 'NONE',  ( 1.000000000000000000, 0.0000000000000000000, -3.491481338843133355E-15 ) ) ;
#241 = FACE_OUTER_BOUND ( 'NONE', #229, .T. ) ;
#242 = CALENDAR_DATE ( 2021, 3, 12 ) ;
#243 = PRODUCT_DEFINITION ( 'UNKNOWN', '', #42, #288 ) ;
#244 = DATE_AND_TIME ( #270, #386 ) ;
#245 = CARTESIAN_POINT ( 'NONE',  ( 1.826065809402226523E-16, -0.05999999999999999778, 0.05230060344550702123 ) ) ;
#246 = PERSON_AND_ORGANIZATION_ROLE ( 'classification_officer' ) ;
#247 = AXIS2_PLACEMENT_3D ( 'NONE', #137, #192, #258 ) ;
#248 = CC_DESIGN_PERSON_AND_ORGANIZATION_ASSIGNMENT ( #316, #124, ( #42 ) ) ;
#249 = SECURITY_CLASSIFICATION ( '', '', #319 ) ;
#250 = CIRCLE ( 'NONE', #94, 0.09999999999999999167 ) ;
#251 = LINE ( 'NONE', #214, #231 ) ;
#252 =( NAMED_UNIT ( * ) SI_UNIT ( $, .STERADIAN. ) SOLID_ANGLE_UNIT ( ) );
#253 = EDGE_CURVE ( 'NONE', #345, #255, #18, .T. ) ;
#254 = CYLINDRICAL_SURFACE ( 'NONE', #148, 0.05999999999999999778 ) ;
#255 = VERTEX_POINT ( 'NONE', #79 ) ;
#256 = DIRECTION ( 'NONE',  ( 1.000000000000000000, 0.0000000000000000000, 0.0000000000000000000 ) ) ;
#257 = APPROVAL_PERSON_ORGANIZATION ( #238, #354, #181 ) ;
#258 = DIRECTION ( 'NONE',  ( 4.012354050806740777E-31, 1.000000000000000000, 1.129377263005733621E-16 ) ) ;
#259 = DIRECTION ( 'NONE',  ( -3.491481338843133355E-15, 1.224646799147353207E-16, -1.000000000000000000 ) ) ;
#260 = EDGE_CURVE ( 'NONE', #208, #208, #353, .T. ) ;
#261 = APPROVAL_STATUS ( 'not_yet_approved' ) ;
#262 = LINE ( 'NONE', #233, #152 ) ;
#263 = EDGE_LOOP ( 'NONE', ( #220 ) ) ;
#264 = ORIENTED_EDGE ( 'NONE', *, *, #153, .T. ) ;
#265 = PLANE ( 'NONE',  #391 ) ;
#266 = VECTOR ( 'NONE', #383, 1000.000000000000000 ) ;
#267 = FACE_OUTER_BOUND ( 'NONE', #207, .T. ) ;
#268 = EDGE_CURVE ( 'NONE', #327, #11, #213, .T. ) ;
#269 = CARTESIAN_POINT ( 'NONE',  ( 1.826065809402227263E-16, 0.09999999999999999167, 0.05230060344550704898 ) ) ;
#270 = CALENDAR_DATE ( 2021, 3, 12 ) ;
#271 = FACE_OUTER_BOUND ( 'NONE', #199, .T. ) ;
#272 = PERSON_AND_ORGANIZATION_ROLE ( 'design_supplier' ) ;
#273 = CARTESIAN_POINT ( 'NONE',  ( -0.05999999999999824918, 0.0000000000000000000, 0.5000000000000002220 ) ) ;
#274 = CONICAL_SURFACE ( 'NONE', #384, 0.09407417371092992309, 0.2617993877991428020 ) ;
#275 = CALENDAR_DATE ( 2021, 3, 12 ) ;
#276 = FACE_OUTER_BOUND ( 'NONE', #263, .T. ) ;
#277 = COORDINATED_UNIVERSAL_TIME_OFFSET ( 1, 0, .AHEAD. ) ;
#278 = VERTEX_POINT ( 'NONE', #71 ) ;
#279 = CARTESIAN_POINT ( 'NONE',  ( 1.606081415867841091E-13, -5.633375276077824704E-15, 46.00000000000000000 ) ) ;
#280 = APPROVAL_PERSON_ORGANIZATION ( #209, #212, #380 ) ;
#281 = DATE_TIME_ROLE ( 'creation_date' ) ;
#282 = CARTESIAN_POINT ( 'NONE',  ( 2.062001025442348183E-14, 1.499999999999996003, 5.905805660486706188 ) ) ;
#283 = ADVANCED_FACE ( 'NONE', ( #271 ), #372, .T. ) ;
#284 = PERSON ( 'UNSPECIFIED', 'UNSPECIFIED', 'UNSPECIFIED', ('UNSPECIFIED'), ('UNSPECIFIED'), ('UNSPECIFIED') ) ;
#285 = CARTESIAN_POINT ( 'NONE',  ( 1.826065809402200639E-16, -6.404976660301430231E-18, 0.05230060344550628570 ) ) ;
#286 = APPROVAL ( #261, 'UNSPECIFIED' ) ;
#287 =( LENGTH_UNIT ( ) NAMED_UNIT ( * ) SI_UNIT ( .MILLI., .METRE. ) );
#288 = DESIGN_CONTEXT ( 'detailed design', #195, 'design' ) ;
#289 = DIRECTION ( 'NONE',  ( -3.491481338843133355E-15, 1.224646799147353207E-16, -1.000000000000000000 ) ) ;
#290 = DIRECTION ( 'NONE',  ( -3.491481338843133355E-15, 0.0000000000000000000, -1.000000000000000000 ) ) ;
#291 = VECTOR ( 'NONE', #82, 1000.000000000000000 ) ;
#292 = CARTESIAN_POINT ( 'NONE',  ( -4.275831445896959811E-32, 0.09999999999999999167, -1.224646799147353577E-17 ) ) ;
#293 = CC_DESIGN_DATE_AND_TIME_ASSIGNMENT ( #67, #37, ( #249 ) ) ;
#294 = ORIENTED_EDGE ( 'NONE', *, *, #204, .F. ) ;
#295 = PERSON_AND_ORGANIZATION_ROLE ( 'design_owner' ) ;
#296 = CARTESIAN_POINT ( 'NONE',  ( 2.062001025442348183E-14, -7.232525998501365376E-16, 5.905805660486706188 ) ) ;
#297 = AXIS2_PLACEMENT_3D ( 'NONE', #329, #259, #96 ) ;
#298 = EDGE_LOOP ( 'NONE', ( #74 ) ) ;
#299 = DIRECTION ( 'NONE',  ( -3.491481338843133355E-15, 1.224646799147353207E-16, -1.000000000000000000 ) ) ;
#300 = VERTEX_POINT ( 'NONE', #227 ) ;
#301 = DIRECTION ( 'NONE',  ( -3.491481338843133355E-15, 1.224646799147353207E-16, -1.000000000000000000 ) ) ;
#302 = AXIS2_PLACEMENT_3D ( 'NONE', #340, #198, #54 ) ;
#303 = EDGE_LOOP ( 'NONE', ( #333 ) ) ;
#304 = ADVANCED_FACE ( 'NONE', ( #113, #3 ), #163, .F. ) ;
#305 = DIRECTION ( 'NONE',  ( 4.012354050806740777E-31, 1.000000000000000000, 1.129377263005733621E-16 ) ) ;
#306 = AXIS2_PLACEMENT_3D ( 'NONE', #326, #75, #317 ) ;
#307 = DIRECTION ( 'NONE',  ( -5.914799457447379868E-31, -1.000000000000000000, -1.694065894508600925E-16 ) ) ;
#308 = FACE_OUTER_BOUND ( 'NONE', #196, .T. ) ;
#309 = LINE ( 'NONE', #269, #178 ) ;
#310 = CALENDAR_DATE ( 2021, 3, 12 ) ;
#311 = EDGE_CURVE ( 'NONE', #205, #205, #320, .T. ) ;
#312 = CC_DESIGN_APPROVAL ( #212, ( #249 ) ) ;
#313 = CALENDAR_DATE ( 2021, 3, 12 ) ;
#314 = DIRECTION ( 'NONE',  ( 4.212971753347078429E-31, 1.000000000000000000, 1.185846126156020475E-16 ) ) ;
#315 = AXIS2_PLACEMENT_3D ( 'NONE', #73, #185, #305 ) ;
#316 = PERSON_AND_ORGANIZATION ( #284, #7 ) ;
#317 = DIRECTION ( 'NONE',  ( -4.275831445896958607E-31, -1.000000000000000000, -1.224646799147353207E-16 ) ) ;
#318 = ADVANCED_FACE ( 'NONE', ( #61 ), #168, .T. ) ;
#319 = SECURITY_CLASSIFICATION_LEVEL ( 'unclassified' ) ;
#320 = CIRCLE ( 'NONE', #344, 1.500000000000004441 ) ;
#321 = ORIENTED_EDGE ( 'NONE', *, *, #260, .F. ) ;
#322 = MANIFOLD_SOLID_BREP ( 'Corps-Déplacer/Copier1[2]', #335 ) ;
#323 = DIRECTION ( 'NONE',  ( 3.696749660904612746E-31, 1.000000000000000000, 1.058791184067875547E-16 ) ) ;
#324 = DIRECTION ( 'NONE',  ( -3.491481338843133355E-15, 1.224646799147353207E-16, -1.000000000000000000 ) ) ;
#325 = AXIS2_PLACEMENT_3D ( 'NONE', #292, #364, #359 ) ;
#326 = CARTESIAN_POINT ( 'NONE',  ( 1.826065809402213951E-16, 0.05999999999999999778, 0.05230060344550666040 ) ) ;
#327 = VERTEX_POINT ( 'NONE', #139 ) ;
#328 = EDGE_CURVE ( 'NONE', #60, #167, #262, .T. ) ;
#329 = CARTESIAN_POINT ( 'NONE',  ( 1.606081415867841091E-13, -5.633375276077824704E-15, 46.00000000000000000 ) ) ;
#330 = ORIENTED_EDGE ( 'NONE', *, *, #158, .F. ) ;
#331 = AXIS2_PLACEMENT_3D ( 'NONE', #19, #134, #256 ) ;
#332 = DIRECTION ( 'NONE',  ( -3.491481338843133355E-15, 1.224646799147353207E-16, -1.000000000000000000 ) ) ;
#333 = ORIENTED_EDGE ( 'NONE', *, *, #180, .F. ) ;
#334 = FACE_OUTER_BOUND ( 'NONE', #52, .T. ) ;
#335 = CLOSED_SHELL ( 'NONE', ( #318, #87, #304, #40, #387, #350, #151 ) ) ;
#336 = DIRECTION ( 'NONE',  ( 0.0000000000000000000, -1.000000000000000000, 0.0000000000000000000 ) ) ;
#337 = EDGE_CURVE ( 'NONE', #24, #300, #154, .T. ) ;
#338 = EDGE_LOOP ( 'NONE', ( #367 ) ) ;
#339 = DIRECTION ( 'NONE',  ( 0.0000000000000000000, -1.000000000000000000, 0.0000000000000000000 ) ) ;
#340 = CARTESIAN_POINT ( 'NONE',  ( 1.826065809402213951E-16, 0.05999999999999999778, 0.05230060344550666040 ) ) ;
#341 = ADVANCED_FACE ( 'NONE', ( #334 ), #86, .T. ) ;
#342 = CARTESIAN_POINT ( 'NONE',  ( 1.595606971851311880E-13, 1.499999999999998668, 45.69999999999999574 ) ) ;
#343 = CARTESIAN_POINT ( 'NONE',  ( 1.826065809402227016E-16, 0.05999999999999999778, 0.05230060344550704204 ) ) ;
#344 = AXIS2_PLACEMENT_3D ( 'NONE', #369, #332, #115 ) ;
#345 = VERTEX_POINT ( 'NONE', #30 ) ;
#346 = COORDINATED_UNIVERSAL_TIME_OFFSET ( 1, 0, .AHEAD. ) ;
#347 = ORIENTED_EDGE ( 'NONE', *, *, #234, .T. ) ;
#348 = AXIS2_PLACEMENT_3D ( 'NONE', #273, #240, #373 ) ;
#349 = PERSON_AND_ORGANIZATION_ROLE ( 'creator' ) ;
#350 = ADVANCED_FACE ( 'NONE', ( #58, #173 ), #119, .T. ) ;
#351 = LOCAL_TIME ( 14, 0, 52.00000000000000000, #385 ) ;
#352 = VERTEX_POINT ( 'NONE', #143 ) ;
#353 = CIRCLE ( 'NONE', #297, 1.200000000000004396 ) ;
#354 = APPROVAL ( #381, 'UNSPECIFIED' ) ;
#355 = CARTESIAN_POINT ( 'NONE',  ( 3.779581222265795531E-16, -1.325698635267202849E-17, 0.1082515086137656735 ) ) ;
#356 = ORIENTED_EDGE ( 'NONE', *, *, #382, .T. ) ;
#357 = PLANE ( 'NONE',  #306 ) ;
#358 = AXIS2_PLACEMENT_3D ( 'NONE', #89, #32, #2 ) ;
#359 = DIRECTION ( 'NONE',  ( 4.275831445896958607E-31, 1.000000000000000000, 1.224646799147353207E-16 ) ) ;
#360 = ADVANCED_FACE ( 'NONE', ( #267 ), #265, .T. ) ;
#361 = ORIENTED_EDGE ( 'NONE', *, *, #95, .T. ) ;
#362 = DIRECTION ( 'NONE',  ( 3.491481338843133355E-15, -0.0000000000000000000, 1.000000000000000000 ) ) ;
#363 = ORIENTED_EDGE ( 'NONE', *, *, #253, .F. ) ;
#364 = DIRECTION ( 'NONE',  ( -3.491481338843133355E-15, 1.224646799147353207E-16, -1.000000000000000000 ) ) ;
#365 = ORIENTED_EDGE ( 'NONE', *, *, #105, .F. ) ;
#366 = DIRECTION ( 'NONE',  ( 4.356399693479663963E-31, 1.000000000000000000, 1.224646799147353207E-16 ) ) ;
#367 = ORIENTED_EDGE ( 'NONE', *, *, #219, .F. ) ;
#368 = APPROVAL_ROLE ( '' ) ;
#369 = CARTESIAN_POINT ( 'NONE',  ( 1.595606971851311880E-13, -5.596635872103403844E-15, 45.69999999999999574 ) ) ;
#370 = EDGE_CURVE ( 'NONE', #24, #60, #117, .T. ) ;
#371 = ORIENTED_EDGE ( 'NONE', *, *, #122, .T. ) ;
#372 = CYLINDRICAL_SURFACE ( 'NONE', #57, 0.09999999999999999167 ) ;
#373 = DIRECTION ( 'NONE',  ( -3.491481338843133355E-15, 0.0000000000000000000, -1.000000000000000000 ) ) ;
#374 = DIRECTION ( 'NONE',  ( 0.0000000000000000000, 1.000000000000000000, 0.0000000000000000000 ) ) ;
#375 = CC_DESIGN_PERSON_AND_ORGANIZATION_ASSIGNMENT ( #12, #246, ( #249 ) ) ;
#376 = COORDINATED_UNIVERSAL_TIME_OFFSET ( 1, 0, .AHEAD. ) ;
#377 = VERTEX_POINT ( 'NONE', #13 ) ;
#378 = FACE_BOUND ( 'NONE', #303, .T. ) ;
#379 = APPROVAL_DATE_TIME ( #182, #286 ) ;
#380 = APPROVAL_ROLE ( '' ) ;
#381 = APPROVAL_STATUS ( 'not_yet_approved' ) ;
#382 = EDGE_CURVE ( 'NONE', #126, #126, #16, .T. ) ;
#383 = DIRECTION ( 'NONE',  ( -2.381184547279826694E-15, 0.7313537016191723472, -0.6819983600624964781 ) ) ;
#384 = AXIS2_PLACEMENT_3D ( 'NONE', #88, #203, #339 ) ;
#385 = COORDINATED_UNIVERSAL_TIME_OFFSET ( 1, 0, .AHEAD. ) ;
#386 = LOCAL_TIME ( 14, 0, 52.00000000000000000, #346 ) ;
#387 = ADVANCED_FACE ( 'NONE', ( #308, #140 ), #25, .T. ) ;
#388 = ORIENTED_EDGE ( 'NONE', *, *, #49, .F. ) ;
#389 = CARTESIAN_POINT ( 'NONE',  ( 1.826065809402227263E-16, 0.09999999999999999167, 0.05230060344550704898 ) ) ;
#390 = LINE ( 'NONE', #51, #210 ) ;
#391 = AXIS2_PLACEMENT_3D ( 'NONE', #111, #239, #62 ) ;
#392 = LINE ( 'NONE', #355, #266 ) ;
#393 = CARTESIAN_POINT ( 'NONE',  ( -0.05999999999999981043, 0.02975952822612874457, 0.05230060344552515950 ) ) ;
#394 = PRODUCT_DEFINITION_SHAPE ( 'NONE', 'NONE',  #243 ) ;
#395 = DIRECTION ( 'NONE',  ( 4.275831445896958607E-31, 1.000000000000000000, 1.224646799147353207E-16 ) ) ;
ENDSEC;
END-ISO-10303-21;
