ISO-10303-21;
HEADER;
FILE_DESCRIPTION (( 'STEP AP203' ),
    '1' );
FILE_NAME ('997972.step',
    '2021-12-03T13:00:52',
    ( '' ),
    ( '' ),
    'SwSTEP 2.0',
    'SolidWorks 2019',
    '' );
FILE_SCHEMA (( 'CONFIG_CONTROL_DESIGN' ));
ENDSEC;

DATA;
#1 = CARTESIAN_POINT ( 'NONE',  ( 6.982962677686276571E-16, -2.449293598294709927E-17, 0.2000000000000002887 ) ) ;
#2 = CLOSED_SHELL ( 'NONE', ( #62, #273, #14, #27, #23, #335, #37 ) ) ;
#3 = CONICAL_SURFACE ( 'NONE', #28, 1.500000000000004441, 0.7853981633974453924 ) ;
#4 = CARTESIAN_POINT ( 'NONE',  ( -0.05999999999999824918, 0.0000000000000000000, 0.5000000000000002220 ) ) ;
#5 = DIRECTION ( 'NONE',  ( 4.012354050806740777E-31, 1.000000000000000000, 1.129377263005733621E-16 ) ) ;
#6 = CARTESIAN_POINT ( 'NONE',  ( -1.892735826383161356E-31, -0.05999999999999999778, -5.421010862427522170E-17 ) ) ;
#7 = AXIS2_PLACEMENT_3D ( 'NONE', #122, #227, #73 ) ;
#8 = CARTESIAN_POINT ( 'NONE',  ( -1.301255880638423501E-31, 0.09999999999999999167, -3.726944967918921492E-17 ) ) ;
#9 = CARTESIAN_POINT ( 'NONE',  ( -4.275831445896959811E-32, 0.09999999999999999167, -1.224646799147353577E-17 ) ) ;
#10 = LINE ( 'NONE', #277, #31 ) ;
#11 = MANIFOLD_SOLID_BREP ( 'Corps-Déplacer/Copier1[2]', #2 ) ;
#12 = VECTOR ( 'NONE', #226, 1000.000000000000000 ) ;
#13 = DATE_TIME_ROLE ( 'creation_date' ) ;
#14 = ADVANCED_FACE ( 'NONE', ( #271, #392 ), #381, .F. ) ;
#15 = SHAPE_DEFINITION_REPRESENTATION ( #159, #337 ) ;
#16 = CARTESIAN_POINT ( 'NONE',  ( 1.595606971851311880E-13, 1.499999999999998668, 45.69999999999999574 ) ) ;
#17 = EDGE_LOOP ( 'NONE', ( #84 ) ) ;
#18 = VERTEX_POINT ( 'NONE', #107 ) ;
#19 = ORIENTED_EDGE ( 'NONE', *, *, #186, .T. ) ;
#20 = VECTOR ( 'NONE', #98, 1000.000000000000000 ) ;
#21 =( LENGTH_UNIT ( ) NAMED_UNIT ( * ) SI_UNIT ( .MILLI., .METRE. ) );
#22 = ORIENTED_EDGE ( 'NONE', *, *, #298, .T. ) ;
#23 = ADVANCED_FACE ( 'NONE', ( #363, #304 ), #214, .T. ) ;
#24 = COORDINATED_UNIVERSAL_TIME_OFFSET ( 1, 0, .AHEAD. ) ;
#25 = EDGE_LOOP ( 'NONE', ( #391 ) ) ;
#26 = ORIENTED_EDGE ( 'NONE', *, *, #366, .F. ) ;
#27 = ADVANCED_FACE ( 'NONE', ( #191, #249 ), #182, .T. ) ;
#28 = AXIS2_PLACEMENT_3D ( 'NONE', #161, #284, #197 ) ;
#29 = DIRECTION ( 'NONE',  ( 3.491481338843133355E-15, -1.224646799147353207E-16, 1.000000000000000000 ) ) ;
#30 = CARTESIAN_POINT ( 'NONE',  ( 5.237222008264702991E-17, 0.09999999999999999167, 0.01500000000000000812 ) ) ;
#31 = VECTOR ( 'NONE', #312, 1000.000000000000000 ) ;
#32 = APPROVAL ( #230, 'UNSPECIFIED' ) ;
#33 = PERSON_AND_ORGANIZATION ( #171, #332 ) ;
#34 = DIRECTION ( 'NONE',  ( -2.381184547279826694E-15, 0.7313537016191723472, -0.6819983600624964781 ) ) ;
#35 = CARTESIAN_POINT ( 'NONE',  ( 1.601958133881255256E-15, -5.618912749726393825E-17, 0.4588190451025144778 ) ) ;
#36 = APPROVAL_ROLE ( '' ) ;
#37 = ADVANCED_FACE ( 'NONE', ( #306 ), #219, .T. ) ;
#38 = DIRECTION ( 'NONE',  ( 3.491481338843133355E-15, -0.0000000000000000000, 1.000000000000000000 ) ) ;
#39 = DIRECTION ( 'NONE',  ( 4.275831445896958607E-31, 1.000000000000000000, 1.224646799147353207E-16 ) ) ;
#40 = VECTOR ( 'NONE', #316, 1000.000000000000000 ) ;
#41 = CARTESIAN_POINT ( 'NONE',  ( -1.710332578358783705E-31, 5.999039130647431800E-33, -4.898587196589413692E-17 ) ) ;
#42 = CARTESIAN_POINT ( 'NONE',  ( 1.606081415867841091E-13, -5.633375276077824704E-15, 46.00000000000000000 ) ) ;
#43 = FACE_OUTER_BOUND ( 'NONE', #247, .T. ) ;
#44 = APPROVAL_ROLE ( '' ) ;
#45 = VERTEX_POINT ( 'NONE', #117 ) ;
#46 = APPROVAL_PERSON_ORGANIZATION ( #139, #188, #270 ) ;
#47 = PERSON_AND_ORGANIZATION ( #171, #332 ) ;
#48 = ORIENTED_EDGE ( 'NONE', *, *, #134, .T. ) ;
#49 = VERTEX_POINT ( 'NONE', #295 ) ;
#50 = EDGE_LOOP ( 'NONE', ( #140 ) ) ;
#51 = EDGE_CURVE ( 'NONE', #116, #112, #185, .T. ) ;
#52 = ORIENTED_EDGE ( 'NONE', *, *, #296, .T. ) ;
#53 = DATE_AND_TIME ( #167, #153 ) ;
#54 = AXIS2_PLACEMENT_3D ( 'NONE', #231, #352, #100 ) ;
#55 = CARTESIAN_POINT ( 'NONE',  ( -0.05999999999999994227, 0.07999999999999998779, 0.01500000000000024057 ) ) ;
#56 = EDGE_LOOP ( 'NONE', ( #238, #329, #136, #209 ) ) ;
#57 = DIRECTION ( 'NONE',  ( 4.348342868721392815E-31, 1.000000000000000000, 1.224646799147353207E-16 ) ) ;
#58 = CARTESIAN_POINT ( 'NONE',  ( 1.826065809402213951E-16, 0.05999999999999999778, 0.05230060344550666040 ) ) ;
#59 = VECTOR ( 'NONE', #34, 1000.000000000000000 ) ;
#60 = CARTESIAN_POINT ( 'NONE',  ( -0.05999999999999999778, 0.07999999999999998779, 2.094888803305879717E-16 ) ) ;
#61 = SECURITY_CLASSIFICATION ( '', '', #111 ) ;
#62 = ADVANCED_FACE ( 'NONE', ( #336 ), #257, .T. ) ;
#63 = CC_DESIGN_APPROVAL ( #188, ( #61 ) ) ;
#64 = DIRECTION ( 'NONE',  ( -3.491481338843133355E-15, 1.224646799147353207E-16, -1.000000000000000000 ) ) ;
#65 = CARTESIAN_POINT ( 'NONE',  ( 5.237222008264706689E-17, -1.836970198721031906E-18, 0.01500000000000001853 ) ) ;
#66 = EDGE_CURVE ( 'NONE', #386, #112, #248, .T. ) ;
#67 = APPROVAL_STATUS ( 'not_yet_approved' ) ;
#68 = DIRECTION ( 'NONE',  ( 0.0000000000000000000, 1.000000000000000000, 0.0000000000000000000 ) ) ;
#69 = DIRECTION ( 'NONE',  ( -3.491481338843133355E-15, 1.224646799147353207E-16, -1.000000000000000000 ) ) ;
#70 = DIRECTION ( 'NONE',  ( 4.275831445896957731E-31, 1.000000000000000000, 1.224646799147353454E-16 ) ) ;
#71 = DIRECTION ( 'NONE',  ( -3.491481338843133355E-15, 1.224646799147353207E-16, -1.000000000000000000 ) ) ;
#72 = AXIS2_PLACEMENT_3D ( 'NONE', #65, #190, #327 ) ;
#73 = DIRECTION ( 'NONE',  ( 4.012354050806740777E-31, 1.000000000000000000, 1.129377263005733621E-16 ) ) ;
#74 = FACE_OUTER_BOUND ( 'NONE', #17, .T. ) ;
#75 = CARTESIAN_POINT ( 'NONE',  ( 1.992171398665485516E-14, -6.987596638671894291E-16, 5.705805660486706898 ) ) ;
#76 = EDGE_CURVE ( 'NONE', #290, #290, #372, .T. ) ;
#77 = PERSON_AND_ORGANIZATION_ROLE ( 'classification_officer' ) ;
#78 = CC_DESIGN_APPROVAL ( #32, ( #393 ) ) ;
#79 = PERSON_AND_ORGANIZATION_ROLE ( 'design_supplier' ) ;
#80 = EDGE_LOOP ( 'NONE', ( #147, #239, #206 ) ) ;
#81 = APPROVAL_STATUS ( 'not_yet_approved' ) ;
#82 = ORIENTED_EDGE ( 'NONE', *, *, #66, .F. ) ;
#83 = VERTEX_POINT ( 'NONE', #331 ) ;
#84 = ORIENTED_EDGE ( 'NONE', *, *, #76, .F. ) ;
#85 = CLOSED_SHELL ( 'NONE', ( #240, #378, #303, #170, #340, #232, #216 ) ) ;
#86 = VECTOR ( 'NONE', #89, 1000.000000000000000 ) ;
#87 = EDGE_CURVE ( 'NONE', #180, #299, #325, .T. ) ;
#88 = CARTESIAN_POINT ( 'NONE',  ( 6.982962677686265724E-16, 0.0000000000000000000, 0.1999999999999999556 ) ) ;
#89 = DIRECTION ( 'NONE',  ( -3.491481338843133355E-15, 0.0000000000000000000, -1.000000000000000000 ) ) ;
#90 = DIRECTION ( 'NONE',  ( -3.491481338843133355E-15, 1.224646799147353207E-16, -1.000000000000000000 ) ) ;
#91 = AXIS2_PLACEMENT_3D ( 'NONE', #9, #69, #39 ) ;
#92 = EDGE_CURVE ( 'NONE', #299, #313, #127, .T. ) ;
#93 = DIRECTION ( 'NONE',  ( 4.275831445896958607E-31, 1.000000000000000000, 1.224646799147353207E-16 ) ) ;
#94 = AXIS2_PLACEMENT_3D ( 'NONE', #1, #90, #314 ) ;
#95 = CARTESIAN_POINT ( 'NONE',  ( 0.0000000000000000000, 0.0000000000000000000, 0.0000000000000000000 ) ) ;
#96 = CARTESIAN_POINT ( 'NONE',  ( 1.826065809402200639E-16, -6.404976660301430231E-18, 0.05230060344550628570 ) ) ;
#97 = CARTESIAN_POINT ( 'NONE',  ( -0.05999999999999824918, 0.0000000000000000000, 0.5000000000000002220 ) ) ;
#98 = DIRECTION ( 'NONE',  ( -3.491481338843133355E-15, 0.0000000000000000000, -1.000000000000000000 ) ) ;
#99 = CARTESIAN_POINT ( 'NONE',  ( -0.05999999999999994227, 0.07999999999999998779, 0.01500000000000024057 ) ) ;
#100 = DIRECTION ( 'NONE',  ( 4.275831445896957731E-31, 1.000000000000000000, 1.224646799147353207E-16 ) ) ;
#101 = CONICAL_SURFACE ( 'NONE', #72, 0.09999999999999999167, 0.8203047484373374720 ) ;
#102 = EDGE_CURVE ( 'NONE', #49, #49, #229, .T. ) ;
#103 = EDGE_LOOP ( 'NONE', ( #120 ) ) ;
#104 = DATE_AND_TIME ( #268, #350 ) ;
#105 = PRODUCT ( '997972', '997972', '', ( #310 ) ) ;
#106 = APPROVAL_DATE_TIME ( #358, #188 ) ;
#107 = CARTESIAN_POINT ( 'NONE',  ( 1.992171398665485516E-14, 1.499999999999996003, 5.705805660486706898 ) ) ;
#108 = VERTEX_POINT ( 'NONE', #60 ) ;
#109 = EDGE_CURVE ( 'NONE', #313, #281, #236, .T. ) ;
#110 = AXIS2_PLACEMENT_3D ( 'NONE', #58, #29, #149 ) ;
#111 = SECURITY_CLASSIFICATION_LEVEL ( 'unclassified' ) ;
#112 = VERTEX_POINT ( 'NONE', #30 ) ;
#113 = UNCERTAINTY_MEASURE_WITH_UNIT (LENGTH_MEASURE( 1.000000000000000082E-05 ), #21, 'distance_accuracy_value', 'NONE');
#114 = PRODUCT_DEFINITION ( 'UNKNOWN', '', #393, #176 ) ;
#115 = PERSON_AND_ORGANIZATION ( #171, #332 ) ;
#116 = VERTEX_POINT ( 'NONE', #124 ) ;
#117 = CARTESIAN_POINT ( 'NONE',  ( 1.601958133881255256E-15, 0.09407417371092963165, 0.4588190451025144778 ) ) ;
#118 = CIRCLE ( 'NONE', #210, 0.09407417371092968716 ) ;
#119 = PRODUCT_RELATED_PRODUCT_CATEGORY ( 'detail', '', ( #105 ) ) ;
#120 = ORIENTED_EDGE ( 'NONE', *, *, #246, .F. ) ;
#121 = MANIFOLD_SOLID_BREP ( 'Corps-Déplacer/Copier1[1]', #85 ) ;
#122 = CARTESIAN_POINT ( 'NONE',  ( 1.826065809402200639E-16, -6.404976660301430231E-18, 0.05230060344550628570 ) ) ;
#123 = DIRECTION ( 'NONE',  ( -3.491481338843133355E-15, 0.0000000000000000000, -1.000000000000000000 ) ) ;
#124 = CARTESIAN_POINT ( 'NONE',  ( 1.826065809402227016E-16, 0.05999999999999999778, 0.05230060344550704204 ) ) ;
#125 = AXIS2_PLACEMENT_3D ( 'NONE', #367, #287, #342 ) ;
#126 = FACE_BOUND ( 'NONE', #390, .T. ) ;
#127 = LINE ( 'NONE', #97, #86 ) ;
#128 = FACE_OUTER_BOUND ( 'NONE', #50, .T. ) ;
#129 = AXIS2_PLACEMENT_3D ( 'NONE', #365, #279, #5 ) ;
#130 = DIRECTION ( 'NONE',  ( 3.696749660904612746E-31, 1.000000000000000000, 1.058791184067875547E-16 ) ) ;
#131 = PLANE ( 'NONE',  #162 ) ;
#132 = DIRECTION ( 'NONE',  ( 4.275831445896958607E-31, 1.000000000000000000, 1.224646799147353207E-16 ) ) ;
#133 = ORIENTED_EDGE ( 'NONE', *, *, #92, .F. ) ;
#134 = EDGE_CURVE ( 'NONE', #281, #386, #283, .T. ) ;
#135 = CARTESIAN_POINT ( 'NONE',  ( 1.745740669421566678E-15, 0.0000000000000000000, 0.5000000000000000000 ) ) ;
#136 = ORIENTED_EDGE ( 'NONE', *, *, #109, .F. ) ;
#137 = APPLICATION_PROTOCOL_DEFINITION ( 'international standard', 'config_control_design', 1994, #202 ) ;
#138 = ORIENTED_EDGE ( 'NONE', *, *, #66, .T. ) ;
#139 = PERSON_AND_ORGANIZATION ( #171, #332 ) ;
#140 = ORIENTED_EDGE ( 'NONE', *, *, #102, .T. ) ;
#141 = DATE_AND_TIME ( #354, #245 ) ;
#142 = EDGE_LOOP ( 'NONE', ( #208 ) ) ;
#143 = AXIS2_PLACEMENT_3D ( 'NONE', #135, #260, #353 ) ;
#144 = ORIENTED_EDGE ( 'NONE', *, *, #184, .F. ) ;
#145 = COORDINATED_UNIVERSAL_TIME_OFFSET ( 1, 0, .AHEAD. ) ;
#146 = ORIENTED_EDGE ( 'NONE', *, *, #76, .T. ) ;
#147 = ORIENTED_EDGE ( 'NONE', *, *, #87, .F. ) ;
#148 = AXIS2_PLACEMENT_3D ( 'NONE', #95, #38, #307 ) ;
#149 = DIRECTION ( 'NONE',  ( -4.275831445896958607E-31, -1.000000000000000000, -1.224646799147353207E-16 ) ) ;
#150 = EDGE_CURVE ( 'NONE', #108, #313, #151, .T. ) ;
#151 = LINE ( 'NONE', #376, #12 ) ;
#152 = APPROVAL ( #67, 'UNSPECIFIED' ) ;
#153 = LOCAL_TIME ( 14, 0, 52.00000000000000000, #145 ) ;
#154 = EDGE_CURVE ( 'NONE', #108, #386, #215, .T. ) ;
#155 = DIRECTION ( 'NONE',  ( -3.491481338843133355E-15, 0.0000000000000000000, -1.000000000000000000 ) ) ;
#156 = CC_DESIGN_PERSON_AND_ORGANIZATION_ASSIGNMENT ( #33, #373, ( #105 ) ) ;
#157 = DIRECTION ( 'NONE',  ( -3.491481338843133355E-15, 1.224646799147353207E-16, -1.000000000000000000 ) ) ;
#158 = DIRECTION ( 'NONE',  ( 1.000000000000000000, 0.0000000000000000000, -3.491481338843133355E-15 ) ) ;
#159 = PRODUCT_DEFINITION_SHAPE ( 'NONE', 'NONE',  #114 ) ;
#160 = CARTESIAN_POINT ( 'NONE',  ( 1.601958133881255256E-15, -5.618912749726393825E-17, 0.4588190451025144778 ) ) ;
#161 = CARTESIAN_POINT ( 'NONE',  ( 1.595606971851311880E-13, -5.596635872103403844E-15, 45.69999999999999574 ) ) ;
#162 = AXIS2_PLACEMENT_3D ( 'NONE', #4, #158, #155 ) ;
#163 = FACE_OUTER_BOUND ( 'NONE', #80, .T. ) ;
#164 = PLANE ( 'NONE',  #91 ) ;
#165 = EDGE_CURVE ( 'NONE', #385, #108, #193, .T. ) ;
#166 = FACE_OUTER_BOUND ( 'NONE', #212, .T. ) ;
#167 = CALENDAR_DATE ( 2021, 3, 12 ) ;
#168 = APPROVAL_PERSON_ORGANIZATION ( #222, #152, #36 ) ;
#169 = DATE_AND_TIME ( #324, #218 ) ;
#170 = ADVANCED_FACE ( 'NONE', ( #163 ), #285, .T. ) ;
#171 = PERSON ( 'UNSPECIFIED', 'UNSPECIFIED', 'UNSPECIFIED', ('UNSPECIFIED'), ('UNSPECIFIED'), ('UNSPECIFIED') ) ;
#172 = ORIENTED_EDGE ( 'NONE', *, *, #109, .T. ) ;
#173 = PERSON_AND_ORGANIZATION_ROLE ( 'creator' ) ;
#174 = APPLICATION_CONTEXT ( 'configuration controlled 3d designs of mechanical parts and assemblies' ) ;
#175 = ORIENTED_EDGE ( 'NONE', *, *, #154, .F. ) ;
#176 = DESIGN_CONTEXT ( 'detailed design', #174, 'design' ) ;
#177 = ORIENTED_EDGE ( 'NONE', *, *, #278, .F. ) ;
#178 = CC_DESIGN_APPROVAL ( #152, ( #114 ) ) ;
#179 = ORIENTED_EDGE ( 'NONE', *, *, #275, .T. ) ;
#180 = VERTEX_POINT ( 'NONE', #274 ) ;
#181 = DIRECTION ( 'NONE',  ( -4.275831445896958607E-31, -1.000000000000000000, -1.224646799147353207E-16 ) ) ;
#182 = CONICAL_SURFACE ( 'NONE', #235, 0.09407417371092968716, 0.2617993877991428020 ) ;
#183 = AXIS2_PLACEMENT_3D ( 'NONE', #41, #348, #70 ) ;
#184 = EDGE_CURVE ( 'NONE', #299, #385, #221, .T. ) ;
#185 = LINE ( 'NONE', #213, #59 ) ;
#186 = EDGE_CURVE ( 'NONE', #389, #389, #203, .T. ) ;
#187 = LOCAL_TIME ( 14, 0, 52.00000000000000000, #24 ) ;
#188 = APPROVAL ( #81, 'UNSPECIFIED' ) ;
#189 = CARTESIAN_POINT ( 'NONE',  ( 1.826065809402227263E-16, 0.09999999999999999167, 0.05230060344550704898 ) ) ;
#190 = DIRECTION ( 'NONE',  ( -3.491481338843133355E-15, 1.224646799147353207E-16, -1.000000000000000000 ) ) ;
#191 = FACE_OUTER_BOUND ( 'NONE', #326, .T. ) ;
#192 = DIRECTION ( 'NONE',  ( 4.212971753347078429E-31, 1.000000000000000000, 1.185846126156020475E-16 ) ) ;
#193 = LINE ( 'NONE', #395, #40 ) ;
#194 = FACE_OUTER_BOUND ( 'NONE', #384, .T. ) ;
#195 = VECTOR ( 'NONE', #130, 1000.000000000000000 ) ;
#196 = CARTESIAN_POINT ( 'NONE',  ( -0.05999999999999987982, 0.05614390222989405071, 0.03279693685385377117 ) ) ;
#197 = DIRECTION ( 'NONE',  ( 0.0000000000000000000, 1.000000000000000000, 0.0000000000000000000 ) ) ;
#198 = ORIENTED_EDGE ( 'NONE', *, *, #51, .F. ) ;
#199 = CARTESIAN_POINT ( 'NONE',  ( 0.0000000000000000000, 0.0000000000000000000, 0.0000000000000000000 ) ) ;
#200 = DIRECTION ( 'NONE',  ( -3.491481338843133355E-15, 1.224646799147353207E-16, -1.000000000000000000 ) ) ;
#201 = PERSON_AND_ORGANIZATION ( #171, #332 ) ;
#202 = APPLICATION_CONTEXT ( 'configuration controlled 3d designs of mechanical parts and assemblies' ) ;
#203 = CIRCLE ( 'NONE', #7, 0.06000000000000000472 ) ;
#204 = EDGE_LOOP ( 'NONE', ( #52, #233, #177, #144 ) ) ;
#205 = COORDINATED_UNIVERSAL_TIME_OFFSET ( 1, 0, .AHEAD. ) ;
#206 = ORIENTED_EDGE ( 'NONE', *, *, #296, .F. ) ;
#207 = PERSON_AND_ORGANIZATION ( #171, #332 ) ;
#208 = ORIENTED_EDGE ( 'NONE', *, *, #225, .F. ) ;
#209 = ORIENTED_EDGE ( 'NONE', *, *, #150, .F. ) ;
#210 = AXIS2_PLACEMENT_3D ( 'NONE', #35, #286, #322 ) ;
#211 = CARTESIAN_POINT ( 'NONE',  ( 1.826065809402200885E-16, 0.05999999999999999778, 0.05230060344550629264 ) ) ;
#212 = EDGE_LOOP ( 'NONE', ( #272, #333, #360, #172 ) ) ;
#213 = CARTESIAN_POINT ( 'NONE',  ( 3.779581222265795531E-16, -1.325698635267202849E-17, 0.1082515086137656735 ) ) ;
#214 = CYLINDRICAL_SURFACE ( 'NONE', #243, 1.500000000000000444 ) ;
#215 = CIRCLE ( 'NONE', #183, 0.09999999999999999167 ) ;
#216 = ADVANCED_FACE ( 'NONE', ( #251 ), #309, .T. ) ;
#217 = APPLICATION_PROTOCOL_DEFINITION ( 'international standard', 'config_control_design', 1994, #174 ) ;
#218 = LOCAL_TIME ( 14, 0, 52.00000000000000000, #205 ) ;
#219 = PLANE ( 'NONE',  #355 ) ;
#220 = DIRECTION ( 'NONE',  ( 0.0000000000000000000, 1.000000000000000000, 0.0000000000000000000 ) ) ;
#221 = B_SPLINE_CURVE_WITH_KNOTS ( 'NONE', 3,
 ( #351, #379, #196, #99 ),
 .UNSPECIFIED., .F., .F.,
 ( 4, 4 ),
 ( 0.0001239943185974781985, 0.0002132562982680826966 ),
 .UNSPECIFIED. ) ;
#222 = PERSON_AND_ORGANIZATION ( #171, #332 ) ;
#223 = DIRECTION ( 'NONE',  ( 3.491481338843133355E-15, -0.0000000000000000000, 1.000000000000000000 ) ) ;
#224 = LINE ( 'NONE', #383, #20 ) ;
#225 = EDGE_CURVE ( 'NONE', #45, #45, #118, .T. ) ;
#226 = DIRECTION ( 'NONE',  ( 0.0000000000000000000, -1.000000000000000000, 0.0000000000000000000 ) ) ;
#227 = DIRECTION ( 'NONE',  ( -3.491481338843133355E-15, 1.224646799147353207E-16, -1.000000000000000000 ) ) ;
#228 = DIRECTION ( 'NONE',  ( -3.491481338843133355E-15, 1.224646799147353207E-16, -1.000000000000000000 ) ) ;
#229 = CIRCLE ( 'NONE', #94, 0.05999999999999997002 ) ;
#230 = APPROVAL_STATUS ( 'not_yet_approved' ) ;
#231 = CARTESIAN_POINT ( 'NONE',  ( 0.0000000000000000000, 0.0000000000000000000, 0.0000000000000000000 ) ) ;
#232 = ADVANCED_FACE ( 'NONE', ( #43 ), #131, .F. ) ;
#233 = ORIENTED_EDGE ( 'NONE', *, *, #51, .T. ) ;
#234 = PERSON_AND_ORGANIZATION ( #171, #332 ) ;
#235 = AXIS2_PLACEMENT_3D ( 'NONE', #160, #255, #254 ) ;
#236 = CIRCLE ( 'NONE', #148, 0.05999999999999999778 ) ;
#237 = CC_DESIGN_SECURITY_CLASSIFICATION ( #61, ( #393 ) ) ;
#238 = ORIENTED_EDGE ( 'NONE', *, *, #154, .T. ) ;
#239 = ORIENTED_EDGE ( 'NONE', *, *, #275, .F. ) ;
#240 = ADVANCED_FACE ( 'NONE', ( #194 ), #258, .T. ) ;
#241 =( NAMED_UNIT ( * ) SI_UNIT ( $, .STERADIAN. ) SOLID_ANGLE_UNIT ( ) );
#242 = EDGE_LOOP ( 'NONE', ( #269 ) ) ;
#243 = AXIS2_PLACEMENT_3D ( 'NONE', #370, #346, #93 ) ;
#244 = ORIENTED_EDGE ( 'NONE', *, *, #165, .T. ) ;
#245 = LOCAL_TIME ( 14, 0, 52.00000000000000000, #261 ) ;
#246 = EDGE_CURVE ( 'NONE', #83, #83, #356, .T. ) ;
#247 = EDGE_LOOP ( 'NONE', ( #394, #244, #364, #133 ) ) ;
#248 = LINE ( 'NONE', #189, #253 ) ;
#249 = FACE_BOUND ( 'NONE', #142, .T. ) ;
#250 = CIRCLE ( 'NONE', #276, 1.499999999999996669 ) ;
#251 = FACE_OUTER_BOUND ( 'NONE', #264, .T. ) ;
#252 = FACE_OUTER_BOUND ( 'NONE', #56, .T. ) ;
#253 = VECTOR ( 'NONE', #223, 1000.000000000000000 ) ;
#254 = DIRECTION ( 'NONE',  ( 0.0000000000000000000, -1.000000000000000000, 0.0000000000000000000 ) ) ;
#255 = DIRECTION ( 'NONE',  ( 3.491481338843133355E-15, -1.224646799147353207E-16, 1.000000000000000000 ) ) ;
#256 = FACE_OUTER_BOUND ( 'NONE', #25, .T. ) ;
#257 = PLANE ( 'NONE',  #368 ) ;
#258 = CYLINDRICAL_SURFACE ( 'NONE', #338, 0.09999999999999999167 ) ;
#259 = AXIS2_PLACEMENT_3D ( 'NONE', #88, #334, #57 ) ;
#260 = DIRECTION ( 'NONE',  ( -3.491481338843133355E-15, 0.0000000000000000000, -1.000000000000000000 ) ) ;
#261 = COORDINATED_UNIVERSAL_TIME_OFFSET ( 1, 0, .AHEAD. ) ;
#262 = CC_DESIGN_DATE_AND_TIME_ASSIGNMENT ( #169, #293, ( #61 ) ) ;
#263 = CARTESIAN_POINT ( 'NONE',  ( -1.301255880638423501E-31, 0.09999999999999999167, -3.726944967918921492E-17 ) ) ;
#264 = EDGE_LOOP ( 'NONE', ( #179, #22, #48, #138, #198 ) ) ;
#265 = APPROVAL_DATE_TIME ( #141, #32 ) ;
#266 = AXIS2_PLACEMENT_3D ( 'NONE', #96, #228, #319 ) ;
#267 = EDGE_LOOP ( 'NONE', ( #26 ) ) ;
#268 = CALENDAR_DATE ( 2021, 3, 12 ) ;
#269 = ORIENTED_EDGE ( 'NONE', *, *, #102, .F. ) ;
#270 = APPROVAL_ROLE ( '' ) ;
#271 = FACE_OUTER_BOUND ( 'NONE', #328, .T. ) ;
#272 = ORIENTED_EDGE ( 'NONE', *, *, #298, .F. ) ;
#273 = ADVANCED_FACE ( 'NONE', ( #128, #256 ), #315, .T. ) ;
#274 = CARTESIAN_POINT ( 'NONE',  ( 1.826065809402200392E-16, -0.06000000000000001166, 0.05230060344550627877 ) ) ;
#275 = EDGE_CURVE ( 'NONE', #116, #180, #10, .T. ) ;
#276 = AXIS2_PLACEMENT_3D ( 'NONE', #75, #200, #220 ) ;
#277 = CARTESIAN_POINT ( 'NONE',  ( 1.826065809402227263E-16, 0.09999999999999999167, 0.05230060344550704898 ) ) ;
#278 = EDGE_CURVE ( 'NONE', #385, #112, #291, .T. ) ;
#279 = DIRECTION ( 'NONE',  ( -3.491481338843133355E-15, 1.224646799147353207E-16, -1.000000000000000000 ) ) ;
#280 = DIRECTION ( 'NONE',  ( -3.491481338843133355E-15, 1.224646799147353207E-16, -1.000000000000000000 ) ) ;
#281 = VERTEX_POINT ( 'NONE', #6 ) ;
#282 = AXIS2_PLACEMENT_3D ( 'NONE', #199, #318, #123 ) ;
#283 = LINE ( 'NONE', #8, #195 ) ;
#284 = DIRECTION ( 'NONE',  ( -3.491481338843133355E-15, 1.224646799147353207E-16, -1.000000000000000000 ) ) ;
#285 = PLANE ( 'NONE',  #110 ) ;
#286 = DIRECTION ( 'NONE',  ( -3.491481338843133355E-15, 1.224646799147353207E-16, -1.000000000000000000 ) ) ;
#287 = DIRECTION ( 'NONE',  ( 0.0000000000000000000, 0.0000000000000000000, 1.000000000000000000 ) ) ;
#288 = CYLINDRICAL_SURFACE ( 'NONE', #143, 0.05999999999999999778 ) ;
#289 = CC_DESIGN_PERSON_AND_ORGANIZATION_ASSIGNMENT ( #47, #77, ( #61 ) ) ;
#290 = VERTEX_POINT ( 'NONE', #16 ) ;
#291 = CIRCLE ( 'NONE', #388, 0.09999999999999999167 ) ;
#292 = ORIENTED_EDGE ( 'NONE', *, *, #278, .T. ) ;
#293 = DATE_TIME_ROLE ( 'classification_date' ) ;
#294 = ORIENTED_EDGE ( 'NONE', *, *, #366, .T. ) ;
#295 = CARTESIAN_POINT ( 'NONE',  ( 6.982962677686276571E-16, 0.05999999999999994227, 0.2000000000000002887 ) ) ;
#296 = EDGE_CURVE ( 'NONE', #299, #116, #362, .T. ) ;
#297 = ORIENTED_EDGE ( 'NONE', *, *, #225, .T. ) ;
#298 = EDGE_CURVE ( 'NONE', #180, #281, #224, .T. ) ;
#299 = VERTEX_POINT ( 'NONE', #377 ) ;
#300 = COORDINATED_UNIVERSAL_TIME_OFFSET ( 1, 0, .AHEAD. ) ;
#301 =( NAMED_UNIT ( * ) PLANE_ANGLE_UNIT ( ) SI_UNIT ( $, .RADIAN. ) );
#302 = EDGE_LOOP ( 'NONE', ( #146 ) ) ;
#303 = ADVANCED_FACE ( 'NONE', ( #252 ), #164, .T. ) ;
#304 = FACE_OUTER_BOUND ( 'NONE', #267, .T. ) ;
#305 = AXIS2_PLACEMENT_3D ( 'NONE', #339, #157, #68 ) ;
#306 = FACE_OUTER_BOUND ( 'NONE', #103, .T. ) ;
#307 = DIRECTION ( 'NONE',  ( -1.000000000000000000, 0.0000000000000000000, 3.491481338843132961E-15 ) ) ;
#308 = AXIS2_PLACEMENT_3D ( 'NONE', #42, #317, #375 ) ;
#309 = PLANE ( 'NONE',  #282 ) ;
#310 = MECHANICAL_CONTEXT ( 'NONE', #202, 'mechanical' ) ;
#311 = DIRECTION ( 'NONE',  ( 3.491481338843133355E-15, -1.224646799147353207E-16, 1.000000000000000000 ) ) ;
#312 = DIRECTION ( 'NONE',  ( -5.914799457447379868E-31, -1.000000000000000000, -1.694065894508600925E-16 ) ) ;
#313 = VERTEX_POINT ( 'NONE', #347 ) ;
#314 = DIRECTION ( 'NONE',  ( 0.0000000000000000000, 1.000000000000000000, 0.0000000000000000000 ) ) ;
#315 = CYLINDRICAL_SURFACE ( 'NONE', #54, 0.05999999999999998390 ) ;
#316 = DIRECTION ( 'NONE',  ( -3.491481338843133355E-15, 1.224646799147353207E-16, -1.000000000000000000 ) ) ;
#317 = DIRECTION ( 'NONE',  ( -3.491481338843133355E-15, 1.224646799147353207E-16, -1.000000000000000000 ) ) ;
#318 = DIRECTION ( 'NONE',  ( 1.000000000000000000, 0.0000000000000000000, -3.491481338843133355E-15 ) ) ;
#319 = DIRECTION ( 'NONE',  ( 4.012354050806740777E-31, 1.000000000000000000, 1.129377263005733621E-16 ) ) ;
#320 = ORIENTED_EDGE ( 'NONE', *, *, #165, .F. ) ;
#321 = APPROVAL_DATE_TIME ( #104, #152 ) ;
#322 = DIRECTION ( 'NONE',  ( 0.0000000000000000000, 1.000000000000000000, 0.0000000000000000000 ) ) ;
#323 = CC_DESIGN_PERSON_AND_ORGANIZATION_ASSIGNMENT ( #234, #173, ( #114 ) ) ;
#324 = CALENDAR_DATE ( 2021, 3, 12 ) ;
#325 = CIRCLE ( 'NONE', #129, 0.06000000000000000472 ) ;
#326 = EDGE_LOOP ( 'NONE', ( #294 ) ) ;
#327 = DIRECTION ( 'NONE',  ( 4.212971753347078429E-31, 1.000000000000000000, 1.185846126156020475E-16 ) ) ;
#328 = EDGE_LOOP ( 'NONE', ( #297 ) ) ;
#329 = ORIENTED_EDGE ( 'NONE', *, *, #134, .F. ) ;
#330 = CALENDAR_DATE ( 2021, 3, 12 ) ;
#331 = CARTESIAN_POINT ( 'NONE',  ( 1.606081415867841091E-13, 1.199999999999998845, 46.00000000000000000 ) ) ;
#332 = ORGANIZATION ( 'UNSPECIFIED', 'UNSPECIFIED', '' ) ;
#333 = ORIENTED_EDGE ( 'NONE', *, *, #87, .T. ) ;
#334 = DIRECTION ( 'NONE',  ( -3.491481338843133355E-15, 1.224646799147353207E-16, -1.000000000000000000 ) ) ;
#335 = ADVANCED_FACE ( 'NONE', ( #126, #74 ), #3, .T. ) ;
#336 = FACE_OUTER_BOUND ( 'NONE', #359, .T. ) ;
#337 = ADVANCED_BREP_SHAPE_REPRESENTATION ( '997972', ( #121, #11, #125 ), #343 ) ;
#338 = AXIS2_PLACEMENT_3D ( 'NONE', #349, #280, #380 ) ;
#339 = CARTESIAN_POINT ( 'NONE',  ( 1.595606971851311880E-13, -5.596635872103403844E-15, 45.69999999999999574 ) ) ;
#340 = ADVANCED_FACE ( 'NONE', ( #166 ), #288, .T. ) ;
#341 = CC_DESIGN_PERSON_AND_ORGANIZATION_ASSIGNMENT ( #207, #387, ( #393 ) ) ;
#342 = DIRECTION ( 'NONE',  ( 1.000000000000000000, 0.0000000000000000000, 0.0000000000000000000 ) ) ;
#343 =( GEOMETRIC_REPRESENTATION_CONTEXT ( 3 ) GLOBAL_UNCERTAINTY_ASSIGNED_CONTEXT ( ( #113 ) ) GLOBAL_UNIT_ASSIGNED_CONTEXT ( ( #21, #301, #241 ) ) REPRESENTATION_CONTEXT ( 'NONE', 'WORKASPACE' ) );
#344 = CARTESIAN_POINT ( 'NONE',  ( 1.826065809402213951E-16, 0.05999999999999999778, 0.05230060344550666040 ) ) ;
#345 = FACE_OUTER_BOUND ( 'NONE', #204, .T. ) ;
#346 = DIRECTION ( 'NONE',  ( -3.491481338843133355E-15, 1.224646799147353207E-16, -1.000000000000000000 ) ) ;
#347 = CARTESIAN_POINT ( 'NONE',  ( -0.05999999999999999778, 0.0000000000000000000, 2.094888803305879717E-16 ) ) ;
#348 = DIRECTION ( 'NONE',  ( -3.491481338843133355E-15, 1.224646799147353207E-16, -1.000000000000000000 ) ) ;
#349 = CARTESIAN_POINT ( 'NONE',  ( 0.0000000000000000000, 0.0000000000000000000, 0.0000000000000000000 ) ) ;
#350 = LOCAL_TIME ( 14, 0, 52.00000000000000000, #300 ) ;
#351 = CARTESIAN_POINT ( 'NONE',  ( -0.05999999999999981043, 0.0000000000000000000, 0.05230060344550685469 ) ) ;
#352 = DIRECTION ( 'NONE',  ( -3.491481338843133355E-15, 1.224646799147353207E-16, -1.000000000000000000 ) ) ;
#353 = DIRECTION ( 'NONE',  ( -1.000000000000000000, 0.0000000000000000000, 3.614007241618348376E-15 ) ) ;
#354 = CALENDAR_DATE ( 2021, 3, 12 ) ;
#355 = AXIS2_PLACEMENT_3D ( 'NONE', #374, #311, #181 ) ;
#356 = CIRCLE ( 'NONE', #308, 1.200000000000004396 ) ;
#357 = ORIENTED_EDGE ( 'NONE', *, *, #246, .T. ) ;
#358 = DATE_AND_TIME ( #330, #187 ) ;
#359 = EDGE_LOOP ( 'NONE', ( #19 ) ) ;
#360 = ORIENTED_EDGE ( 'NONE', *, *, #92, .T. ) ;
#361 = CC_DESIGN_PERSON_AND_ORGANIZATION_ASSIGNMENT ( #201, #79, ( #393 ) ) ;
#362 = CIRCLE ( 'NONE', #266, 0.06000000000000000472 ) ;
#363 = FACE_OUTER_BOUND ( 'NONE', #302, .T. ) ;
#364 = ORIENTED_EDGE ( 'NONE', *, *, #150, .T. ) ;
#365 = CARTESIAN_POINT ( 'NONE',  ( 1.826065809402200639E-16, -6.404976660301430231E-18, 0.05230060344550628570 ) ) ;
#366 = EDGE_CURVE ( 'NONE', #18, #18, #250, .T. ) ;
#367 = CARTESIAN_POINT ( 'NONE',  ( 0.0000000000000000000, 0.0000000000000000000, 0.0000000000000000000 ) ) ;
#368 = AXIS2_PLACEMENT_3D ( 'NONE', #344, #64, #132 ) ;
#369 = CC_DESIGN_DATE_AND_TIME_ASSIGNMENT ( #53, #13, ( #114 ) ) ;
#370 = CARTESIAN_POINT ( 'NONE',  ( 0.0000000000000000000, 0.0000000000000000000, 0.0000000000000000000 ) ) ;
#371 = CARTESIAN_POINT ( 'NONE',  ( 5.237222008264706689E-17, -1.836970198721031906E-18, 0.01500000000000001853 ) ) ;
#372 = CIRCLE ( 'NONE', #305, 1.500000000000004441 ) ;
#373 = PERSON_AND_ORGANIZATION_ROLE ( 'design_owner' ) ;
#374 = CARTESIAN_POINT ( 'NONE',  ( 1.606081415867841091E-13, -5.633375276077824704E-15, 46.00000000000000000 ) ) ;
#375 = DIRECTION ( 'NONE',  ( 0.0000000000000000000, 1.000000000000000000, 0.0000000000000000000 ) ) ;
#376 = CARTESIAN_POINT ( 'NONE',  ( -0.05999999999999999778, 0.0000000000000000000, 2.094888803305879717E-16 ) ) ;
#377 = CARTESIAN_POINT ( 'NONE',  ( -0.05999999999999981043, 0.0000000000000000000, 0.05230060344550685469 ) ) ;
#378 = ADVANCED_FACE ( 'NONE', ( #345 ), #101, .T. ) ;
#379 = CARTESIAN_POINT ( 'NONE',  ( -0.05999999999999981043, 0.02975952822612874457, 0.05230060344552515950 ) ) ;
#380 = DIRECTION ( 'NONE',  ( 4.275831445896958607E-31, 1.000000000000000000, 1.224646799147353207E-16 ) ) ;
#381 = TOROIDAL_SURFACE ( 'NONE', #259, 1.060000000000000053, 1.000000000000000000 ) ;
#382 = APPROVAL_PERSON_ORGANIZATION ( #115, #32, #44 ) ;
#383 = CARTESIAN_POINT ( 'NONE',  ( 1.826065809402226523E-16, -0.05999999999999999778, 0.05230060344550702123 ) ) ;
#384 = EDGE_LOOP ( 'NONE', ( #292, #82, #175, #320 ) ) ;
#385 = VERTEX_POINT ( 'NONE', #55 ) ;
#386 = VERTEX_POINT ( 'NONE', #263 ) ;
#387 = PERSON_AND_ORGANIZATION_ROLE ( 'creator' ) ;
#388 = AXIS2_PLACEMENT_3D ( 'NONE', #371, #71, #192 ) ;
#389 = VERTEX_POINT ( 'NONE', #211 ) ;
#390 = EDGE_LOOP ( 'NONE', ( #357 ) ) ;
#391 = ORIENTED_EDGE ( 'NONE', *, *, #186, .F. ) ;
#392 = FACE_OUTER_BOUND ( 'NONE', #242, .T. ) ;
#393 = PRODUCT_DEFINITION_FORMATION_WITH_SPECIFIED_SOURCE ( 'ANY', '', #105, .NOT_KNOWN. ) ;
#394 = ORIENTED_EDGE ( 'NONE', *, *, #184, .T. ) ;
#395 = CARTESIAN_POINT ( 'NONE',  ( -0.05999999999999999778, 0.07999999999999998779, 2.192860547237668250E-16 ) ) ;
ENDSEC;
END-ISO-10303-21;
