ISO-10303-21;
HEADER;
FILE_DESCRIPTION (( 'STEP AP203' ),
    '1' );
FILE_NAME ('997971.step',
    '2021-12-03T14:05:33',
    ( '' ),
    ( '' ),
    'SwSTEP 2.0',
    'SolidWorks 2019',
    '' );
FILE_SCHEMA (( 'CONFIG_CONTROL_DESIGN' ));
ENDSEC;

DATA;
#1 = ORIENTED_EDGE ( 'NONE', *, *, #300, .F. ) ;
#2 = DIRECTION ( 'NONE',  ( 4.275831445896958607E-31, 1.000000000000000000, 1.224646799147353207E-16 ) ) ;
#3 = CALENDAR_DATE ( 2021, 3, 12 ) ;
#4 = DIRECTION ( 'NONE',  ( 0.0000000000000000000, -1.000000000000000000, 0.0000000000000000000 ) ) ;
#5 = APPROVAL_STATUS ( 'not_yet_approved' ) ;
#6 = APPLICATION_CONTEXT ( 'configuration controlled 3d designs of mechanical parts and assemblies' ) ;
#7 = AXIS2_PLACEMENT_3D ( 'NONE', #10, #130, #151 ) ;
#8 = DATE_TIME_ROLE ( 'creation_date' ) ;
#9 = FACE_OUTER_BOUND ( 'NONE', #74, .T. ) ;
#10 = CARTESIAN_POINT ( 'NONE',  ( 3.491481338843133355E-15, -1.224646799147353207E-16, 1.000000000000000000 ) ) ;
#11 = EDGE_CURVE ( 'NONE', #116, #19, #121, .T. ) ;
#12 = DIRECTION ( 'NONE',  ( -3.491481338843133355E-15, 1.224646799147353207E-16, -1.000000000000000000 ) ) ;
#13 = CONICAL_SURFACE ( 'NONE', #51, 0.5990538267238136871, 0.5235987755983000369 ) ;
#14 = DIRECTION ( 'NONE',  ( 0.0000000000000000000, 1.000000000000000000, 0.0000000000000000000 ) ) ;
#15 = APPROVAL ( #214, 'UNSPECIFIED' ) ;
#16 = DIRECTION ( 'NONE',  ( -3.491481338843133355E-15, 1.224646799147353207E-16, -1.000000000000000000 ) ) ;
#17 = DIRECTION ( 'NONE',  ( -4.275831445896958607E-31, -1.000000000000000000, -1.224646799147353207E-16 ) ) ;
#18 = ORIENTED_EDGE ( 'NONE', *, *, #300, .T. ) ;
#19 = VERTEX_POINT ( 'NONE', #98 ) ;
#20 = PERSON_AND_ORGANIZATION ( #63, #87 ) ;
#21 = CC_DESIGN_PERSON_AND_ORGANIZATION_ASSIGNMENT ( #20, #141, ( #255 ) ) ;
#22 = EDGE_LOOP ( 'NONE', ( #139, #79, #279, #18 ) ) ;
#23 = COORDINATED_UNIVERSAL_TIME_OFFSET ( 1, 0, .AHEAD. ) ;
#24 = ORIENTED_EDGE ( 'NONE', *, *, #277, .F. ) ;
#25 = LOCAL_TIME ( 15, 5, 33.00000000000000000, #285 ) ;
#26 = PERSON_AND_ORGANIZATION_ROLE ( 'creator' ) ;
#27 = ORIENTED_EDGE ( 'NONE', *, *, #107, .F. ) ;
#28 = ADVANCED_FACE ( 'NONE', ( #228, #186 ), #206, .T. ) ;
#29 = DATE_AND_TIME ( #125, #62 ) ;
#30 = DIRECTION ( 'NONE',  ( -3.491481338843133355E-15, 1.224646799147353207E-16, -1.000000000000000000 ) ) ;
#31 = DATE_AND_TIME ( #238, #198 ) ;
#32 = DIRECTION ( 'NONE',  ( 4.275831445896958607E-31, 1.000000000000000000, 1.224646799147353207E-16 ) ) ;
#33 = AXIS2_PLACEMENT_3D ( 'NONE', #157, #40, #17 ) ;
#34 = DESIGN_CONTEXT ( 'detailed design', #60, 'design' ) ;
#35 = CARTESIAN_POINT ( 'NONE',  ( 1.606081415867841091E-13, -5.633375276077824704E-15, 46.00000000000000000 ) ) ;
#36 = CARTESIAN_POINT ( 'NONE',  ( 3.491481338843133355E-15, 3.487535628337993633E-33, 1.000000000000000000 ) ) ;
#37 = EDGE_LOOP ( 'NONE', ( #159, #1, #258, #262 ) ) ;
#38 = APPROVAL_PERSON_ORGANIZATION ( #123, #272, #147 ) ;
#39 = ADVANCED_FACE ( 'NONE', ( #94, #78 ), #13, .T. ) ;
#40 = DIRECTION ( 'NONE',  ( 3.491481338843133355E-15, -1.224646799147353207E-16, 1.000000000000000000 ) ) ;
#41 = DIRECTION ( 'NONE',  ( -3.489354422748178188E-15, 0.03489949670250197533, -0.9993908270190956511 ) ) ;
#42 = DIRECTION ( 'NONE',  ( 0.0000000000000000000, 1.000000000000000000, 0.0000000000000000000 ) ) ;
#43 =( NAMED_UNIT ( * ) PLANE_ANGLE_UNIT ( ) SI_UNIT ( $, .RADIAN. ) );
#44 = CIRCLE ( 'NONE', #268, 0.5000000000000000000 ) ;
#45 = EDGE_LOOP ( 'NONE', ( #229 ) ) ;
#46 = EDGE_CURVE ( 'NONE', #156, #156, #181, .T. ) ;
#47 = ORIENTED_EDGE ( 'NONE', *, *, #46, .F. ) ;
#48 = SECURITY_CLASSIFICATION_LEVEL ( 'unclassified' ) ;
#49 = EDGE_LOOP ( 'NONE', ( #248 ) ) ;
#50 = DIRECTION ( 'NONE',  ( 3.491481338843133355E-15, -1.224646799147353207E-16, 1.000000000000000000 ) ) ;
#51 = AXIS2_PLACEMENT_3D ( 'NONE', #165, #50, #4 ) ;
#52 = CARTESIAN_POINT ( 'NONE',  ( 3.491481338843133355E-15, -1.224646799147353207E-16, 1.000000000000000000 ) ) ;
#53 = CALENDAR_DATE ( 2021, 3, 12 ) ;
#54 = EDGE_CURVE ( 'NONE', #223, #223, #291, .T. ) ;
#55 = DIRECTION ( 'NONE',  ( -3.491481338843133355E-15, 1.224646799147353207E-16, -1.000000000000000000 ) ) ;
#56 = LOCAL_TIME ( 15, 5, 33.00000000000000000, #99 ) ;
#57 = AXIS2_PLACEMENT_3D ( 'NONE', #239, #55, #32 ) ;
#58 = DIRECTION ( 'NONE',  ( 4.275831445896958607E-31, 1.000000000000000000, 1.224646799147353207E-16 ) ) ;
#59 = DIRECTION ( 'NONE',  ( 4.275831445896958607E-31, 1.000000000000000000, 1.224646799147353207E-16 ) ) ;
#60 = APPLICATION_CONTEXT ( 'configuration controlled 3d designs of mechanical parts and assemblies' ) ;
#61 = CARTESIAN_POINT ( 'NONE',  ( 1.595606971851311880E-13, -5.596635872103403844E-15, 45.69999999999999574 ) ) ;
#62 = LOCAL_TIME ( 15, 5, 33.00000000000000000, #23 ) ;
#63 = PERSON ( 'UNSPECIFIED', 'UNSPECIFIED', 'UNSPECIFIED', ('UNSPECIFIED'), ('UNSPECIFIED'), ('UNSPECIFIED') ) ;
#64 = CARTESIAN_POINT ( 'NONE',  ( -1.068957861474239433E-31, 3.749399456654644020E-33, -3.061616997868383018E-17 ) ) ;
#65 = AXIS2_PLACEMENT_3D ( 'NONE', #61, #219, #197 ) ;
#66 = CARTESIAN_POINT ( 'NONE',  ( 4.999147197584136533E-14, -1.753464796124729700E-15, 14.31812664145744129 ) ) ;
#67 = VERTEX_POINT ( 'NONE', #135 ) ;
#68 = CARTESIAN_POINT ( 'NONE',  ( 1.606081415867841091E-13, 1.199999999999999512, 46.00000000000000000 ) ) ;
#69 = ORIENTED_EDGE ( 'NONE', *, *, #146, .F. ) ;
#70 = ADVANCED_FACE ( 'NONE', ( #137, #224 ), #218, .F. ) ;
#71 = AXIS2_PLACEMENT_3D ( 'NONE', #52, #237, #200 ) ;
#72 = DIRECTION ( 'NONE',  ( 0.0000000000000000000, 1.000000000000000000, 0.0000000000000000000 ) ) ;
#73 = MECHANICAL_CONTEXT ( 'NONE', #6, 'mechanical' ) ;
#74 = EDGE_LOOP ( 'NONE', ( #69 ) ) ;
#75 = APPROVAL_ROLE ( '' ) ;
#76 = ADVANCED_FACE ( 'NONE', ( #104, #196 ), #286, .T. ) ;
#77 = DIRECTION ( 'NONE',  ( 4.275831445896958607E-31, 1.000000000000000000, 1.224646799147353207E-16 ) ) ;
#78 = FACE_BOUND ( 'NONE', #261, .T. ) ;
#79 = ORIENTED_EDGE ( 'NONE', *, *, #89, .T. ) ;
#80 = CARTESIAN_POINT ( 'NONE',  ( 0.0000000000000000000, 0.0000000000000000000, 0.0000000000000000000 ) ) ;
#81 = UNCERTAINTY_MEASURE_WITH_UNIT (LENGTH_MEASURE( 1.000000000000000082E-05 ), #204, 'distance_accuracy_value', 'NONE');
#82 = CARTESIAN_POINT ( 'NONE',  ( 0.0000000000000000000, 0.0000000000000000000, 0.0000000000000000000 ) ) ;
#83 = CC_DESIGN_PERSON_AND_ORGANIZATION_ASSIGNMENT ( #184, #266, ( #194 ) ) ;
#84 = DIRECTION ( 'NONE',  ( -3.491481338843133355E-15, 1.224646799147353207E-16, -1.000000000000000000 ) ) ;
#85 = CC_DESIGN_PERSON_AND_ORGANIZATION_ASSIGNMENT ( #168, #236, ( #270 ) ) ;
#86 = PRODUCT ( '997971', '997971', '', ( #73 ) ) ;
#87 = ORGANIZATION ( 'UNSPECIFIED', 'UNSPECIFIED', '' ) ;
#88 = AXIS2_PLACEMENT_3D ( 'NONE', #100, #95, #72 ) ;
#89 = EDGE_CURVE ( 'NONE', #210, #116, #152, .T. ) ;
#90 = CARTESIAN_POINT ( 'NONE',  ( 1.571166602479410957E-14, 0.5990538267238131320, 4.500000000000002665 ) ) ;
#91 = VECTOR ( 'NONE', #215, 1000.000000000000227 ) ;
#92 = CARTESIAN_POINT ( 'NONE',  ( 2.116006870019452851E-14, 1.499999999999994449, 6.060484546999097333 ) ) ;
#93 = ADVANCED_FACE ( 'NONE', ( #242 ), #263, .T. ) ;
#94 = FACE_OUTER_BOUND ( 'NONE', #162, .T. ) ;
#95 = DIRECTION ( 'NONE',  ( -3.491481338843133355E-15, 1.224646799147353207E-16, -1.000000000000000000 ) ) ;
#96 = PERSON_AND_ORGANIZATION ( #63, #87 ) ;
#97 = ORIENTED_EDGE ( 'NONE', *, *, #192, .F. ) ;
#98 = CARTESIAN_POINT ( 'NONE',  ( 3.491481338843133355E-15, 0.4650792305082512845, 1.000000000000000000 ) ) ;
#99 = COORDINATED_UNIVERSAL_TIME_OFFSET ( 1, 0, .AHEAD. ) ;
#100 = CARTESIAN_POINT ( 'NONE',  ( 2.116006870019452851E-14, -7.421953001764441920E-16, 6.060484546999097333 ) ) ;
#101 = DATE_AND_TIME ( #3, #174 ) ;
#102 = DIRECTION ( 'NONE',  ( 1.000000000000000000, 0.0000000000000000000, -3.491481338843133355E-15 ) ) ;
#103 = APPROVAL_DATE_TIME ( #31, #272 ) ;
#104 = FACE_OUTER_BOUND ( 'NONE', #49, .T. ) ;
#105 = PLANE ( 'NONE',  #172 ) ;
#106 = AXIS2_PLACEMENT_3D ( 'NONE', #281, #213, #276 ) ;
#107 = EDGE_CURVE ( 'NONE', #116, #19, #167, .T. ) ;
#108 = CARTESIAN_POINT ( 'NONE',  ( 1.606081415867841091E-13, 8.998558695971099120E-33, 46.00000000000000000 ) ) ;
#109 = VECTOR ( 'NONE', #41, 1000.000000000000227 ) ;
#110 = CARTESIAN_POINT ( 'NONE',  ( 1.396592535537253342E-14, 0.4650792305082509515, 4.000000000000000000 ) ) ;
#111 = DIRECTION ( 'NONE',  ( 3.491481338843133355E-15, -1.224646799147353207E-16, 1.000000000000000000 ) ) ;
#112 = PRODUCT_DEFINITION_SHAPE ( 'NONE', 'NONE',  #270 ) ;
#113 = CARTESIAN_POINT ( 'NONE',  ( 0.0000000000000000000, 0.5000000000000000000, 0.0000000000000000000 ) ) ;
#114 = VERTEX_POINT ( 'NONE', #68 ) ;
#115 = EDGE_LOOP ( 'NONE', ( #118 ) ) ;
#116 = VERTEX_POINT ( 'NONE', #127 ) ;
#117 = PERSON_AND_ORGANIZATION ( #63, #87 ) ;
#118 = ORIENTED_EDGE ( 'NONE', *, *, #54, .T. ) ;
#119 = ADVANCED_BREP_SHAPE_REPRESENTATION ( '997971', ( #284, #176, #249 ), #153 ) ;
#120 = PERSON_AND_ORGANIZATION_ROLE ( 'design_owner' ) ;
#121 = LINE ( 'NONE', #298, #122 ) ;
#122 = VECTOR ( 'NONE', #2, 1000.000000000000000 ) ;
#123 = PERSON_AND_ORGANIZATION ( #63, #87 ) ;
#124 = ORIENTED_EDGE ( 'NONE', *, *, #226, .F. ) ;
#125 = CALENDAR_DATE ( 2021, 3, 12 ) ;
#126 = ADVANCED_FACE ( 'NONE', ( #9 ), #105, .F. ) ;
#127 = CARTESIAN_POINT ( 'NONE',  ( 3.491481338843132566E-15, -0.4650792305082515621, 0.9999999999999997780 ) ) ;
#128 = CIRCLE ( 'NONE', #250, 0.4650792305082514511 ) ;
#129 = CIRCLE ( 'NONE', #256, 1.200000000000005063 ) ;
#130 = DIRECTION ( 'NONE',  ( -3.491481338843133355E-15, 1.224646799147353207E-16, -1.000000000000000000 ) ) ;
#131 = ADVANCED_FACE ( 'NONE', ( #293 ), #243, .T. ) ;
#132 = CARTESIAN_POINT ( 'NONE',  ( 0.0000000000000000000, 0.5000000000000000000, 0.0000000000000000000 ) ) ;
#133 = CC_DESIGN_PERSON_AND_ORGANIZATION_ASSIGNMENT ( #148, #26, ( #194 ) ) ;
#134 = PLANE ( 'NONE',  #33 ) ;
#135 = CARTESIAN_POINT ( 'NONE',  ( 1.595606971851311880E-13, 1.499999999999999334, 45.69999999999999574 ) ) ;
#136 = DIRECTION ( 'NONE',  ( -3.491481338843133355E-15, 1.224646799147353207E-16, -1.000000000000000000 ) ) ;
#137 = FACE_OUTER_BOUND ( 'NONE', #115, .T. ) ;
#138 = CIRCLE ( 'NONE', #71, 0.4650792305082513955 ) ;
#139 = ORIENTED_EDGE ( 'NONE', *, *, #287, .F. ) ;
#140 = ORIENTED_EDGE ( 'NONE', *, *, #287, .T. ) ;
#141 = PERSON_AND_ORGANIZATION_ROLE ( 'classification_officer' ) ;
#142 = EDGE_LOOP ( 'NONE', ( #47 ) ) ;
#143 = APPROVAL_PERSON_ORGANIZATION ( #96, #179, #75 ) ;
#144 = APPROVAL_ROLE ( '' ) ;
#145 = DIRECTION ( 'NONE',  ( 0.0000000000000000000, 1.000000000000000000, 0.0000000000000000000 ) ) ;
#146 = EDGE_CURVE ( 'NONE', #114, #114, #129, .T. ) ;
#147 = APPROVAL_ROLE ( '' ) ;
#148 = PERSON_AND_ORGANIZATION ( #63, #87 ) ;
#149 = CARTESIAN_POINT ( 'NONE',  ( 4.999147197584136533E-14, -1.753464796124729700E-15, 14.31812664145744129 ) ) ;
#150 = CC_DESIGN_DATE_AND_TIME_ASSIGNMENT ( #280, #230, ( #255 ) ) ;
#151 = DIRECTION ( 'NONE',  ( 0.0000000000000000000, 1.000000000000000000, 0.0000000000000000000 ) ) ;
#152 = LINE ( 'NONE', #149, #91 ) ;
#153 =( GEOMETRIC_REPRESENTATION_CONTEXT ( 3 ) GLOBAL_UNCERTAINTY_ASSIGNED_CONTEXT ( ( #81 ) ) GLOBAL_UNIT_ASSIGNED_CONTEXT ( ( #204, #43, #227 ) ) REPRESENTATION_CONTEXT ( 'NONE', 'WORKASPACE' ) );
#154 = FACE_OUTER_BOUND ( 'NONE', #45, .T. ) ;
#155 = EDGE_LOOP ( 'NONE', ( #271 ) ) ;
#156 = VERTEX_POINT ( 'NONE', #92 ) ;
#157 = CARTESIAN_POINT ( 'NONE',  ( 3.491481338843133355E-15, 3.487535628337993633E-33, 1.000000000000000000 ) ) ;
#158 = EDGE_CURVE ( 'NONE', #275, #210, #269, .T. ) ;
#159 = ORIENTED_EDGE ( 'NONE', *, *, #158, .F. ) ;
#160 = CONICAL_SURFACE ( 'NONE', #294, 1.200000000000005063, 0.7853981633974453924 ) ;
#161 = CARTESIAN_POINT ( 'NONE',  ( -2.137915722948478865E-31, 7.498798913309288039E-33, -6.123233995736766036E-17 ) ) ;
#162 = EDGE_LOOP ( 'NONE', ( #208 ) ) ;
#163 = PERSON_AND_ORGANIZATION ( #63, #87 ) ;
#164 = ORIENTED_EDGE ( 'NONE', *, *, #11, .T. ) ;
#165 = CARTESIAN_POINT ( 'NONE',  ( 1.571166602479410957E-14, -5.510910596163092514E-16, 4.500000000000002665 ) ) ;
#166 = CARTESIAN_POINT ( 'NONE',  ( -2.137915722948478865E-31, 7.498798913309288039E-33, -6.123233995736766036E-17 ) ) ;
#167 = CIRCLE ( 'NONE', #7, 0.4650792305082513955 ) ;
#168 = PERSON_AND_ORGANIZATION ( #63, #87 ) ;
#169 = CARTESIAN_POINT ( 'NONE',  ( 0.0000000000000000000, 0.0000000000000000000, 0.0000000000000000000 ) ) ;
#170 = DIRECTION ( 'NONE',  ( -3.491481338843133355E-15, 1.224646799147353207E-16, -1.000000000000000000 ) ) ;
#171 = FACE_OUTER_BOUND ( 'NONE', #178, .T. ) ;
#172 = AXIS2_PLACEMENT_3D ( 'NONE', #108, #30, #289 ) ;
#173 = PLANE ( 'NONE',  #245 ) ;
#174 = LOCAL_TIME ( 15, 5, 33.00000000000000000, #259 ) ;
#175 = VERTEX_POINT ( 'NONE', #110 ) ;
#176 = MANIFOLD_SOLID_BREP ( 'Corps-Déplacer/Copier1[2]', #234 ) ;
#177 = CARTESIAN_POINT ( 'NONE',  ( 3.491481338843133355E-15, 0.4650792305082512845, 1.000000000000000000 ) ) ;
#178 = EDGE_LOOP ( 'NONE', ( #24 ) ) ;
#179 = APPROVAL ( #5, 'UNSPECIFIED' ) ;
#180 = AXIS2_PLACEMENT_3D ( 'NONE', #64, #16, #297 ) ;
#181 = CIRCLE ( 'NONE', #88, 1.499999999999995115 ) ;
#182 = DIRECTION ( 'NONE',  ( 1.000000000000000000, 0.0000000000000000000, 0.0000000000000000000 ) ) ;
#183 = EDGE_LOOP ( 'NONE', ( #140, #254 ) ) ;
#184 = PERSON_AND_ORGANIZATION ( #63, #87 ) ;
#185 = PLANE ( 'NONE',  #180 ) ;
#186 = FACE_OUTER_BOUND ( 'NONE', #299, .T. ) ;
#187 = APPROVAL_STATUS ( 'not_yet_approved' ) ;
#188 = EDGE_LOOP ( 'NONE', ( #27, #164 ) ) ;
#189 = APPROVAL_DATE_TIME ( #301, #15 ) ;
#190 = APPROVAL_PERSON_ORGANIZATION ( #117, #15, #144 ) ;
#191 = DIRECTION ( 'NONE',  ( -4.275831445896958607E-31, -1.000000000000000000, -1.224646799147353207E-16 ) ) ;
#192 = EDGE_CURVE ( 'NONE', #175, #175, #128, .T. ) ;
#193 = DIRECTION ( 'NONE',  ( -3.491481338843133355E-15, 0.0000000000000000000, -1.000000000000000000 ) ) ;
#194 = PRODUCT_DEFINITION_FORMATION_WITH_SPECIFIED_SOURCE ( 'ANY', '', #86, .NOT_KNOWN. ) ;
#195 = DIRECTION ( 'NONE',  ( -3.491481338843133355E-15, 1.224646799147353207E-16, -1.000000000000000000 ) ) ;
#196 = FACE_OUTER_BOUND ( 'NONE', #203, .T. ) ;
#197 = DIRECTION ( 'NONE',  ( 0.0000000000000000000, 1.000000000000000000, 0.0000000000000000000 ) ) ;
#198 = LOCAL_TIME ( 15, 5, 33.00000000000000000, #282 ) ;
#199 = APPLICATION_PROTOCOL_DEFINITION ( 'international standard', 'config_control_design', 1994, #6 ) ;
#200 = DIRECTION ( 'NONE',  ( 0.0000000000000000000, 1.000000000000000000, 0.0000000000000000000 ) ) ;
#201 = VERTEX_POINT ( 'NONE', #177 ) ;
#202 = CC_DESIGN_APPROVAL ( #15, ( #270 ) ) ;
#203 = EDGE_LOOP ( 'NONE', ( #124 ) ) ;
#204 =( LENGTH_UNIT ( ) NAMED_UNIT ( * ) SI_UNIT ( .MILLI., .METRE. ) );
#205 = ADVANCED_FACE ( 'NONE', ( #171, #244 ), #160, .T. ) ;
#206 = CYLINDRICAL_SURFACE ( 'NONE', #106, 1.500000000000000000 ) ;
#207 = CALENDAR_DATE ( 2021, 3, 12 ) ;
#208 = ORIENTED_EDGE ( 'NONE', *, *, #46, .T. ) ;
#209 = CC_DESIGN_APPROVAL ( #272, ( #255 ) ) ;
#210 = VERTEX_POINT ( 'NONE', #265 ) ;
#211 = CC_DESIGN_DATE_AND_TIME_ASSIGNMENT ( #29, #8, ( #270 ) ) ;
#212 = DIRECTION ( 'NONE',  ( 0.0000000000000000000, 0.0000000000000000000, 1.000000000000000000 ) ) ;
#213 = DIRECTION ( 'NONE',  ( -3.491481338843133355E-15, 1.224646799147353207E-16, -1.000000000000000000 ) ) ;
#214 = APPROVAL_STATUS ( 'not_yet_approved' ) ;
#215 = DIRECTION ( 'NONE',  ( 3.489354422748178188E-15, 0.03489949670250172553, 0.9993908270190956511 ) ) ;
#216 = CARTESIAN_POINT ( 'NONE',  ( 1.396592535537253342E-14, -4.898587196589412829E-16, 4.000000000000000000 ) ) ;
#217 = DIRECTION ( 'NONE',  ( -3.491481338843133355E-15, 1.224646799147353207E-16, -1.000000000000000000 ) ) ;
#218 = TOROIDAL_SURFACE ( 'NONE', #57, 1.465079230508251396, 1.000000000000000222 ) ;
#219 = DIRECTION ( 'NONE',  ( -3.491481338843133355E-15, 1.224646799147353207E-16, -1.000000000000000000 ) ) ;
#220 = CC_DESIGN_APPROVAL ( #179, ( #194 ) ) ;
#221 = AXIS2_PLACEMENT_3D ( 'NONE', #169, #170, #59 ) ;
#222 = DIRECTION ( 'NONE',  ( -4.275831445896958607E-31, -1.000000000000000000, -1.224646799147353207E-16 ) ) ;
#223 = VERTEX_POINT ( 'NONE', #90 ) ;
#224 = FACE_OUTER_BOUND ( 'NONE', #231, .T. ) ;
#225 = AXIS2_PLACEMENT_3D ( 'NONE', #166, #195, #58 ) ;
#226 = EDGE_CURVE ( 'NONE', #201, #201, #138, .T. ) ;
#227 =( NAMED_UNIT ( * ) SI_UNIT ( $, .STERADIAN. ) SOLID_ANGLE_UNIT ( ) );
#228 = FACE_OUTER_BOUND ( 'NONE', #142, .T. ) ;
#229 = ORIENTED_EDGE ( 'NONE', *, *, #226, .T. ) ;
#230 = DATE_TIME_ROLE ( 'classification_date' ) ;
#231 = EDGE_LOOP ( 'NONE', ( #97 ) ) ;
#232 = ADVANCED_FACE ( 'NONE', ( #154 ), #173, .F. ) ;
#233 = CC_DESIGN_SECURITY_CLASSIFICATION ( #255, ( #194 ) ) ;
#234 = CLOSED_SHELL ( 'NONE', ( #296, #93, #260, #131 ) ) ;
#235 = ORIENTED_EDGE ( 'NONE', *, *, #54, .F. ) ;
#236 = PERSON_AND_ORGANIZATION_ROLE ( 'creator' ) ;
#237 = DIRECTION ( 'NONE',  ( -3.491481338843133355E-15, 1.224646799147353207E-16, -1.000000000000000000 ) ) ;
#238 = CALENDAR_DATE ( 2021, 3, 12 ) ;
#239 = CARTESIAN_POINT ( 'NONE',  ( 1.396592535537253342E-14, -4.336808689942017736E-16, 4.000000000000000000 ) ) ;
#240 = CIRCLE ( 'NONE', #65, 1.500000000000005107 ) ;
#241 = CC_DESIGN_PERSON_AND_ORGANIZATION_ASSIGNMENT ( #163, #120, ( #86 ) ) ;
#242 = FACE_OUTER_BOUND ( 'NONE', #22, .T. ) ;
#243 = PLANE ( 'NONE',  #257 ) ;
#244 = FACE_BOUND ( 'NONE', #155, .T. ) ;
#245 = AXIS2_PLACEMENT_3D ( 'NONE', #36, #111, #222 ) ;
#246 = ORIENTED_EDGE ( 'NONE', *, *, #277, .T. ) ;
#247 = FACE_OUTER_BOUND ( 'NONE', #188, .T. ) ;
#248 = ORIENTED_EDGE ( 'NONE', *, *, #192, .T. ) ;
#249 = AXIS2_PLACEMENT_3D ( 'NONE', #80, #212, #182 ) ;
#250 = AXIS2_PLACEMENT_3D ( 'NONE', #216, #12, #292 ) ;
#251 = CLOSED_SHELL ( 'NONE', ( #232, #76, #70, #39, #28, #205, #126 ) ) ;
#252 = LINE ( 'NONE', #66, #109 ) ;
#253 = DIRECTION ( 'NONE',  ( -3.491481338843133355E-15, 1.224646799147353207E-16, -1.000000000000000000 ) ) ;
#254 = ORIENTED_EDGE ( 'NONE', *, *, #158, .T. ) ;
#255 = SECURITY_CLASSIFICATION ( '', '', #48 ) ;
#256 = AXIS2_PLACEMENT_3D ( 'NONE', #290, #84, #145 ) ;
#257 = AXIS2_PLACEMENT_3D ( 'NONE', #82, #102, #193 ) ;
#258 = ORIENTED_EDGE ( 'NONE', *, *, #11, .F. ) ;
#259 = COORDINATED_UNIVERSAL_TIME_OFFSET ( 1, 0, .AHEAD. ) ;
#260 = ADVANCED_FACE ( 'NONE', ( #247 ), #134, .T. ) ;
#261 = EDGE_LOOP ( 'NONE', ( #235 ) ) ;
#262 = ORIENTED_EDGE ( 'NONE', *, *, #89, .F. ) ;
#263 = CONICAL_SURFACE ( 'NONE', #225, 0.5000000000000000000, 0.03490658503988747219 ) ;
#264 = APPLICATION_PROTOCOL_DEFINITION ( 'international standard', 'config_control_design', 1994, #60 ) ;
#265 = CARTESIAN_POINT ( 'NONE',  ( -4.275831445896957731E-31, -0.5000000000000000000, -1.224646799147353207E-16 ) ) ;
#266 = PERSON_AND_ORGANIZATION_ROLE ( 'design_supplier' ) ;
#267 = APPROVAL_DATE_TIME ( #101, #179 ) ;
#268 = AXIS2_PLACEMENT_3D ( 'NONE', #161, #136, #77 ) ;
#269 = LINE ( 'NONE', #132, #295 ) ;
#270 = PRODUCT_DEFINITION ( 'UNKNOWN', '', #194, #34 ) ;
#271 = ORIENTED_EDGE ( 'NONE', *, *, #146, .T. ) ;
#272 = APPROVAL ( #187, 'UNSPECIFIED' ) ;
#273 = AXIS2_PLACEMENT_3D ( 'NONE', #283, #253, #42 ) ;
#274 = PRODUCT_RELATED_PRODUCT_CATEGORY ( 'detail', '', ( #86 ) ) ;
#275 = VERTEX_POINT ( 'NONE', #113 ) ;
#276 = DIRECTION ( 'NONE',  ( 4.275831445896959482E-31, 1.000000000000000000, 1.224646799147353207E-16 ) ) ;
#277 = EDGE_CURVE ( 'NONE', #67, #67, #240, .T. ) ;
#278 = FACE_OUTER_BOUND ( 'NONE', #183, .T. ) ;
#279 = ORIENTED_EDGE ( 'NONE', *, *, #107, .T. ) ;
#280 = DATE_AND_TIME ( #207, #56 ) ;
#281 = CARTESIAN_POINT ( 'NONE',  ( 0.0000000000000000000, 0.0000000000000000000, 0.0000000000000000000 ) ) ;
#282 = COORDINATED_UNIVERSAL_TIME_OFFSET ( 1, 0, .AHEAD. ) ;
#283 = CARTESIAN_POINT ( 'NONE',  ( 1.571166602479410957E-14, -5.510910596163092514E-16, 4.500000000000002665 ) ) ;
#284 = MANIFOLD_SOLID_BREP ( 'Corps-Déplacer/Copier1[1]', #251 ) ;
#285 = COORDINATED_UNIVERSAL_TIME_OFFSET ( 1, 0, .AHEAD. ) ;
#286 = CYLINDRICAL_SURFACE ( 'NONE', #221, 0.4650792305082514511 ) ;
#287 = EDGE_CURVE ( 'NONE', #210, #275, #44, .T. ) ;
#288 = SHAPE_DEFINITION_REPRESENTATION ( #112, #119 ) ;
#289 = DIRECTION ( 'NONE',  ( 4.275831445896958607E-31, 1.000000000000000000, 1.224646799147353207E-16 ) ) ;
#290 = CARTESIAN_POINT ( 'NONE',  ( 1.606081415867841091E-13, -5.633375276077824704E-15, 46.00000000000000000 ) ) ;
#291 = CIRCLE ( 'NONE', #273, 0.5990538267238136871 ) ;
#292 = DIRECTION ( 'NONE',  ( 0.0000000000000000000, 1.000000000000000000, 0.0000000000000000000 ) ) ;
#293 = FACE_OUTER_BOUND ( 'NONE', #37, .T. ) ;
#294 = AXIS2_PLACEMENT_3D ( 'NONE', #35, #217, #14 ) ;
#295 = VECTOR ( 'NONE', #191, 1000.000000000000000 ) ;
#296 = ADVANCED_FACE ( 'NONE', ( #278 ), #185, .T. ) ;
#297 = DIRECTION ( 'NONE',  ( 4.275831445896958607E-31, 1.000000000000000000, 1.224646799147353207E-16 ) ) ;
#298 = CARTESIAN_POINT ( 'NONE',  ( 3.491481338843133355E-15, 3.487535628337993633E-33, 1.000000000000000000 ) ) ;
#299 = EDGE_LOOP ( 'NONE', ( #246 ) ) ;
#300 = EDGE_CURVE ( 'NONE', #19, #275, #252, .T. ) ;
#301 = DATE_AND_TIME ( #53, #25 ) ;
ENDSEC;
END-ISO-10303-21;
