ISO-10303-21;
HEADER;
FILE_DESCRIPTION (( 'STEP AP203' ),
    '1' );
FILE_NAME ('997970.step',
    '2021-12-03T14:05:32',
    ( '' ),
    ( '' ),
    'SwSTEP 2.0',
    'SolidWorks 2019',
    '' );
FILE_SCHEMA (( 'CONFIG_CONTROL_DESIGN' ));
ENDSEC;

DATA;
#1 = LOCAL_TIME ( 15, 5, 32.00000000000000000, #264 ) ;
#2 = CARTESIAN_POINT ( 'NONE',  ( 1.766858736135139516E-14, 1.499999999999994449, 5.060484546999097333 ) ) ;
#3 = ADVANCED_FACE ( 'NONE', ( #15, #146 ), #197, .T. ) ;
#4 = AXIS2_PLACEMENT_3D ( 'NONE', #174, #242, #195 ) ;
#5 = LINE ( 'NONE', #77, #120 ) ;
#6 = CIRCLE ( 'NONE', #79, 0.4650792305082514511 ) ;
#7 = PRODUCT_DEFINITION_SHAPE ( 'NONE', 'NONE',  #32 ) ;
#8 = ORIENTED_EDGE ( 'NONE', *, *, #151, .F. ) ;
#9 = DIRECTION ( 'NONE',  ( -3.491481338843133355E-15, 0.0000000000000000000, -1.000000000000000000 ) ) ;
#10 = APPROVAL_ROLE ( '' ) ;
#11 = EDGE_LOOP ( 'NONE', ( #183 ) ) ;
#12 = CARTESIAN_POINT ( 'NONE',  ( 1.047444401652940007E-14, -3.673940397442059868E-16, 3.000000000000000000 ) ) ;
#13 = CYLINDRICAL_SURFACE ( 'NONE', #4, 1.500000000000000000 ) ;
#14 = SECURITY_CLASSIFICATION_LEVEL ( 'unclassified' ) ;
#15 = FACE_OUTER_BOUND ( 'NONE', #52, .T. ) ;
#16 = AXIS2_PLACEMENT_3D ( 'NONE', #289, #292, #85 ) ;
#17 = APPROVAL_STATUS ( 'not_yet_approved' ) ;
#18 = ADVANCED_FACE ( 'NONE', ( #192, #82 ), #13, .T. ) ;
#19 = CARTESIAN_POINT ( 'NONE',  ( 1.595606971851311880E-13, 1.499999999999999334, 45.69999999999999574 ) ) ;
#20 = DIRECTION ( 'NONE',  ( -3.491481338843133355E-15, 1.224646799147353207E-16, -1.000000000000000000 ) ) ;
#21 = LINE ( 'NONE', #49, #95 ) ;
#22 = EDGE_CURVE ( 'NONE', #209, #209, #69, .T. ) ;
#23 = CARTESIAN_POINT ( 'NONE',  ( 1.766858736135139516E-14, -6.197306202617088466E-16, 5.060484546999097333 ) ) ;
#24 = LOCAL_TIME ( 15, 5, 32.00000000000000000, #84 ) ;
#25 = VERTEX_POINT ( 'NONE', #228 ) ;
#26 = CARTESIAN_POINT ( 'NONE',  ( 0.0000000000000000000, 0.5000000000000000000, 0.0000000000000000000 ) ) ;
#27 = ADVANCED_FACE ( 'NONE', ( #164 ), #232, .T. ) ;
#28 = AXIS2_PLACEMENT_3D ( 'NONE', #92, #280, #116 ) ;
#29 = DIRECTION ( 'NONE',  ( -3.491481338843133355E-15, 1.224646799147353207E-16, -1.000000000000000000 ) ) ;
#30 = VERTEX_POINT ( 'NONE', #169 ) ;
#31 = PLANE ( 'NONE',  #115 ) ;
#32 = PRODUCT_DEFINITION ( 'UNKNOWN', '', #179, #67 ) ;
#33 = COORDINATED_UNIVERSAL_TIME_OFFSET ( 1, 0, .AHEAD. ) ;
#34 = EDGE_LOOP ( 'NONE', ( #294 ) ) ;
#35 = CALENDAR_DATE ( 2021, 3, 12 ) ;
#36 = DIRECTION ( 'NONE',  ( 0.0000000000000000000, -1.000000000000000000, 0.0000000000000000000 ) ) ;
#37 = CIRCLE ( 'NONE', #206, 1.200000000000005063 ) ;
#38 = PERSON_AND_ORGANIZATION ( #50, #141 ) ;
#39 = MANIFOLD_SOLID_BREP ( 'Corps-Déplacer/Copier1[1]', #127 ) ;
#40 = CC_DESIGN_APPROVAL ( #282, ( #32 ) ) ;
#41 = MANIFOLD_SOLID_BREP ( 'Corps-Déplacer/Copier1[2]', #211 ) ;
#42 = CARTESIAN_POINT ( 'NONE',  ( 1.606081415867841091E-13, 8.998558695971099120E-33, 46.00000000000000000 ) ) ;
#43 = FACE_OUTER_BOUND ( 'NONE', #34, .T. ) ;
#44 = LOCAL_TIME ( 15, 5, 32.00000000000000000, #241 ) ;
#45 = CARTESIAN_POINT ( 'NONE',  ( 0.0000000000000000000, 0.0000000000000000000, 0.0000000000000000000 ) ) ;
#46 = ADVANCED_FACE ( 'NONE', ( #240 ), #285, .T. ) ;
#47 = APPROVAL ( #112, 'UNSPECIFIED' ) ;
#48 = DIRECTION ( 'NONE',  ( -3.491481338843133355E-15, 1.224646799147353207E-16, -1.000000000000000000 ) ) ;
#49 = CARTESIAN_POINT ( 'NONE',  ( 3.491481338843133355E-15, 3.487535628337995001E-33, 1.000000000000000000 ) ) ;
#50 = PERSON ( 'UNSPECIFIED', 'UNSPECIFIED', 'UNSPECIFIED', ('UNSPECIFIED'), ('UNSPECIFIED'), ('UNSPECIFIED') ) ;
#51 = ORIENTED_EDGE ( 'NONE', *, *, #22, .F. ) ;
#52 = EDGE_LOOP ( 'NONE', ( #124 ) ) ;
#53 = DIRECTION ( 'NONE',  ( -4.275831445896958607E-31, -1.000000000000000000, -1.224646799147353207E-16 ) ) ;
#54 = LOCAL_TIME ( 15, 5, 32.00000000000000000, #103 ) ;
#55 = AXIS2_PLACEMENT_3D ( 'NONE', #229, #276, #226 ) ;
#56 = EDGE_CURVE ( 'NONE', #70, #70, #37, .T. ) ;
#57 = EDGE_LOOP ( 'NONE', ( #62, #122, #65, #265 ) ) ;
#58 = DIRECTION ( 'NONE',  ( 4.275831445896958607E-31, 1.000000000000000000, 1.224646799147353207E-16 ) ) ;
#59 = PERSON_AND_ORGANIZATION ( #50, #141 ) ;
#60 = PLANE ( 'NONE',  #55 ) ;
#61 = CALENDAR_DATE ( 2021, 3, 12 ) ;
#62 = ORIENTED_EDGE ( 'NONE', *, *, #159, .F. ) ;
#63 = AXIS2_PLACEMENT_3D ( 'NONE', #187, #290, #83 ) ;
#64 = DATE_AND_TIME ( #86, #54 ) ;
#65 = ORIENTED_EDGE ( 'NONE', *, *, #214, .F. ) ;
#66 = APPLICATION_PROTOCOL_DEFINITION ( 'international standard', 'config_control_design', 1994, #252 ) ;
#67 = DESIGN_CONTEXT ( 'detailed design', #252, 'design' ) ;
#68 = CIRCLE ( 'NONE', #28, 0.4650792305082514511 ) ;
#69 = CIRCLE ( 'NONE', #16, 0.5990538267238133541 ) ;
#70 = VERTEX_POINT ( 'NONE', #277 ) ;
#71 = CARTESIAN_POINT ( 'NONE',  ( 1.606081415867841091E-13, -5.633375276077824704E-15, 46.00000000000000000 ) ) ;
#72 = CONICAL_SURFACE ( 'NONE', #246, 1.200000000000005063, 0.7853981633974453924 ) ;
#73 = CARTESIAN_POINT ( 'NONE',  ( 1.047444401652940007E-14, -4.336808689942017736E-16, 3.000000000000000000 ) ) ;
#74 =( NAMED_UNIT ( * ) PLANE_ANGLE_UNIT ( ) SI_UNIT ( $, .RADIAN. ) );
#75 = ORIENTED_EDGE ( 'NONE', *, *, #159, .T. ) ;
#76 = EDGE_LOOP ( 'NONE', ( #51 ) ) ;
#77 = CARTESIAN_POINT ( 'NONE',  ( 4.999147197584144738E-14, -1.753464796124732855E-15, 14.31812664145746439 ) ) ;
#78 = EDGE_CURVE ( 'NONE', #283, #236, #258, .T. ) ;
#79 = AXIS2_PLACEMENT_3D ( 'NONE', #99, #185, #161 ) ;
#80 = ORIENTED_EDGE ( 'NONE', *, *, #97, .F. ) ;
#81 = DATE_AND_TIME ( #61, #1 ) ;
#82 = FACE_OUTER_BOUND ( 'NONE', #11, .T. ) ;
#83 = DIRECTION ( 'NONE',  ( 4.275831445896958607E-31, 1.000000000000000000, 1.224646799147353207E-16 ) ) ;
#84 = COORDINATED_UNIVERSAL_TIME_OFFSET ( 1, 0, .AHEAD. ) ;
#85 = DIRECTION ( 'NONE',  ( 0.0000000000000000000, 1.000000000000000000, 0.0000000000000000000 ) ) ;
#86 = CALENDAR_DATE ( 2021, 3, 12 ) ;
#87 = ADVANCED_FACE ( 'NONE', ( #106 ), #31, .T. ) ;
#88 = ORIENTED_EDGE ( 'NONE', *, *, #97, .T. ) ;
#89 = APPROVAL_PERSON_ORGANIZATION ( #59, #282, #107 ) ;
#90 = CC_DESIGN_PERSON_AND_ORGANIZATION_ASSIGNMENT ( #167, #109, ( #191 ) ) ;
#91 = DIRECTION ( 'NONE',  ( -3.491481338843133355E-15, 1.224646799147353207E-16, -1.000000000000000000 ) ) ;
#92 = CARTESIAN_POINT ( 'NONE',  ( 3.491481338843133355E-15, -1.224646799147353207E-16, 1.000000000000000000 ) ) ;
#93 = FACE_BOUND ( 'NONE', #150, .T. ) ;
#94 = PRODUCT_RELATED_PRODUCT_CATEGORY ( 'detail', '', ( #191 ) ) ;
#95 = VECTOR ( 'NONE', #281, 1000.000000000000000 ) ;
#96 = VERTEX_POINT ( 'NONE', #19 ) ;
#97 = EDGE_CURVE ( 'NONE', #25, #25, #286, .T. ) ;
#98 = EDGE_LOOP ( 'NONE', ( #220 ) ) ;
#99 = CARTESIAN_POINT ( 'NONE',  ( 3.491481338843133355E-15, -1.224646799147353207E-16, 1.000000000000000000 ) ) ;
#100 = CC_DESIGN_PERSON_AND_ORGANIZATION_ASSIGNMENT ( #125, #145, ( #32 ) ) ;
#101 = CARTESIAN_POINT ( 'NONE',  ( 3.491481338843133355E-15, 3.487535628337995001E-33, 1.000000000000000000 ) ) ;
#102 = DIRECTION ( 'NONE',  ( 0.0000000000000000000, 1.000000000000000000, 0.0000000000000000000 ) ) ;
#103 = COORDINATED_UNIVERSAL_TIME_OFFSET ( 1, 0, .AHEAD. ) ;
#104 = AXIS2_PLACEMENT_3D ( 'NONE', #178, #48, #207 ) ;
#105 = EDGE_LOOP ( 'NONE', ( #215, #222 ) ) ;
#106 = FACE_OUTER_BOUND ( 'NONE', #166, .T. ) ;
#107 = APPROVAL_ROLE ( '' ) ;
#108 = ORIENTED_EDGE ( 'NONE', *, *, #78, .T. ) ;
#109 = PERSON_AND_ORGANIZATION_ROLE ( 'design_owner' ) ;
#110 = EDGE_LOOP ( 'NONE', ( #143 ) ) ;
#111 = ADVANCED_FACE ( 'NONE', ( #193 ), #130, .T. ) ;
#112 = APPROVAL_STATUS ( 'not_yet_approved' ) ;
#113 = APPLICATION_PROTOCOL_DEFINITION ( 'international standard', 'config_control_design', 1994, #266 ) ;
#114 = FACE_OUTER_BOUND ( 'NONE', #262, .T. ) ;
#115 = AXIS2_PLACEMENT_3D ( 'NONE', #287, #263, #58 ) ;
#116 = DIRECTION ( 'NONE',  ( 0.0000000000000000000, 1.000000000000000000, 0.0000000000000000000 ) ) ;
#117 = SECURITY_CLASSIFICATION ( '', '', #14 ) ;
#118 =( NAMED_UNIT ( * ) SI_UNIT ( $, .STERADIAN. ) SOLID_ANGLE_UNIT ( ) );
#119 = CARTESIAN_POINT ( 'NONE',  ( 3.491481338843133355E-15, 0.4650792305082513400, 1.000000000000000000 ) ) ;
#120 = VECTOR ( 'NONE', #139, 1000.000000000000227 ) ;
#121 = ORIENTED_EDGE ( 'NONE', *, *, #151, .T. ) ;
#122 = ORIENTED_EDGE ( 'NONE', *, *, #181, .F. ) ;
#123 = PERSON_AND_ORGANIZATION_ROLE ( 'classification_officer' ) ;
#124 = ORIENTED_EDGE ( 'NONE', *, *, #245, .T. ) ;
#125 = PERSON_AND_ORGANIZATION ( #50, #141 ) ;
#126 = EDGE_LOOP ( 'NONE', ( #254 ) ) ;
#127 = CLOSED_SHELL ( 'NONE', ( #129, #205, #234, #3, #18, #135, #147 ) ) ;
#128 = DATE_AND_TIME ( #35, #44 ) ;
#129 = ADVANCED_FACE ( 'NONE', ( #267 ), #60, .F. ) ;
#130 = CONICAL_SURFACE ( 'NONE', #63, 0.5000000000000000000, 0.03490658503988741668 ) ;
#131 = DIRECTION ( 'NONE',  ( -3.491481338843133355E-15, 1.224646799147353207E-16, -1.000000000000000000 ) ) ;
#132 = DIRECTION ( 'NONE',  ( -3.491481338843133355E-15, 1.224646799147353207E-16, -1.000000000000000000 ) ) ;
#133 = CARTESIAN_POINT ( 'NONE',  ( 0.0000000000000000000, 0.0000000000000000000, 0.0000000000000000000 ) ) ;
#134 = DIRECTION ( 'NONE',  ( 1.000000000000000000, 0.0000000000000000000, 0.0000000000000000000 ) ) ;
#135 = ADVANCED_FACE ( 'NONE', ( #155, #93 ), #72, .T. ) ;
#136 = EDGE_LOOP ( 'NONE', ( #88 ) ) ;
#137 = ORIENTED_EDGE ( 'NONE', *, *, #245, .F. ) ;
#138 = DIRECTION ( 'NONE',  ( 1.000000000000000000, 0.0000000000000000000, -3.491481338843133355E-15 ) ) ;
#139 = DIRECTION ( 'NONE',  ( -3.489354422748178188E-15, 0.03489949670250191982, -0.9993908270190956511 ) ) ;
#140 = APPROVAL ( #17, 'UNSPECIFIED' ) ;
#141 = ORGANIZATION ( 'UNSPECIFIED', 'UNSPECIFIED', '' ) ;
#142 = CC_DESIGN_APPROVAL ( #140, ( #179 ) ) ;
#143 = ORIENTED_EDGE ( 'NONE', *, *, #273, .F. ) ;
#144 = CARTESIAN_POINT ( 'NONE',  ( 4.999147197584144738E-14, -1.753464796124732855E-15, 14.31812664145746439 ) ) ;
#145 = PERSON_AND_ORGANIZATION_ROLE ( 'creator' ) ;
#146 = FACE_BOUND ( 'NONE', #76, .T. ) ;
#147 = ADVANCED_FACE ( 'NONE', ( #157 ), #247, .F. ) ;
#148 = PERSON_AND_ORGANIZATION ( #50, #141 ) ;
#149 = ORIENTED_EDGE ( 'NONE', *, *, #297, .F. ) ;
#150 = EDGE_LOOP ( 'NONE', ( #255 ) ) ;
#151 = EDGE_CURVE ( 'NONE', #283, #30, #296, .T. ) ;
#152 = AXIS2_PLACEMENT_3D ( 'NONE', #12, #260, #102 ) ;
#153 = CC_DESIGN_SECURITY_CLASSIFICATION ( #117, ( #179 ) ) ;
#154 = ADVANCED_BREP_SHAPE_REPRESENTATION ( '997970', ( #39, #41, #227 ), #261 ) ;
#155 = FACE_OUTER_BOUND ( 'NONE', #269, .T. ) ;
#156 = VERTEX_POINT ( 'NONE', #275 ) ;
#157 = FACE_OUTER_BOUND ( 'NONE', #98, .T. ) ;
#158 = DIRECTION ( 'NONE',  ( 0.0000000000000000000, 1.000000000000000000, 0.0000000000000000000 ) ) ;
#159 = EDGE_CURVE ( 'NONE', #30, #283, #212, .T. ) ;
#160 = ORIENTED_EDGE ( 'NONE', *, *, #181, .T. ) ;
#161 = DIRECTION ( 'NONE',  ( 0.0000000000000000000, 1.000000000000000000, 0.0000000000000000000 ) ) ;
#162 = DIRECTION ( 'NONE',  ( 0.0000000000000000000, 1.000000000000000000, 0.0000000000000000000 ) ) ;
#163 = AXIS2_PLACEMENT_3D ( 'NONE', #216, #138, #9 ) ;
#164 = FACE_OUTER_BOUND ( 'NONE', #105, .T. ) ;
#165 = TOROIDAL_SURFACE ( 'NONE', #233, 1.465079230508251618, 1.000000000000000000 ) ;
#166 = EDGE_LOOP ( 'NONE', ( #121, #75 ) ) ;
#167 = PERSON_AND_ORGANIZATION ( #50, #141 ) ;
#168 = ORIENTED_EDGE ( 'NONE', *, *, #188, .T. ) ;
#169 = CARTESIAN_POINT ( 'NONE',  ( 0.0000000000000000000, 0.5000000000000000000, 0.0000000000000000000 ) ) ;
#170 = APPROVAL_ROLE ( '' ) ;
#171 = AXIS2_PLACEMENT_3D ( 'NONE', #198, #239, #36 ) ;
#172 = VERTEX_POINT ( 'NONE', #119 ) ;
#173 = APPROVAL_DATE_TIME ( #64, #47 ) ;
#174 = CARTESIAN_POINT ( 'NONE',  ( 0.0000000000000000000, 0.0000000000000000000, 0.0000000000000000000 ) ) ;
#175 = CYLINDRICAL_SURFACE ( 'NONE', #213, 0.4650792305082514511 ) ;
#176 = PERSON_AND_ORGANIZATION_ROLE ( 'creator' ) ;
#177 = CC_DESIGN_DATE_AND_TIME_ASSIGNMENT ( #268, #272, ( #32 ) ) ;
#178 = CARTESIAN_POINT ( 'NONE',  ( 1.595606971851311880E-13, -5.596635872103403844E-15, 45.69999999999999574 ) ) ;
#179 = PRODUCT_DEFINITION_FORMATION_WITH_SPECIFIED_SOURCE ( 'ANY', '', #191, .NOT_KNOWN. ) ;
#180 =( LENGTH_UNIT ( ) NAMED_UNIT ( * ) SI_UNIT ( .MILLI., .METRE. ) );
#181 = EDGE_CURVE ( 'NONE', #172, #30, #5, .T. ) ;
#182 = EDGE_LOOP ( 'NONE', ( #137 ) ) ;
#183 = ORIENTED_EDGE ( 'NONE', *, *, #297, .T. ) ;
#184 = CIRCLE ( 'NONE', #210, 1.499999999999995115 ) ;
#185 = DIRECTION ( 'NONE',  ( -3.491481338843133355E-15, 1.224646799147353207E-16, -1.000000000000000000 ) ) ;
#186 = DIRECTION ( 'NONE',  ( 3.491481338843133355E-15, -1.224646799147353207E-16, 1.000000000000000000 ) ) ;
#187 = CARTESIAN_POINT ( 'NONE',  ( -2.137915722948478865E-31, 7.498798913309288039E-33, -6.123233995736766036E-17 ) ) ;
#188 = EDGE_CURVE ( 'NONE', #236, #172, #6, .T. ) ;
#189 = SHAPE_DEFINITION_REPRESENTATION ( #7, #154 ) ;
#190 = VECTOR ( 'NONE', #53, 1000.000000000000000 ) ;
#191 = PRODUCT ( '997970', '997970', '', ( #238 ) ) ;
#192 = FACE_OUTER_BOUND ( 'NONE', #182, .T. ) ;
#193 = FACE_OUTER_BOUND ( 'NONE', #271, .T. ) ;
#194 = CALENDAR_DATE ( 2021, 3, 12 ) ;
#195 = DIRECTION ( 'NONE',  ( 4.275831445896959482E-31, 1.000000000000000000, 1.224646799147353207E-16 ) ) ;
#196 = APPROVAL_DATE_TIME ( #219, #140 ) ;
#197 = CONICAL_SURFACE ( 'NONE', #171, 0.5990538267238133541, 0.5235987755982998149 ) ;
#198 = CARTESIAN_POINT ( 'NONE',  ( 1.222018468595096990E-14, -4.286263797015737088E-16, 3.500000000000000888 ) ) ;
#199 = FACE_OUTER_BOUND ( 'NONE', #110, .T. ) ;
#200 = CC_DESIGN_PERSON_AND_ORGANIZATION_ASSIGNMENT ( #291, #176, ( #179 ) ) ;
#201 = CIRCLE ( 'NONE', #104, 1.500000000000005107 ) ;
#202 = APPROVAL_STATUS ( 'not_yet_approved' ) ;
#203 = DIRECTION ( 'NONE',  ( 4.275831445896958607E-31, 1.000000000000000000, 1.224646799147353207E-16 ) ) ;
#204 = DIRECTION ( 'NONE',  ( 0.0000000000000000000, 0.0000000000000000000, 1.000000000000000000 ) ) ;
#205 = ADVANCED_FACE ( 'NONE', ( #284, #199 ), #175, .T. ) ;
#206 = AXIS2_PLACEMENT_3D ( 'NONE', #218, #29, #162 ) ;
#207 = DIRECTION ( 'NONE',  ( 0.0000000000000000000, 1.000000000000000000, 0.0000000000000000000 ) ) ;
#208 = CC_DESIGN_PERSON_AND_ORGANIZATION_ASSIGNMENT ( #243, #123, ( #117 ) ) ;
#209 = VERTEX_POINT ( 'NONE', #253 ) ;
#210 = AXIS2_PLACEMENT_3D ( 'NONE', #23, #248, #158 ) ;
#211 = CLOSED_SHELL ( 'NONE', ( #87, #111, #27, #46 ) ) ;
#212 = LINE ( 'NONE', #26, #190 ) ;
#213 = AXIS2_PLACEMENT_3D ( 'NONE', #133, #300, #230 ) ;
#214 = EDGE_CURVE ( 'NONE', #236, #172, #21, .T. ) ;
#215 = ORIENTED_EDGE ( 'NONE', *, *, #188, .F. ) ;
#216 = CARTESIAN_POINT ( 'NONE',  ( 0.0000000000000000000, 0.0000000000000000000, 0.0000000000000000000 ) ) ;
#217 = CALENDAR_DATE ( 2021, 3, 12 ) ;
#218 = CARTESIAN_POINT ( 'NONE',  ( 1.606081415867841091E-13, -5.633375276077824704E-15, 46.00000000000000000 ) ) ;
#219 = DATE_AND_TIME ( #217, #24 ) ;
#220 = ORIENTED_EDGE ( 'NONE', *, *, #56, .F. ) ;
#221 = DATE_TIME_ROLE ( 'classification_date' ) ;
#222 = ORIENTED_EDGE ( 'NONE', *, *, #214, .T. ) ;
#223 = PERSON_AND_ORGANIZATION_ROLE ( 'design_supplier' ) ;
#224 = APPROVAL_DATE_TIME ( #81, #282 ) ;
#225 = AXIS2_PLACEMENT_3D ( 'NONE', #299, #91, #256 ) ;
#226 = DIRECTION ( 'NONE',  ( -4.275831445896958607E-31, -1.000000000000000000, -1.224646799147353207E-16 ) ) ;
#227 = AXIS2_PLACEMENT_3D ( 'NONE', #45, #204, #134 ) ;
#228 = CARTESIAN_POINT ( 'NONE',  ( 1.047444401652940007E-14, 0.4650792305082511180, 3.000000000000000000 ) ) ;
#229 = CARTESIAN_POINT ( 'NONE',  ( 3.491481338843133355E-15, 3.487535628337995001E-33, 1.000000000000000000 ) ) ;
#230 = DIRECTION ( 'NONE',  ( 4.275831445896958607E-31, 1.000000000000000000, 1.224646799147353207E-16 ) ) ;
#231 = CARTESIAN_POINT ( 'NONE',  ( 3.491481338843132566E-15, -0.4650792305082515621, 0.9999999999999997780 ) ) ;
#232 = PLANE ( 'NONE',  #257 ) ;
#233 = AXIS2_PLACEMENT_3D ( 'NONE', #73, #131, #298 ) ;
#234 = ADVANCED_FACE ( 'NONE', ( #43, #114 ), #165, .F. ) ;
#235 = DIRECTION ( 'NONE',  ( -4.275831445896958607E-31, -1.000000000000000000, -1.224646799147353207E-16 ) ) ;
#236 = VERTEX_POINT ( 'NONE', #231 ) ;
#237 = DIRECTION ( 'NONE',  ( 3.489354422748178188E-15, 0.03489949670250167002, 0.9993908270190956511 ) ) ;
#238 = MECHANICAL_CONTEXT ( 'NONE', #266, 'mechanical' ) ;
#239 = DIRECTION ( 'NONE',  ( 3.491481338843133355E-15, -1.224646799147353207E-16, 1.000000000000000000 ) ) ;
#240 = FACE_OUTER_BOUND ( 'NONE', #57, .T. ) ;
#241 = COORDINATED_UNIVERSAL_TIME_OFFSET ( 1, 0, .AHEAD. ) ;
#242 = DIRECTION ( 'NONE',  ( -3.491481338843133355E-15, 1.224646799147353207E-16, -1.000000000000000000 ) ) ;
#243 = PERSON_AND_ORGANIZATION ( #50, #141 ) ;
#244 = VECTOR ( 'NONE', #237, 1000.000000000000227 ) ;
#245 = EDGE_CURVE ( 'NONE', #301, #301, #184, .T. ) ;
#246 = AXIS2_PLACEMENT_3D ( 'NONE', #71, #20, #249 ) ;
#247 = PLANE ( 'NONE',  #278 ) ;
#248 = DIRECTION ( 'NONE',  ( -3.491481338843133355E-15, 1.224646799147353207E-16, -1.000000000000000000 ) ) ;
#249 = DIRECTION ( 'NONE',  ( 0.0000000000000000000, 1.000000000000000000, 0.0000000000000000000 ) ) ;
#250 = CC_DESIGN_APPROVAL ( #47, ( #117 ) ) ;
#251 = CARTESIAN_POINT ( 'NONE',  ( -4.275831445896957731E-31, -0.5000000000000000000, -1.224646799147353207E-16 ) ) ;
#252 = APPLICATION_CONTEXT ( 'configuration controlled 3d designs of mechanical parts and assemblies' ) ;
#253 = CARTESIAN_POINT ( 'NONE',  ( 1.222018468595096990E-14, 0.5990538267238129100, 3.500000000000000888 ) ) ;
#254 = ORIENTED_EDGE ( 'NONE', *, *, #273, .T. ) ;
#255 = ORIENTED_EDGE ( 'NONE', *, *, #56, .T. ) ;
#256 = DIRECTION ( 'NONE',  ( 4.275831445896958607E-31, 1.000000000000000000, 1.224646799147353207E-16 ) ) ;
#257 = AXIS2_PLACEMENT_3D ( 'NONE', #101, #186, #235 ) ;
#258 = LINE ( 'NONE', #144, #244 ) ;
#259 = CC_DESIGN_DATE_AND_TIME_ASSIGNMENT ( #128, #221, ( #117 ) ) ;
#260 = DIRECTION ( 'NONE',  ( -3.491481338843133355E-15, 1.224646799147353207E-16, -1.000000000000000000 ) ) ;
#261 =( GEOMETRIC_REPRESENTATION_CONTEXT ( 3 ) GLOBAL_UNCERTAINTY_ASSIGNED_CONTEXT ( ( #295 ) ) GLOBAL_UNIT_ASSIGNED_CONTEXT ( ( #180, #74, #118 ) ) REPRESENTATION_CONTEXT ( 'NONE', 'WORKASPACE' ) );
#262 = EDGE_LOOP ( 'NONE', ( #80 ) ) ;
#263 = DIRECTION ( 'NONE',  ( -3.491481338843133355E-15, 1.224646799147353207E-16, -1.000000000000000000 ) ) ;
#264 = COORDINATED_UNIVERSAL_TIME_OFFSET ( 1, 0, .AHEAD. ) ;
#265 = ORIENTED_EDGE ( 'NONE', *, *, #78, .F. ) ;
#266 = APPLICATION_CONTEXT ( 'configuration controlled 3d designs of mechanical parts and assemblies' ) ;
#267 = FACE_OUTER_BOUND ( 'NONE', #126, .T. ) ;
#268 = DATE_AND_TIME ( #194, #270 ) ;
#269 = EDGE_LOOP ( 'NONE', ( #149 ) ) ;
#270 = LOCAL_TIME ( 15, 5, 32.00000000000000000, #33 ) ;
#271 = EDGE_LOOP ( 'NONE', ( #8, #108, #168, #160 ) ) ;
#272 = DATE_TIME_ROLE ( 'creation_date' ) ;
#273 = EDGE_CURVE ( 'NONE', #156, #156, #68, .T. ) ;
#274 = CC_DESIGN_PERSON_AND_ORGANIZATION_ASSIGNMENT ( #148, #223, ( #179 ) ) ;
#275 = CARTESIAN_POINT ( 'NONE',  ( 3.491481338843133355E-15, 0.4650792305082513400, 1.000000000000000000 ) ) ;
#276 = DIRECTION ( 'NONE',  ( 3.491481338843133355E-15, -1.224646799147353207E-16, 1.000000000000000000 ) ) ;
#277 = CARTESIAN_POINT ( 'NONE',  ( 1.606081415867841091E-13, 1.199999999999999512, 46.00000000000000000 ) ) ;
#278 = AXIS2_PLACEMENT_3D ( 'NONE', #42, #132, #203 ) ;
#279 = APPROVAL_PERSON_ORGANIZATION ( #38, #140, #170 ) ;
#280 = DIRECTION ( 'NONE',  ( -3.491481338843133355E-15, 1.224646799147353207E-16, -1.000000000000000000 ) ) ;
#281 = DIRECTION ( 'NONE',  ( 4.275831445896958607E-31, 1.000000000000000000, 1.224646799147353207E-16 ) ) ;
#282 = APPROVAL ( #202, 'UNSPECIFIED' ) ;
#283 = VERTEX_POINT ( 'NONE', #251 ) ;
#284 = FACE_OUTER_BOUND ( 'NONE', #136, .T. ) ;
#285 = PLANE ( 'NONE',  #163 ) ;
#286 = CIRCLE ( 'NONE', #152, 0.4650792305082515066 ) ;
#287 = CARTESIAN_POINT ( 'NONE',  ( -1.068957861474239433E-31, 3.749399456654644020E-33, -3.061616997868383018E-17 ) ) ;
#288 = APPROVAL_PERSON_ORGANIZATION ( #293, #47, #10 ) ;
#289 = CARTESIAN_POINT ( 'NONE',  ( 1.222018468595096990E-14, -4.286263797015737088E-16, 3.500000000000000888 ) ) ;
#290 = DIRECTION ( 'NONE',  ( -3.491481338843133355E-15, 1.224646799147353207E-16, -1.000000000000000000 ) ) ;
#291 = PERSON_AND_ORGANIZATION ( #50, #141 ) ;
#292 = DIRECTION ( 'NONE',  ( -3.491481338843133355E-15, 1.224646799147353207E-16, -1.000000000000000000 ) ) ;
#293 = PERSON_AND_ORGANIZATION ( #50, #141 ) ;
#294 = ORIENTED_EDGE ( 'NONE', *, *, #22, .T. ) ;
#295 = UNCERTAINTY_MEASURE_WITH_UNIT (LENGTH_MEASURE( 1.000000000000000082E-05 ), #180, 'distance_accuracy_value', 'NONE');
#296 = CIRCLE ( 'NONE', #225, 0.5000000000000000000 ) ;
#297 = EDGE_CURVE ( 'NONE', #96, #96, #201, .T. ) ;
#298 = DIRECTION ( 'NONE',  ( 4.383557372409204680E-31, 1.000000000000000000, 1.224646799147353207E-16 ) ) ;
#299 = CARTESIAN_POINT ( 'NONE',  ( -2.137915722948478865E-31, 7.498798913309288039E-33, -6.123233995736766036E-17 ) ) ;
#300 = DIRECTION ( 'NONE',  ( -3.491481338843133355E-15, 1.224646799147353207E-16, -1.000000000000000000 ) ) ;
#301 = VERTEX_POINT ( 'NONE', #2 ) ;
ENDSEC;
END-ISO-10303-21;
