ISO-10303-21;
HEADER;
FILE_DESCRIPTION (( 'STEP AP203' ),
    '1' );
FILE_NAME ('997969.step',
    '2021-12-03T14:05:32',
    ( '' ),
    ( '' ),
    'SwSTEP 2.0',
    'SolidWorks 2019',
    '' );
FILE_SCHEMA (( 'CONFIG_CONTROL_DESIGN' ));
ENDSEC;

DATA;
#1 = CARTESIAN_POINT ( 'NONE',  ( 4.999147197584144738E-14, -1.753464796124732855E-15, 14.31812664145746439 ) ) ;
#2 = EDGE_LOOP ( 'NONE', ( #116 ) ) ;
#3 = LOCAL_TIME ( 15, 5, 32.00000000000000000, #33 ) ;
#4 = CARTESIAN_POINT ( 'NONE',  ( 0.0000000000000000000, 0.0000000000000000000, 0.0000000000000000000 ) ) ;
#5 = APPROVAL ( #202, 'UNSPECIFIED' ) ;
#6 = FACE_OUTER_BOUND ( 'NONE', #137, .T. ) ;
#7 = DIRECTION ( 'NONE',  ( 0.0000000000000000000, 0.0000000000000000000, 1.000000000000000000 ) ) ;
#8 = CYLINDRICAL_SURFACE ( 'NONE', #120, 0.4650792305082515066 ) ;
#9 = DATE_AND_TIME ( #35, #3 ) ;
#10 = PRODUCT_DEFINITION_FORMATION_WITH_SPECIFIED_SOURCE ( 'ANY', '', #281, .NOT_KNOWN. ) ;
#11 = DIRECTION ( 'NONE',  ( -4.275831445896958607E-31, -1.000000000000000000, -1.224646799147353207E-16 ) ) ;
#12 = AXIS2_PLACEMENT_3D ( 'NONE', #164, #211, #187 ) ;
#13 = CARTESIAN_POINT ( 'NONE',  ( 0.0000000000000000000, 0.0000000000000000000, 0.0000000000000000000 ) ) ;
#14 = FACE_OUTER_BOUND ( 'NONE', #207, .T. ) ;
#15 = PERSON_AND_ORGANIZATION_ROLE ( 'design_owner' ) ;
#16 = VERTEX_POINT ( 'NONE', #156 ) ;
#17 = APPROVAL ( #150, 'UNSPECIFIED' ) ;
#18 = EDGE_CURVE ( 'NONE', #210, #95, #233, .T. ) ;
#19 = ORIENTED_EDGE ( 'NONE', *, *, #195, .T. ) ;
#20 = EDGE_CURVE ( 'NONE', #292, #292, #280, .T. ) ;
#21 = EDGE_LOOP ( 'NONE', ( #297, #19 ) ) ;
#22 = FACE_OUTER_BOUND ( 'NONE', #144, .T. ) ;
#23 = LOCAL_TIME ( 15, 5, 32.00000000000000000, #199 ) ;
#24 = AXIS2_PLACEMENT_3D ( 'NONE', #230, #256, #191 ) ;
#25 = CARTESIAN_POINT ( 'NONE',  ( 1.606081415867841091E-13, -5.633375276077824704E-15, 46.00000000000000000 ) ) ;
#26 = EDGE_LOOP ( 'NONE', ( #72 ) ) ;
#27 = CC_DESIGN_PERSON_AND_ORGANIZATION_ASSIGNMENT ( #245, #293, ( #10 ) ) ;
#28 = PLANE ( 'NONE',  #300 ) ;
#29 = CYLINDRICAL_SURFACE ( 'NONE', #288, 1.500000000000000000 ) ;
#30 = APPROVAL_ROLE ( '' ) ;
#31 = ADVANCED_FACE ( 'NONE', ( #22, #253 ), #61, .T. ) ;
#32 = PLANE ( 'NONE',  #173 ) ;
#33 = COORDINATED_UNIVERSAL_TIME_OFFSET ( 1, 0, .AHEAD. ) ;
#34 = DIRECTION ( 'NONE',  ( 4.275831445896958607E-31, 1.000000000000000000, 1.224646799147353207E-16 ) ) ;
#35 = CALENDAR_DATE ( 2021, 3, 12 ) ;
#36 = LOCAL_TIME ( 15, 5, 32.00000000000000000, #218 ) ;
#37 = DIRECTION ( 'NONE',  ( 4.275831445896959482E-31, 1.000000000000000000, 1.224646799147353207E-16 ) ) ;
#38 = CONICAL_SURFACE ( 'NONE', #78, 0.5000000000000000000, 0.03490658503988741668 ) ;
#39 = VERTEX_POINT ( 'NONE', #114 ) ;
#40 = DATE_AND_TIME ( #264, #249 ) ;
#41 = EDGE_CURVE ( 'NONE', #16, #16, #84, .T. ) ;
#42 = CARTESIAN_POINT ( 'NONE',  ( 6.982962677686266711E-15, 0.4650792305082512845, 2.000000000000000000 ) ) ;
#43 = ORGANIZATION ( 'UNSPECIFIED', 'UNSPECIFIED', '' ) ;
#44 = CLOSED_SHELL ( 'NONE', ( #214, #139, #142, #248 ) ) ;
#45 = ORIENTED_EDGE ( 'NONE', *, *, #20, .F. ) ;
#46 = ORIENTED_EDGE ( 'NONE', *, *, #163, .T. ) ;
#47 = LINE ( 'NONE', #1, #68 ) ;
#48 = DIRECTION ( 'NONE',  ( -3.491481338843133355E-15, 1.224646799147353207E-16, -1.000000000000000000 ) ) ;
#49 = FACE_OUTER_BOUND ( 'NONE', #117, .T. ) ;
#50 = CARTESIAN_POINT ( 'NONE',  ( -1.068957861474239433E-31, 3.749399456654644020E-33, -3.061616997868383018E-17 ) ) ;
#51 = DIRECTION ( 'NONE',  ( 3.491481338843133355E-15, -1.224646799147353207E-16, 1.000000000000000000 ) ) ;
#52 = COORDINATED_UNIVERSAL_TIME_OFFSET ( 1, 0, .AHEAD. ) ;
#53 = EDGE_CURVE ( 'NONE', #208, #210, #47, .T. ) ;
#54 = CC_DESIGN_SECURITY_CLASSIFICATION ( #119, ( #10 ) ) ;
#55 = FACE_OUTER_BOUND ( 'NONE', #21, .T. ) ;
#56 = DIRECTION ( 'NONE',  ( 1.000000000000000000, 0.0000000000000000000, 0.0000000000000000000 ) ) ;
#57 = FACE_OUTER_BOUND ( 'NONE', #26, .T. ) ;
#58 = DATE_AND_TIME ( #268, #159 ) ;
#59 = DIRECTION ( 'NONE',  ( -3.491481338843133355E-15, 1.224646799147353207E-16, -1.000000000000000000 ) ) ;
#60 = PERSON_AND_ORGANIZATION_ROLE ( 'classification_officer' ) ;
#61 = CONICAL_SURFACE ( 'NONE', #155, 1.200000000000005063, 0.7853981633974453924 ) ;
#62 = APPROVAL_DATE_TIME ( #58, #222 ) ;
#63 = ORIENTED_EDGE ( 'NONE', *, *, #18, .F. ) ;
#64 = PRODUCT_DEFINITION ( 'UNKNOWN', '', #10, #247 ) ;
#65 =( NAMED_UNIT ( * ) PLANE_ANGLE_UNIT ( ) SI_UNIT ( $, .RADIAN. ) );
#66 = ORIENTED_EDGE ( 'NONE', *, *, #18, .T. ) ;
#67 = AXIS2_PLACEMENT_3D ( 'NONE', #203, #244, #89 ) ;
#68 = VECTOR ( 'NONE', #234, 1000.000000000000227 ) ;
#69 = ORIENTED_EDGE ( 'NONE', *, *, #41, .F. ) ;
#70 = ADVANCED_BREP_SHAPE_REPRESENTATION ( '997969', ( #204, #109, #231 ), #133 ) ;
#71 = EDGE_LOOP ( 'NONE', ( #165 ) ) ;
#72 = ORIENTED_EDGE ( 'NONE', *, *, #226, .T. ) ;
#73 = CIRCLE ( 'NONE', #294, 0.5000000000000000000 ) ;
#74 = EDGE_CURVE ( 'NONE', #178, #178, #206, .T. ) ;
#75 = DIRECTION ( 'NONE',  ( -3.491481338843133355E-15, 1.224646799147353207E-16, -1.000000000000000000 ) ) ;
#76 = ORIENTED_EDGE ( 'NONE', *, *, #186, .T. ) ;
#77 = CARTESIAN_POINT ( 'NONE',  ( 0.0000000000000000000, 0.5000000000000000000, 0.0000000000000000000 ) ) ;
#78 = AXIS2_PLACEMENT_3D ( 'NONE', #153, #219, #284 ) ;
#79 = FACE_OUTER_BOUND ( 'NONE', #273, .T. ) ;
#80 = EDGE_CURVE ( 'NONE', #39, #39, #168, .T. ) ;
#81 = CARTESIAN_POINT ( 'NONE',  ( 3.491481338843133355E-15, 0.4650792305082513400, 1.000000000000000000 ) ) ;
#82 = CARTESIAN_POINT ( 'NONE',  ( 1.595606971851311880E-13, -5.596635872103403844E-15, 45.69999999999999574 ) ) ;
#83 = AXIS2_PLACEMENT_3D ( 'NONE', #82, #104, #198 ) ;
#84 = CIRCLE ( 'NONE', #184, 1.499999999999994893 ) ;
#85 = CARTESIAN_POINT ( 'NONE',  ( 3.491481338843133355E-15, 3.487535628337995001E-33, 1.000000000000000000 ) ) ;
#86 = PERSON_AND_ORGANIZATION ( #243, #43 ) ;
#87 = DIRECTION ( 'NONE',  ( 4.275831445896958607E-31, 1.000000000000000000, 1.224646799147353207E-16 ) ) ;
#88 = APPROVAL_DATE_TIME ( #9, #5 ) ;
#89 = DIRECTION ( 'NONE',  ( 0.0000000000000000000, 1.000000000000000000, 0.0000000000000000000 ) ) ;
#90 = MECHANICAL_CONTEXT ( 'NONE', #183, 'mechanical' ) ;
#91 = CC_DESIGN_PERSON_AND_ORGANIZATION_ASSIGNMENT ( #86, #60, ( #119 ) ) ;
#92 = VERTEX_POINT ( 'NONE', #271 ) ;
#93 = ADVANCED_FACE ( 'NONE', ( #49, #118 ), #134, .T. ) ;
#94 = ADVANCED_FACE ( 'NONE', ( #101, #57 ), #29, .T. ) ;
#95 = VERTEX_POINT ( 'NONE', #283 ) ;
#96 = DIRECTION ( 'NONE',  ( 0.0000000000000000000, 1.000000000000000000, 0.0000000000000000000 ) ) ;
#97 = PRODUCT_RELATED_PRODUCT_CATEGORY ( 'detail', '', ( #281 ) ) ;
#98 = ORIENTED_EDGE ( 'NONE', *, *, #193, .F. ) ;
#99 = ORIENTED_EDGE ( 'NONE', *, *, #80, .F. ) ;
#100 = DIRECTION ( 'NONE',  ( 0.0000000000000000000, 1.000000000000000000, 0.0000000000000000000 ) ) ;
#101 = FACE_OUTER_BOUND ( 'NONE', #190, .T. ) ;
#102 = TOROIDAL_SURFACE ( 'NONE', #154, 1.465079230508251618, 0.9999999999999995559 ) ;
#103 = CARTESIAN_POINT ( 'NONE',  ( -2.137915722948478865E-31, 7.498798913309288039E-33, -6.123233995736766036E-17 ) ) ;
#104 = DIRECTION ( 'NONE',  ( -3.491481338843133355E-15, 1.224646799147353207E-16, -1.000000000000000000 ) ) ;
#105 = LINE ( 'NONE', #126, #205 ) ;
#106 = PERSON_AND_ORGANIZATION_ROLE ( 'creator' ) ;
#107 = PLANE ( 'NONE',  #209 ) ;
#108 = APPROVAL_STATUS ( 'not_yet_approved' ) ;
#109 = MANIFOLD_SOLID_BREP ( 'Corps-Déplacer/Copier1[2]', #44 ) ;
#110 = VERTEX_POINT ( 'NONE', #267 ) ;
#111 = APPLICATION_PROTOCOL_DEFINITION ( 'international standard', 'config_control_design', 1994, #227 ) ;
#112 = VERTEX_POINT ( 'NONE', #269 ) ;
#113 = ADVANCED_FACE ( 'NONE', ( #196, #221 ), #8, .T. ) ;
#114 = CARTESIAN_POINT ( 'NONE',  ( 3.491481338843133355E-15, 0.4650792305082513400, 1.000000000000000000 ) ) ;
#115 = VECTOR ( 'NONE', #277, 1000.000000000000000 ) ;
#116 = ORIENTED_EDGE ( 'NONE', *, *, #74, .T. ) ;
#117 = EDGE_LOOP ( 'NONE', ( #158 ) ) ;
#118 = FACE_BOUND ( 'NONE', #121, .T. ) ;
#119 = SECURITY_CLASSIFICATION ( '', '', #216 ) ;
#120 = AXIS2_PLACEMENT_3D ( 'NONE', #169, #257, #87 ) ;
#121 = EDGE_LOOP ( 'NONE', ( #45 ) ) ;
#122 = PRODUCT_DEFINITION_SHAPE ( 'NONE', 'NONE',  #64 ) ;
#123 = DIRECTION ( 'NONE',  ( 3.491481338843133355E-15, -1.224646799147353207E-16, 1.000000000000000000 ) ) ;
#124 = DIRECTION ( 'NONE',  ( -3.491481338843133355E-15, 1.224646799147353207E-16, -1.000000000000000000 ) ) ;
#125 = APPROVAL_PERSON_ORGANIZATION ( #157, #17, #30 ) ;
#126 = CARTESIAN_POINT ( 'NONE',  ( 4.999147197584144738E-14, -1.753464796124732855E-15, 14.31812664145746439 ) ) ;
#127 = CC_DESIGN_DATE_AND_TIME_ASSIGNMENT ( #128, #177, ( #64 ) ) ;
#128 = DATE_AND_TIME ( #201, #36 ) ;
#129 = DIRECTION ( 'NONE',  ( 4.383557372409204680E-31, 1.000000000000000000, 1.224646799147353207E-16 ) ) ;
#130 = APPROVAL_DATE_TIME ( #291, #17 ) ;
#131 = FACE_OUTER_BOUND ( 'NONE', #161, .T. ) ;
#132 = APPROVAL_ROLE ( '' ) ;
#133 =( GEOMETRIC_REPRESENTATION_CONTEXT ( 3 ) GLOBAL_UNCERTAINTY_ASSIGNED_CONTEXT ( ( #181 ) ) GLOBAL_UNIT_ASSIGNED_CONTEXT ( ( #136, #65, #223 ) ) REPRESENTATION_CONTEXT ( 'NONE', 'WORKASPACE' ) );
#134 = CONICAL_SURFACE ( 'NONE', #296, 0.5990538267238140202, 0.5235987755982998149 ) ;
#135 = CARTESIAN_POINT ( 'NONE',  ( 3.491481338843133355E-15, 3.487535628337995001E-33, 1.000000000000000000 ) ) ;
#136 =( LENGTH_UNIT ( ) NAMED_UNIT ( * ) SI_UNIT ( .MILLI., .METRE. ) );
#137 = EDGE_LOOP ( 'NONE', ( #76, #66 ) ) ;
#138 = AXIS2_PLACEMENT_3D ( 'NONE', #236, #240, #146 ) ;
#139 = ADVANCED_FACE ( 'NONE', ( #131 ), #38, .T. ) ;
#140 = ORIENTED_EDGE ( 'NONE', *, *, #53, .F. ) ;
#141 = CARTESIAN_POINT ( 'NONE',  ( 1.417710602250825549E-14, -4.972659403469733040E-16, 4.060484546999095556 ) ) ;
#142 = ADVANCED_FACE ( 'NONE', ( #55 ), #261, .T. ) ;
#143 = DIRECTION ( 'NONE',  ( -3.491481338843133355E-15, 1.224646799147353207E-16, -1.000000000000000000 ) ) ;
#144 = EDGE_LOOP ( 'NONE', ( #229 ) ) ;
#145 = CARTESIAN_POINT ( 'NONE',  ( 8.728703347107834966E-15, -3.061616997868383634E-16, 2.500000000000000444 ) ) ;
#146 = DIRECTION ( 'NONE',  ( 0.0000000000000000000, 1.000000000000000000, 0.0000000000000000000 ) ) ;
#147 = ADVANCED_FACE ( 'NONE', ( #242 ), #28, .F. ) ;
#148 = DIRECTION ( 'NONE',  ( 3.491481338843133355E-15, -1.224646799147353207E-16, 1.000000000000000000 ) ) ;
#149 = CC_DESIGN_APPROVAL ( #222, ( #119 ) ) ;
#150 = APPROVAL_STATUS ( 'not_yet_approved' ) ;
#151 = DIRECTION ( 'NONE',  ( 1.000000000000000000, 0.0000000000000000000, -3.491481338843133355E-15 ) ) ;
#152 = SHAPE_DEFINITION_REPRESENTATION ( #122, #70 ) ;
#153 = CARTESIAN_POINT ( 'NONE',  ( -2.137915722948478865E-31, 7.498798913309288039E-33, -6.123233995736766036E-17 ) ) ;
#154 = AXIS2_PLACEMENT_3D ( 'NONE', #213, #59, #129 ) ;
#155 = AXIS2_PLACEMENT_3D ( 'NONE', #25, #48, #96 ) ;
#156 = CARTESIAN_POINT ( 'NONE',  ( 1.417710602250825549E-14, 1.499999999999994449, 4.060484546999095556 ) ) ;
#157 = PERSON_AND_ORGANIZATION ( #243, #43 ) ;
#158 = ORIENTED_EDGE ( 'NONE', *, *, #41, .T. ) ;
#159 = LOCAL_TIME ( 15, 5, 32.00000000000000000, #285 ) ;
#160 = AXIS2_PLACEMENT_3D ( 'NONE', #135, #148, #290 ) ;
#161 = EDGE_LOOP ( 'NONE', ( #275, #251, #185, #224 ) ) ;
#162 = EDGE_LOOP ( 'NONE', ( #99 ) ) ;
#163 = EDGE_CURVE ( 'NONE', #112, #112, #180, .T. ) ;
#164 = CARTESIAN_POINT ( 'NONE',  ( 8.728703347107834966E-15, -3.061616997868383634E-16, 2.500000000000000444 ) ) ;
#165 = ORIENTED_EDGE ( 'NONE', *, *, #80, .T. ) ;
#166 = ORIENTED_EDGE ( 'NONE', *, *, #20, .T. ) ;
#167 = CIRCLE ( 'NONE', #67, 0.4650792305082514511 ) ;
#168 = CIRCLE ( 'NONE', #24, 0.4650792305082514511 ) ;
#169 = CARTESIAN_POINT ( 'NONE',  ( 0.0000000000000000000, 0.0000000000000000000, 0.0000000000000000000 ) ) ;
#170 = CARTESIAN_POINT ( 'NONE',  ( 1.606081415867841091E-13, 8.998558695971099120E-33, 46.00000000000000000 ) ) ;
#171 = FACE_OUTER_BOUND ( 'NONE', #246, .T. ) ;
#172 = APPLICATION_PROTOCOL_DEFINITION ( 'international standard', 'config_control_design', 1994, #183 ) ;
#173 = AXIS2_PLACEMENT_3D ( 'NONE', #258, #151, #282 ) ;
#174 = FACE_OUTER_BOUND ( 'NONE', #301, .T. ) ;
#175 = DATE_TIME_ROLE ( 'classification_date' ) ;
#176 = DIRECTION ( 'NONE',  ( -3.491481338843133355E-15, 1.224646799147353207E-16, -1.000000000000000000 ) ) ;
#177 = DATE_TIME_ROLE ( 'creation_date' ) ;
#178 = VERTEX_POINT ( 'NONE', #42 ) ;
#179 = CALENDAR_DATE ( 2021, 3, 12 ) ;
#180 = CIRCLE ( 'NONE', #138, 1.200000000000005063 ) ;
#181 = UNCERTAINTY_MEASURE_WITH_UNIT (LENGTH_MEASURE( 1.000000000000000082E-05 ), #136, 'distance_accuracy_value', 'NONE');
#182 = CC_DESIGN_DATE_AND_TIME_ASSIGNMENT ( #40, #175, ( #119 ) ) ;
#183 = APPLICATION_CONTEXT ( 'configuration controlled 3d designs of mechanical parts and assemblies' ) ;
#184 = AXIS2_PLACEMENT_3D ( 'NONE', #141, #75, #254 ) ;
#185 = ORIENTED_EDGE ( 'NONE', *, *, #298, .T. ) ;
#186 = EDGE_CURVE ( 'NONE', #95, #210, #73, .T. ) ;
#187 = DIRECTION ( 'NONE',  ( 0.0000000000000000000, 1.000000000000000000, 0.0000000000000000000 ) ) ;
#188 = CC_DESIGN_APPROVAL ( #5, ( #10 ) ) ;
#189 = ORIENTED_EDGE ( 'NONE', *, *, #74, .F. ) ;
#190 = EDGE_LOOP ( 'NONE', ( #69 ) ) ;
#191 = DIRECTION ( 'NONE',  ( 0.0000000000000000000, 1.000000000000000000, 0.0000000000000000000 ) ) ;
#192 = DIRECTION ( 'NONE',  ( 4.275831445896958607E-31, 1.000000000000000000, 1.224646799147353207E-16 ) ) ;
#193 = EDGE_CURVE ( 'NONE', #95, #92, #105, .T. ) ;
#194 = DIRECTION ( 'NONE',  ( 3.489354422748178188E-15, 0.03489949670250167002, 0.9993908270190956511 ) ) ;
#195 = EDGE_CURVE ( 'NONE', #92, #208, #238, .T. ) ;
#196 = FACE_OUTER_BOUND ( 'NONE', #2, .T. ) ;
#197 = APPROVAL_ROLE ( '' ) ;
#198 = DIRECTION ( 'NONE',  ( 0.0000000000000000000, 1.000000000000000000, 0.0000000000000000000 ) ) ;
#199 = COORDINATED_UNIVERSAL_TIME_OFFSET ( 1, 0, .AHEAD. ) ;
#200 = DIRECTION ( 'NONE',  ( 4.275831445896958607E-31, 1.000000000000000000, 1.224646799147353207E-16 ) ) ;
#201 = CALENDAR_DATE ( 2021, 3, 12 ) ;
#202 = APPROVAL_STATUS ( 'not_yet_approved' ) ;
#203 = CARTESIAN_POINT ( 'NONE',  ( 3.491481338843133355E-15, -1.224646799147353207E-16, 1.000000000000000000 ) ) ;
#204 = MANIFOLD_SOLID_BREP ( 'Corps-Déplacer/Copier1[1]', #232 ) ;
#205 = VECTOR ( 'NONE', #194, 1000.000000000000227 ) ;
#206 = CIRCLE ( 'NONE', #250, 0.4650792305082515621 ) ;
#207 = EDGE_LOOP ( 'NONE', ( #63, #140, #299, #98 ) ) ;
#208 = VERTEX_POINT ( 'NONE', #81 ) ;
#209 = AXIS2_PLACEMENT_3D ( 'NONE', #50, #176, #200 ) ;
#210 = VERTEX_POINT ( 'NONE', #215 ) ;
#211 = DIRECTION ( 'NONE',  ( -3.491481338843133355E-15, 1.224646799147353207E-16, -1.000000000000000000 ) ) ;
#212 = DIRECTION ( 'NONE',  ( 0.0000000000000000000, -1.000000000000000000, 0.0000000000000000000 ) ) ;
#213 = CARTESIAN_POINT ( 'NONE',  ( 6.982962677686266711E-15, -2.168404344971008868E-16, 2.000000000000000000 ) ) ;
#214 = ADVANCED_FACE ( 'NONE', ( #6 ), #107, .T. ) ;
#215 = CARTESIAN_POINT ( 'NONE',  ( 0.0000000000000000000, 0.5000000000000000000, 0.0000000000000000000 ) ) ;
#216 = SECURITY_CLASSIFICATION_LEVEL ( 'unclassified' ) ;
#217 = PLANE ( 'NONE',  #279 ) ;
#218 = COORDINATED_UNIVERSAL_TIME_OFFSET ( 1, 0, .AHEAD. ) ;
#219 = DIRECTION ( 'NONE',  ( -3.491481338843133355E-15, 1.224646799147353207E-16, -1.000000000000000000 ) ) ;
#220 = PERSON_AND_ORGANIZATION_ROLE ( 'creator' ) ;
#221 = FACE_OUTER_BOUND ( 'NONE', #162, .T. ) ;
#222 = APPROVAL ( #108, 'UNSPECIFIED' ) ;
#223 =( NAMED_UNIT ( * ) SI_UNIT ( $, .STERADIAN. ) SOLID_ANGLE_UNIT ( ) );
#224 = ORIENTED_EDGE ( 'NONE', *, *, #53, .T. ) ;
#225 = CARTESIAN_POINT ( 'NONE',  ( 8.728703347107834966E-15, 0.5990538267238136871, 2.500000000000000444 ) ) ;
#226 = EDGE_CURVE ( 'NONE', #110, #110, #260, .T. ) ;
#227 = APPLICATION_CONTEXT ( 'configuration controlled 3d designs of mechanical parts and assemblies' ) ;
#228 = ORIENTED_EDGE ( 'NONE', *, *, #163, .F. ) ;
#229 = ORIENTED_EDGE ( 'NONE', *, *, #226, .F. ) ;
#230 = CARTESIAN_POINT ( 'NONE',  ( 3.491481338843133355E-15, -1.224646799147353207E-16, 1.000000000000000000 ) ) ;
#231 = AXIS2_PLACEMENT_3D ( 'NONE', #13, #7, #56 ) ;
#232 = CLOSED_SHELL ( 'NONE', ( #147, #113, #270, #93, #94, #31, #276 ) ) ;
#233 = LINE ( 'NONE', #77, #115 ) ;
#234 = DIRECTION ( 'NONE',  ( -3.489354422748178188E-15, 0.03489949670250191982, -0.9993908270190956511 ) ) ;
#235 = DIRECTION ( 'NONE',  ( -3.491481338843133355E-15, 1.224646799147353207E-16, -1.000000000000000000 ) ) ;
#236 = CARTESIAN_POINT ( 'NONE',  ( 1.606081415867841091E-13, -5.633375276077824704E-15, 46.00000000000000000 ) ) ;
#237 = CC_DESIGN_APPROVAL ( #17, ( #64 ) ) ;
#238 = LINE ( 'NONE', #85, #295 ) ;
#239 = PERSON_AND_ORGANIZATION ( #243, #43 ) ;
#240 = DIRECTION ( 'NONE',  ( -3.491481338843133355E-15, 1.224646799147353207E-16, -1.000000000000000000 ) ) ;
#241 = PERSON_AND_ORGANIZATION ( #243, #43 ) ;
#242 = FACE_OUTER_BOUND ( 'NONE', #71, .T. ) ;
#243 = PERSON ( 'UNSPECIFIED', 'UNSPECIFIED', 'UNSPECIFIED', ('UNSPECIFIED'), ('UNSPECIFIED'), ('UNSPECIFIED') ) ;
#244 = DIRECTION ( 'NONE',  ( -3.491481338843133355E-15, 1.224646799147353207E-16, -1.000000000000000000 ) ) ;
#245 = PERSON_AND_ORGANIZATION ( #243, #43 ) ;
#246 = EDGE_LOOP ( 'NONE', ( #189 ) ) ;
#247 = DESIGN_CONTEXT ( 'detailed design', #227, 'design' ) ;
#248 = ADVANCED_FACE ( 'NONE', ( #14 ), #32, .T. ) ;
#249 = LOCAL_TIME ( 15, 5, 32.00000000000000000, #52 ) ;
#250 = AXIS2_PLACEMENT_3D ( 'NONE', #278, #143, #100 ) ;
#251 = ORIENTED_EDGE ( 'NONE', *, *, #193, .T. ) ;
#252 = CC_DESIGN_PERSON_AND_ORGANIZATION_ASSIGNMENT ( #289, #220, ( #10 ) ) ;
#253 = FACE_BOUND ( 'NONE', #255, .T. ) ;
#254 = DIRECTION ( 'NONE',  ( 0.0000000000000000000, 1.000000000000000000, 0.0000000000000000000 ) ) ;
#255 = EDGE_LOOP ( 'NONE', ( #46 ) ) ;
#256 = DIRECTION ( 'NONE',  ( -3.491481338843133355E-15, 1.224646799147353207E-16, -1.000000000000000000 ) ) ;
#257 = DIRECTION ( 'NONE',  ( -3.491481338843133355E-15, 1.224646799147353207E-16, -1.000000000000000000 ) ) ;
#258 = CARTESIAN_POINT ( 'NONE',  ( 0.0000000000000000000, 0.0000000000000000000, 0.0000000000000000000 ) ) ;
#259 = CC_DESIGN_PERSON_AND_ORGANIZATION_ASSIGNMENT ( #266, #15, ( #281 ) ) ;
#260 = CIRCLE ( 'NONE', #83, 1.500000000000005107 ) ;
#261 = PLANE ( 'NONE',  #160 ) ;
#262 = PERSON_AND_ORGANIZATION ( #243, #43 ) ;
#263 = DIRECTION ( 'NONE',  ( 4.275831445896958607E-31, 1.000000000000000000, 1.224646799147353207E-16 ) ) ;
#264 = CALENDAR_DATE ( 2021, 3, 12 ) ;
#265 = DIRECTION ( 'NONE',  ( -3.491481338843133355E-15, 1.224646799147353207E-16, -1.000000000000000000 ) ) ;
#266 = PERSON_AND_ORGANIZATION ( #243, #43 ) ;
#267 = CARTESIAN_POINT ( 'NONE',  ( 1.595606971851311880E-13, 1.499999999999999334, 45.69999999999999574 ) ) ;
#268 = CALENDAR_DATE ( 2021, 3, 12 ) ;
#269 = CARTESIAN_POINT ( 'NONE',  ( 1.606081415867841091E-13, 1.199999999999999512, 46.00000000000000000 ) ) ;
#270 = ADVANCED_FACE ( 'NONE', ( #79, #171 ), #102, .F. ) ;
#271 = CARTESIAN_POINT ( 'NONE',  ( 3.491481338843132566E-15, -0.4650792305082515621, 0.9999999999999997780 ) ) ;
#272 = CC_DESIGN_PERSON_AND_ORGANIZATION_ASSIGNMENT ( #262, #106, ( #64 ) ) ;
#273 = EDGE_LOOP ( 'NONE', ( #166 ) ) ;
#274 = APPROVAL_PERSON_ORGANIZATION ( #239, #5, #132 ) ;
#275 = ORIENTED_EDGE ( 'NONE', *, *, #186, .F. ) ;
#276 = ADVANCED_FACE ( 'NONE', ( #174 ), #217, .F. ) ;
#277 = DIRECTION ( 'NONE',  ( -4.275831445896958607E-31, -1.000000000000000000, -1.224646799147353207E-16 ) ) ;
#278 = CARTESIAN_POINT ( 'NONE',  ( 6.982962677686266711E-15, -2.449293598294706414E-16, 2.000000000000000000 ) ) ;
#279 = AXIS2_PLACEMENT_3D ( 'NONE', #170, #265, #263 ) ;
#280 = CIRCLE ( 'NONE', #12, 0.5990538267238140202 ) ;
#281 = PRODUCT ( '997969', '997969', '', ( #90 ) ) ;
#282 = DIRECTION ( 'NONE',  ( -3.491481338843133355E-15, 0.0000000000000000000, -1.000000000000000000 ) ) ;
#283 = CARTESIAN_POINT ( 'NONE',  ( -4.275831445896957731E-31, -0.5000000000000000000, -1.224646799147353207E-16 ) ) ;
#284 = DIRECTION ( 'NONE',  ( 4.275831445896958607E-31, 1.000000000000000000, 1.224646799147353207E-16 ) ) ;
#285 = COORDINATED_UNIVERSAL_TIME_OFFSET ( 1, 0, .AHEAD. ) ;
#286 = APPROVAL_PERSON_ORGANIZATION ( #241, #222, #197 ) ;
#287 = CARTESIAN_POINT ( 'NONE',  ( 3.491481338843133355E-15, 3.487535628337995001E-33, 1.000000000000000000 ) ) ;
#288 = AXIS2_PLACEMENT_3D ( 'NONE', #4, #235, #37 ) ;
#289 = PERSON_AND_ORGANIZATION ( #243, #43 ) ;
#290 = DIRECTION ( 'NONE',  ( -4.275831445896958607E-31, -1.000000000000000000, -1.224646799147353207E-16 ) ) ;
#291 = DATE_AND_TIME ( #179, #23 ) ;
#292 = VERTEX_POINT ( 'NONE', #225 ) ;
#293 = PERSON_AND_ORGANIZATION_ROLE ( 'design_supplier' ) ;
#294 = AXIS2_PLACEMENT_3D ( 'NONE', #103, #124, #34 ) ;
#295 = VECTOR ( 'NONE', #192, 1000.000000000000000 ) ;
#296 = AXIS2_PLACEMENT_3D ( 'NONE', #145, #123, #212 ) ;
#297 = ORIENTED_EDGE ( 'NONE', *, *, #298, .F. ) ;
#298 = EDGE_CURVE ( 'NONE', #92, #208, #167, .T. ) ;
#299 = ORIENTED_EDGE ( 'NONE', *, *, #195, .F. ) ;
#300 = AXIS2_PLACEMENT_3D ( 'NONE', #287, #51, #11 ) ;
#301 = EDGE_LOOP ( 'NONE', ( #228 ) ) ;
ENDSEC;
END-ISO-10303-21;
