ISO-10303-21;
HEADER;
FILE_DESCRIPTION (( 'STEP AP203' ),
    '1' );
FILE_NAME ('997968.step',
    '2021-12-03T14:05:31',
    ( '' ),
    ( '' ),
    'SwSTEP 2.0',
    'SolidWorks 2019',
    '' );
FILE_SCHEMA (( 'CONFIG_CONTROL_DESIGN' ));
ENDSEC;

DATA;
#1 = DIRECTION ( 'NONE',  ( -4.275831445896958607E-31, -1.000000000000000000, -1.224646799147353207E-16 ) ) ;
#2 = CIRCLE ( 'NONE', #152, 0.4500000000000000111 ) ;
#3 = LOCAL_TIME ( 15, 5, 31.00000000000000000, #186 ) ;
#4 = DIRECTION ( 'NONE',  ( 4.275831445896958607E-31, 1.000000000000000000, 1.224646799147352961E-16 ) ) ;
#5 = ORIENTED_EDGE ( 'NONE', *, *, #118, .F. ) ;
#6 = DATE_AND_TIME ( #52, #3 ) ;
#7 = LOCAL_TIME ( 15, 5, 31.00000000000000000, #74 ) ;
#8 = APPROVAL ( #31, 'UNSPECIFIED' ) ;
#9 = COORDINATED_UNIVERSAL_TIME_OFFSET ( 1, 0, .AHEAD. ) ;
#10 = DIRECTION ( 'NONE',  ( 4.275831445896958607E-31, 1.000000000000000000, 1.224646799147352961E-16 ) ) ;
#11 = EDGE_LOOP ( 'NONE', ( #292 ) ) ;
#12 = APPROVAL_PERSON_ORGANIZATION ( #201, #162, #226 ) ;
#13 = EDGE_LOOP ( 'NONE', ( #111 ) ) ;
#14 = EDGE_LOOP ( 'NONE', ( #192 ) ) ;
#15 = ADVANCED_FACE ( 'NONE', ( #286, #195 ), #29, .T. ) ;
#16 = LOCAL_TIME ( 15, 5, 31.00000000000000000, #9 ) ;
#17 = SHAPE_DEFINITION_REPRESENTATION ( #47, #299 ) ;
#18 = CARTESIAN_POINT ( 'NONE',  ( 3.142333204958820020E-15, 3.138782065504194748E-33, 0.9000000000000000222 ) ) ;
#19 = VERTEX_POINT ( 'NONE', #104 ) ;
#20 = VECTOR ( 'NONE', #197, 1000.000000000000000 ) ;
#21 = VERTEX_POINT ( 'NONE', #210 ) ;
#22 = FACE_OUTER_BOUND ( 'NONE', #190, .T. ) ;
#23 = DIRECTION ( 'NONE',  ( 1.000000000000000000, 0.0000000000000000000, 0.0000000000000000000 ) ) ;
#24 = DIRECTION ( 'NONE',  ( 4.385628888384508736E-31, 1.000000000000000000, 1.224646799147353207E-16 ) ) ;
#25 = CLOSED_SHELL ( 'NONE', ( #271, #260, #281, #99 ) ) ;
#26 = FACE_OUTER_BOUND ( 'NONE', #96, .T. ) ;
#27 = DATE_TIME_ROLE ( 'creation_date' ) ;
#28 = CYLINDRICAL_SURFACE ( 'NONE', #296, 1.500000000000000000 ) ;
#29 = CONICAL_SURFACE ( 'NONE', #80, 1.200000000000005063, 0.7853981633974453924 ) ;
#30 = CC_DESIGN_APPROVAL ( #8, ( #100 ) ) ;
#31 = APPROVAL_STATUS ( 'not_yet_approved' ) ;
#32 = PRODUCT_RELATED_PRODUCT_CATEGORY ( 'detail', '', ( #231 ) ) ;
#33 = EDGE_LOOP ( 'NONE', ( #117 ) ) ;
#34 = VERTEX_POINT ( 'NONE', #200 ) ;
#35 = CARTESIAN_POINT ( 'NONE',  ( 1.606081415867841091E-13, 8.998558695971099120E-33, 46.00000000000000000 ) ) ;
#36 = APPROVAL_DATE_TIME ( #194, #120 ) ;
#37 = ORIENTED_EDGE ( 'NONE', *, *, #294, .T. ) ;
#38 = EDGE_CURVE ( 'NONE', #238, #34, #256, .T. ) ;
#39 = APPROVAL_STATUS ( 'not_yet_approved' ) ;
#40 = ORIENTED_EDGE ( 'NONE', *, *, #68, .F. ) ;
#41 = AXIS2_PLACEMENT_3D ( 'NONE', #35, #169, #147 ) ;
#42 = DIRECTION ( 'NONE',  ( -3.491481338843133355E-15, 1.224646799147353207E-16, -1.000000000000000000 ) ) ;
#43 = DIRECTION ( 'NONE',  ( -3.491481338843133355E-15, 1.224646799147353207E-16, -1.000000000000000000 ) ) ;
#44 = DIRECTION ( 'NONE',  ( 0.0000000000000000000, 0.0000000000000000000, 1.000000000000000000 ) ) ;
#45 = VERTEX_POINT ( 'NONE', #228 ) ;
#46 = FACE_OUTER_BOUND ( 'NONE', #282, .T. ) ;
#47 = PRODUCT_DEFINITION_SHAPE ( 'NONE', 'NONE',  #301 ) ;
#48 = CARTESIAN_POINT ( 'NONE',  ( 3.142333204958819625E-15, -0.4185713074574263226, 0.8999999999999999112 ) ) ;
#49 = EDGE_CURVE ( 'NONE', #34, #267, #62, .T. ) ;
#50 = DESIGN_CONTEXT ( 'detailed design', #287, 'design' ) ;
#51 = ORIENTED_EDGE ( 'NONE', *, *, #38, .F. ) ;
#52 = CALENDAR_DATE ( 2021, 3, 12 ) ;
#53 = EDGE_LOOP ( 'NONE', ( #51, #91, #245, #139 ) ) ;
#54 = FACE_OUTER_BOUND ( 'NONE', #219, .T. ) ;
#55 = EDGE_LOOP ( 'NONE', ( #185 ) ) ;
#56 = AXIS2_PLACEMENT_3D ( 'NONE', #253, #110, #232 ) ;
#57 = APPLICATION_PROTOCOL_DEFINITION ( 'international standard', 'config_control_design', 1994, #90 ) ;
#58 = CC_DESIGN_DATE_AND_TIME_ASSIGNMENT ( #244, #27, ( #301 ) ) ;
#59 = CARTESIAN_POINT ( 'NONE',  ( 4.499232477825729317E-14, -1.578118316512259175E-15, 12.88631397731171546 ) ) ;
#60 = COORDINATED_UNIVERSAL_TIME_OFFSET ( 1, 0, .AHEAD. ) ;
#61 = PLANE ( 'NONE',  #66 ) ;
#62 = LINE ( 'NONE', #133, #258 ) ;
#63 = FACE_OUTER_BOUND ( 'NONE', #33, .T. ) ;
#64 = DIRECTION ( 'NONE',  ( 0.0000000000000000000, 1.000000000000000000, 0.0000000000000000000 ) ) ;
#65 = DIRECTION ( 'NONE',  ( -3.491481338843133355E-15, 1.224646799147353207E-16, -1.000000000000000000 ) ) ;
#66 = AXIS2_PLACEMENT_3D ( 'NONE', #178, #112, #1 ) ;
#67 = APPROVAL_DATE_TIME ( #6, #8 ) ;
#68 = EDGE_CURVE ( 'NONE', #34, #238, #2, .T. ) ;
#69 = PLANE ( 'NONE',  #237 ) ;
#70 = ORIENTED_EDGE ( 'NONE', *, *, #125, .F. ) ;
#71 = EDGE_CURVE ( 'NONE', #19, #19, #164, .T. ) ;
#72 = CALENDAR_DATE ( 2021, 3, 12 ) ;
#73 = CARTESIAN_POINT ( 'NONE',  ( 1.606081415867841091E-13, -5.633375276077824704E-15, 46.00000000000000000 ) ) ;
#74 = COORDINATED_UNIVERSAL_TIME_OFFSET ( 1, 0, .AHEAD. ) ;
#75 = ORIENTED_EDGE ( 'NONE', *, *, #294, .F. ) ;
#76 = ADVANCED_FACE ( 'NONE', ( #279, #161 ), #28, .T. ) ;
#77 = EDGE_LOOP ( 'NONE', ( #144 ) ) ;
#78 = CC_DESIGN_PERSON_AND_ORGANIZATION_ASSIGNMENT ( #140, #115, ( #196 ) ) ;
#79 = DIRECTION ( 'NONE',  ( -3.491481338843133355E-15, 0.0000000000000000000, -1.000000000000000000 ) ) ;
#80 = AXIS2_PLACEMENT_3D ( 'NONE', #73, #167, #264 ) ;
#81 = CYLINDRICAL_SURFACE ( 'NONE', #168, 0.4185713074574263226 ) ;
#82 = CIRCLE ( 'NONE', #266, 0.5525459036729889473 ) ;
#83 = CARTESIAN_POINT ( 'NONE',  ( 3.142333204958820020E-15, 0.4185713074574261561, 0.9000000000000000222 ) ) ;
#84 = CARTESIAN_POINT ( 'NONE',  ( 0.0000000000000000000, 0.4500000000000000111, 0.0000000000000000000 ) ) ;
#85 = DIRECTION ( 'NONE',  ( 3.491481338843133355E-15, -1.224646799147353207E-16, 1.000000000000000000 ) ) ;
#86 = LOCAL_TIME ( 15, 5, 31.00000000000000000, #60 ) ;
#87 = DIRECTION ( 'NONE',  ( -3.491481338843133355E-15, 1.224646799147353207E-16, -1.000000000000000000 ) ) ;
#88 = CARTESIAN_POINT ( 'NONE',  ( 0.0000000000000000000, 0.0000000000000000000, 0.0000000000000000000 ) ) ;
#89 = VECTOR ( 'NONE', #270, 1000.000000000000227 ) ;
#90 = APPLICATION_CONTEXT ( 'configuration controlled 3d designs of mechanical parts and assemblies' ) ;
#91 = ORIENTED_EDGE ( 'NONE', *, *, #236, .F. ) ;
#92 = APPROVAL_ROLE ( '' ) ;
#93 = CARTESIAN_POINT ( 'NONE',  ( 2.004472925157143730E-14, -7.030744585289954796E-16, 5.741038632677627263 ) ) ;
#94 = TOROIDAL_SURFACE ( 'NONE', #276, 1.418571307457426212, 0.9999999999999995559 ) ;
#95 = COORDINATED_UNIVERSAL_TIME_OFFSET ( 1, 0, .AHEAD. ) ;
#96 = EDGE_LOOP ( 'NONE', ( #209, #116 ) ) ;
#97 = PERSON_AND_ORGANIZATION_ROLE ( 'creator' ) ;
#98 = ORIENTED_EDGE ( 'NONE', *, *, #248, .T. ) ;
#99 = ADVANCED_FACE ( 'NONE', ( #214 ), #69, .T. ) ;
#100 = PRODUCT_DEFINITION_FORMATION_WITH_SPECIFIED_SOURCE ( 'ANY', '', #231, .NOT_KNOWN. ) ;
#101 = DIRECTION ( 'NONE',  ( 0.0000000000000000000, 1.000000000000000000, 0.0000000000000000000 ) ) ;
#102 = CARTESIAN_POINT ( 'NONE',  ( 1.256933281983528008E-14, -4.408728476930471151E-16, 3.600000000000000089 ) ) ;
#103 = EDGE_CURVE ( 'NONE', #202, #202, #275, .T. ) ;
#104 = CARTESIAN_POINT ( 'NONE',  ( 2.004472925157143730E-14, 1.499999999999994449, 5.741038632677627263 ) ) ;
#105 = ORGANIZATION ( 'UNSPECIFIED', 'UNSPECIFIED', '' ) ;
#106 = DIRECTION ( 'NONE',  ( -3.491481338843133355E-15, 1.224646799147353207E-16, -1.000000000000000000 ) ) ;
#107 = DIRECTION ( 'NONE',  ( -3.491481338843133355E-15, 1.224646799147353207E-16, -1.000000000000000000 ) ) ;
#108 = PERSON_AND_ORGANIZATION_ROLE ( 'creator' ) ;
#109 = CC_DESIGN_PERSON_AND_ORGANIZATION_ASSIGNMENT ( #233, #108, ( #301 ) ) ;
#110 = DIRECTION ( 'NONE',  ( 3.491481338843133355E-15, -1.224646799147353207E-16, 1.000000000000000000 ) ) ;
#111 = ORIENTED_EDGE ( 'NONE', *, *, #71, .T. ) ;
#112 = DIRECTION ( 'NONE',  ( 3.491481338843133355E-15, -1.224646799147353207E-16, 1.000000000000000000 ) ) ;
#113 = PERSON_AND_ORGANIZATION ( #221, #105 ) ;
#114 = EDGE_LOOP ( 'NONE', ( #289 ) ) ;
#115 = PERSON_AND_ORGANIZATION_ROLE ( 'classification_officer' ) ;
#116 = ORIENTED_EDGE ( 'NONE', *, *, #38, .T. ) ;
#117 = ORIENTED_EDGE ( 'NONE', *, *, #118, .T. ) ;
#118 = EDGE_CURVE ( 'NONE', #153, #153, #206, .T. ) ;
#119 = EDGE_LOOP ( 'NONE', ( #75, #166 ) ) ;
#120 = APPROVAL ( #39, 'UNSPECIFIED' ) ;
#121 = PLANE ( 'NONE',  #41 ) ;
#122 = VECTOR ( 'NONE', #230, 1000.000000000000000 ) ;
#123 = CC_DESIGN_APPROVAL ( #162, ( #301 ) ) ;
#124 = CALENDAR_DATE ( 2021, 3, 12 ) ;
#125 = EDGE_CURVE ( 'NONE', #150, #150, #142, .T. ) ;
#126 = FACE_BOUND ( 'NONE', #11, .T. ) ;
#127 = CARTESIAN_POINT ( 'NONE',  ( 3.142333204958820020E-15, -1.102182119232617788E-16, 0.9000000000000000222 ) ) ;
#128 = AXIS2_PLACEMENT_3D ( 'NONE', #102, #220, #277 ) ;
#129 = FACE_OUTER_BOUND ( 'NONE', #13, .T. ) ;
#130 = ADVANCED_FACE ( 'NONE', ( #54 ), #121, .F. ) ;
#131 = CARTESIAN_POINT ( 'NONE',  ( 0.0000000000000000000, 0.0000000000000000000, 0.0000000000000000000 ) ) ;
#132 = APPLICATION_PROTOCOL_DEFINITION ( 'international standard', 'config_control_design', 1994, #287 ) ;
#133 = CARTESIAN_POINT ( 'NONE',  ( 4.499232477825729317E-14, -1.578118316512259175E-15, 12.88631397731171546 ) ) ;
#134 = LINE ( 'NONE', #59, #89 ) ;
#135 = EDGE_LOOP ( 'NONE', ( #263 ) ) ;
#136 = FACE_OUTER_BOUND ( 'NONE', #218, .T. ) ;
#137 = AXIS2_PLACEMENT_3D ( 'NONE', #293, #165, #149 ) ;
#138 = CONICAL_SURFACE ( 'NONE', #262, 0.5525459036729889473, 0.5235987755983002589 ) ;
#139 = ORIENTED_EDGE ( 'NONE', *, *, #49, .F. ) ;
#140 = PERSON_AND_ORGANIZATION ( #221, #105 ) ;
#141 = ORIENTED_EDGE ( 'NONE', *, *, #71, .F. ) ;
#142 = CIRCLE ( 'NONE', #157, 1.200000000000005063 ) ;
#143 = CC_DESIGN_SECURITY_CLASSIFICATION ( #196, ( #100 ) ) ;
#144 = ORIENTED_EDGE ( 'NONE', *, *, #174, .F. ) ;
#145 = CARTESIAN_POINT ( 'NONE',  ( 1.606081415867841091E-13, -5.633375276077824704E-15, 46.00000000000000000 ) ) ;
#146 = DATE_AND_TIME ( #72, #297 ) ;
#147 = DIRECTION ( 'NONE',  ( 4.275831445896958607E-31, 1.000000000000000000, 1.224646799147353207E-16 ) ) ;
#148 = FACE_OUTER_BOUND ( 'NONE', #77, .T. ) ;
#149 = DIRECTION ( 'NONE',  ( 0.0000000000000000000, 1.000000000000000000, 0.0000000000000000000 ) ) ;
#150 = VERTEX_POINT ( 'NONE', #251 ) ;
#151 = CALENDAR_DATE ( 2021, 3, 12 ) ;
#152 = AXIS2_PLACEMENT_3D ( 'NONE', #215, #183, #10 ) ;
#153 = VERTEX_POINT ( 'NONE', #83 ) ;
#154 = CARTESIAN_POINT ( 'NONE',  ( 1.256933281983528008E-14, -4.336808689942017736E-16, 3.600000000000000089 ) ) ;
#155 = CARTESIAN_POINT ( 'NONE',  ( -9.620620753268155332E-32, 3.374459510989178933E-33, -2.755455298081544470E-17 ) ) ;
#156 =( NAMED_UNIT ( * ) PLANE_ANGLE_UNIT ( ) SI_UNIT ( $, .RADIAN. ) );
#157 = AXIS2_PLACEMENT_3D ( 'NONE', #145, #42, #223 ) ;
#158 = APPROVAL_PERSON_ORGANIZATION ( #172, #120, #288 ) ;
#159 = EDGE_CURVE ( 'NONE', #267, #247, #249, .T. ) ;
#160 = PERSON_AND_ORGANIZATION ( #221, #105 ) ;
#161 = FACE_OUTER_BOUND ( 'NONE', #14, .T. ) ;
#162 = APPROVAL ( #273, 'UNSPECIFIED' ) ;
#163 = CALENDAR_DATE ( 2021, 3, 12 ) ;
#164 = CIRCLE ( 'NONE', #242, 1.499999999999995115 ) ;
#165 = DIRECTION ( 'NONE',  ( -3.491481338843133355E-15, 1.224646799147353207E-16, -1.000000000000000000 ) ) ;
#166 = ORIENTED_EDGE ( 'NONE', *, *, #159, .T. ) ;
#167 = DIRECTION ( 'NONE',  ( -3.491481338843133355E-15, 1.224646799147353207E-16, -1.000000000000000000 ) ) ;
#168 = AXIS2_PLACEMENT_3D ( 'NONE', #131, #106, #179 ) ;
#169 = DIRECTION ( 'NONE',  ( -3.491481338843133355E-15, 1.224646799147353207E-16, -1.000000000000000000 ) ) ;
#170 = CONICAL_SURFACE ( 'NONE', #222, 0.4500000000000000111, 0.03490658503988741668 ) ;
#171 = PLANE ( 'NONE',  #56 ) ;
#172 = PERSON_AND_ORGANIZATION ( #221, #105 ) ;
#173 = DIRECTION ( 'NONE',  ( 0.0000000000000000000, -1.000000000000000000, 0.0000000000000000000 ) ) ;
#174 = EDGE_CURVE ( 'NONE', #45, #45, #265, .T. ) ;
#175 = CARTESIAN_POINT ( 'NONE',  ( -1.924124150653631066E-31, 6.748919021978357867E-33, -5.510910596163088939E-17 ) ) ;
#176 = DATE_AND_TIME ( #151, #86 ) ;
#177 = APPROVAL_PERSON_ORGANIZATION ( #280, #8, #92 ) ;
#178 = CARTESIAN_POINT ( 'NONE',  ( 3.142333204958820020E-15, 3.138782065504194748E-33, 0.9000000000000000222 ) ) ;
#179 = DIRECTION ( 'NONE',  ( 4.275831445896959482E-31, 1.000000000000000000, 1.224646799147353207E-16 ) ) ;
#180 = MANIFOLD_SOLID_BREP ( 'Corps-Déplacer/Copier1[2]', #25 ) ;
#181 = ADVANCED_FACE ( 'NONE', ( #272, #46 ), #81, .T. ) ;
#182 =( LENGTH_UNIT ( ) NAMED_UNIT ( * ) SI_UNIT ( .MILLI., .METRE. ) );
#183 = DIRECTION ( 'NONE',  ( -3.491481338843133355E-15, 1.224646799147353207E-16, -1.000000000000000000 ) ) ;
#184 = DIRECTION ( 'NONE',  ( 4.275831445896959482E-31, 1.000000000000000000, 1.224646799147353207E-16 ) ) ;
#185 = ORIENTED_EDGE ( 'NONE', *, *, #174, .T. ) ;
#186 = COORDINATED_UNIVERSAL_TIME_OFFSET ( 1, 0, .AHEAD. ) ;
#187 = ORIENTED_EDGE ( 'NONE', *, *, #49, .T. ) ;
#188 = CLOSED_SHELL ( 'NONE', ( #208, #181, #246, #283, #76, #15, #130 ) ) ;
#189 = DIRECTION ( 'NONE',  ( -3.491481338843133355E-15, 1.224646799147353207E-16, -1.000000000000000000 ) ) ;
#190 = EDGE_LOOP ( 'NONE', ( #98 ) ) ;
#191 = CARTESIAN_POINT ( 'NONE',  ( 0.0000000000000000000, 0.0000000000000000000, 0.0000000000000000000 ) ) ;
#192 = ORIENTED_EDGE ( 'NONE', *, *, #103, .T. ) ;
#193 = DIRECTION ( 'NONE',  ( -3.491481338843133355E-15, 1.224646799147353207E-16, -1.000000000000000000 ) ) ;
#194 = DATE_AND_TIME ( #124, #7 ) ;
#195 = FACE_BOUND ( 'NONE', #135, .T. ) ;
#196 = SECURITY_CLASSIFICATION ( '', '', #241 ) ;
#197 = DIRECTION ( 'NONE',  ( 4.275831445896958607E-31, 1.000000000000000000, 1.224646799147353207E-16 ) ) ;
#198 = DIRECTION ( 'NONE',  ( 1.000000000000000000, 0.0000000000000000000, -3.491481338843133355E-15 ) ) ;
#199 = CC_DESIGN_PERSON_AND_ORGANIZATION_ASSIGNMENT ( #113, #217, ( #100 ) ) ;
#200 = CARTESIAN_POINT ( 'NONE',  ( -3.848248301307262133E-31, -0.4500000000000000111, -1.102182119232617788E-16 ) ) ;
#201 = PERSON_AND_ORGANIZATION ( #221, #105 ) ;
#202 = VERTEX_POINT ( 'NONE', #298 ) ;
#203 = DIRECTION ( 'NONE',  ( -3.491481338843133355E-15, 1.224646799147353207E-16, -1.000000000000000000 ) ) ;
#204 = PLANE ( 'NONE',  #243 ) ;
#205 = PERSON_AND_ORGANIZATION_ROLE ( 'design_owner' ) ;
#206 = CIRCLE ( 'NONE', #290, 0.4185713074574262671 ) ;
#207 = CARTESIAN_POINT ( 'NONE',  ( 0.0000000000000000000, 0.4500000000000000111, 0.0000000000000000000 ) ) ;
#208 = ADVANCED_FACE ( 'NONE', ( #63 ), #171, .F. ) ;
#209 = ORIENTED_EDGE ( 'NONE', *, *, #68, .T. ) ;
#210 = CARTESIAN_POINT ( 'NONE',  ( 1.431507348925684991E-14, 0.5525459036729883922, 4.100000000000001421 ) ) ;
#211 = DIRECTION ( 'NONE',  ( 0.0000000000000000000, 1.000000000000000000, 0.0000000000000000000 ) ) ;
#212 = DIRECTION ( 'NONE',  ( 3.489354422748178188E-15, 0.03489949670250167002, 0.9993908270190956511 ) ) ;
#213 = CC_DESIGN_PERSON_AND_ORGANIZATION_ASSIGNMENT ( #235, #205, ( #231 ) ) ;
#214 = FACE_OUTER_BOUND ( 'NONE', #53, .T. ) ;
#215 = CARTESIAN_POINT ( 'NONE',  ( -1.924124150653631066E-31, 6.748919021978357867E-33, -5.510910596163088939E-17 ) ) ;
#216 = EDGE_LOOP ( 'NONE', ( #141 ) ) ;
#217 = PERSON_AND_ORGANIZATION_ROLE ( 'design_supplier' ) ;
#218 = EDGE_LOOP ( 'NONE', ( #40, #187, #37, #285 ) ) ;
#219 = EDGE_LOOP ( 'NONE', ( #70 ) ) ;
#220 = DIRECTION ( 'NONE',  ( -3.491481338843133355E-15, 1.224646799147353207E-16, -1.000000000000000000 ) ) ;
#221 = PERSON ( 'UNSPECIFIED', 'UNSPECIFIED', 'UNSPECIFIED', ('UNSPECIFIED'), ('UNSPECIFIED'), ('UNSPECIFIED') ) ;
#222 = AXIS2_PLACEMENT_3D ( 'NONE', #175, #203, #4 ) ;
#223 = DIRECTION ( 'NONE',  ( 0.0000000000000000000, 1.000000000000000000, 0.0000000000000000000 ) ) ;
#224 = DATE_TIME_ROLE ( 'classification_date' ) ;
#225 = CARTESIAN_POINT ( 'NONE',  ( 3.142333204958820020E-15, -1.102182119232617788E-16, 0.9000000000000000222 ) ) ;
#226 = APPROVAL_ROLE ( '' ) ;
#227 =( GEOMETRIC_REPRESENTATION_CONTEXT ( 3 ) GLOBAL_UNCERTAINTY_ASSIGNED_CONTEXT ( ( #261 ) ) GLOBAL_UNIT_ASSIGNED_CONTEXT ( ( #182, #156, #240 ) ) REPRESENTATION_CONTEXT ( 'NONE', 'WORKASPACE' ) );
#228 = CARTESIAN_POINT ( 'NONE',  ( 1.256933281983528008E-14, 0.4185713074574259340, 3.600000000000000089 ) ) ;
#229 = MECHANICAL_CONTEXT ( 'NONE', #90, 'mechanical' ) ;
#230 = DIRECTION ( 'NONE',  ( -4.275831445896957731E-31, -1.000000000000000000, -1.224646799147352961E-16 ) ) ;
#231 = PRODUCT ( '997968', '997968', '', ( #229 ) ) ;
#232 = DIRECTION ( 'NONE',  ( -4.275831445896958607E-31, -1.000000000000000000, -1.224646799147353207E-16 ) ) ;
#233 = PERSON_AND_ORGANIZATION ( #221, #105 ) ;
#234 = CARTESIAN_POINT ( 'NONE',  ( 1.431507348925684991E-14, -5.021051876504149357E-16, 4.100000000000001421 ) ) ;
#235 = PERSON_AND_ORGANIZATION ( #221, #105 ) ;
#236 = EDGE_CURVE ( 'NONE', #247, #238, #134, .T. ) ;
#237 = AXIS2_PLACEMENT_3D ( 'NONE', #191, #198, #79 ) ;
#238 = VERTEX_POINT ( 'NONE', #207 ) ;
#239 = FACE_OUTER_BOUND ( 'NONE', #119, .T. ) ;
#240 =( NAMED_UNIT ( * ) SI_UNIT ( $, .STERADIAN. ) SOLID_ANGLE_UNIT ( ) );
#241 = SECURITY_CLASSIFICATION_LEVEL ( 'unclassified' ) ;
#242 = AXIS2_PLACEMENT_3D ( 'NONE', #93, #189, #211 ) ;
#243 = AXIS2_PLACEMENT_3D ( 'NONE', #155, #43, #295 ) ;
#244 = DATE_AND_TIME ( #163, #16 ) ;
#245 = ORIENTED_EDGE ( 'NONE', *, *, #159, .F. ) ;
#246 = ADVANCED_FACE ( 'NONE', ( #22, #148 ), #94, .F. ) ;
#247 = VERTEX_POINT ( 'NONE', #278 ) ;
#248 = EDGE_CURVE ( 'NONE', #21, #21, #82, .T. ) ;
#249 = LINE ( 'NONE', #18, #20 ) ;
#250 = DIRECTION ( 'NONE',  ( 0.0000000000000000000, 1.000000000000000000, 0.0000000000000000000 ) ) ;
#251 = CARTESIAN_POINT ( 'NONE',  ( 1.606081415867841091E-13, 1.199999999999999512, 46.00000000000000000 ) ) ;
#252 = CC_DESIGN_APPROVAL ( #120, ( #196 ) ) ;
#253 = CARTESIAN_POINT ( 'NONE',  ( 3.142333204958820020E-15, 3.138782065504194748E-33, 0.9000000000000000222 ) ) ;
#254 = CC_DESIGN_PERSON_AND_ORGANIZATION_ASSIGNMENT ( #160, #97, ( #100 ) ) ;
#255 = CARTESIAN_POINT ( 'NONE',  ( 1.431507348925684991E-14, -5.021051876504149357E-16, 4.100000000000001421 ) ) ;
#256 = LINE ( 'NONE', #84, #122 ) ;
#257 = CC_DESIGN_DATE_AND_TIME_ASSIGNMENT ( #146, #224, ( #196 ) ) ;
#258 = VECTOR ( 'NONE', #212, 1000.000000000000227 ) ;
#259 = AXIS2_PLACEMENT_3D ( 'NONE', #225, #300, #64 ) ;
#260 = ADVANCED_FACE ( 'NONE', ( #136 ), #170, .T. ) ;
#261 = UNCERTAINTY_MEASURE_WITH_UNIT (LENGTH_MEASURE( 1.000000000000000082E-05 ), #182, 'distance_accuracy_value', 'NONE');
#262 = AXIS2_PLACEMENT_3D ( 'NONE', #234, #85, #173 ) ;
#263 = ORIENTED_EDGE ( 'NONE', *, *, #125, .T. ) ;
#264 = DIRECTION ( 'NONE',  ( 0.0000000000000000000, 1.000000000000000000, 0.0000000000000000000 ) ) ;
#265 = CIRCLE ( 'NONE', #128, 0.4185713074574263226 ) ;
#266 = AXIS2_PLACEMENT_3D ( 'NONE', #255, #87, #250 ) ;
#267 = VERTEX_POINT ( 'NONE', #48 ) ;
#268 = CARTESIAN_POINT ( 'NONE',  ( 0.0000000000000000000, 0.0000000000000000000, 0.0000000000000000000 ) ) ;
#269 = AXIS2_PLACEMENT_3D ( 'NONE', #268, #44, #23 ) ;
#270 = DIRECTION ( 'NONE',  ( -3.489354422748178188E-15, 0.03489949670250191982, -0.9993908270190956511 ) ) ;
#271 = ADVANCED_FACE ( 'NONE', ( #26 ), #204, .T. ) ;
#272 = FACE_OUTER_BOUND ( 'NONE', #55, .T. ) ;
#273 = APPROVAL_STATUS ( 'not_yet_approved' ) ;
#274 = APPROVAL_DATE_TIME ( #176, #162 ) ;
#275 = CIRCLE ( 'NONE', #137, 1.500000000000005107 ) ;
#276 = AXIS2_PLACEMENT_3D ( 'NONE', #154, #107, #24 ) ;
#277 = DIRECTION ( 'NONE',  ( 0.0000000000000000000, 1.000000000000000000, 0.0000000000000000000 ) ) ;
#278 = CARTESIAN_POINT ( 'NONE',  ( 3.142333204958820020E-15, 0.4185713074574261561, 0.9000000000000000222 ) ) ;
#279 = FACE_OUTER_BOUND ( 'NONE', #216, .T. ) ;
#280 = PERSON_AND_ORGANIZATION ( #221, #105 ) ;
#281 = ADVANCED_FACE ( 'NONE', ( #239 ), #61, .T. ) ;
#282 = EDGE_LOOP ( 'NONE', ( #5 ) ) ;
#283 = ADVANCED_FACE ( 'NONE', ( #129, #126 ), #138, .T. ) ;
#284 = MANIFOLD_SOLID_BREP ( 'Corps-Déplacer/Copier1[1]', #188 ) ;
#285 = ORIENTED_EDGE ( 'NONE', *, *, #236, .T. ) ;
#286 = FACE_OUTER_BOUND ( 'NONE', #114, .T. ) ;
#287 = APPLICATION_CONTEXT ( 'configuration controlled 3d designs of mechanical parts and assemblies' ) ;
#288 = APPROVAL_ROLE ( '' ) ;
#289 = ORIENTED_EDGE ( 'NONE', *, *, #103, .F. ) ;
#290 = AXIS2_PLACEMENT_3D ( 'NONE', #127, #193, #101 ) ;
#291 = CIRCLE ( 'NONE', #259, 0.4185713074574262671 ) ;
#292 = ORIENTED_EDGE ( 'NONE', *, *, #248, .F. ) ;
#293 = CARTESIAN_POINT ( 'NONE',  ( 1.595606971851311880E-13, -5.596635872103403844E-15, 45.69999999999999574 ) ) ;
#294 = EDGE_CURVE ( 'NONE', #267, #247, #291, .T. ) ;
#295 = DIRECTION ( 'NONE',  ( 4.275831445896958607E-31, 1.000000000000000000, 1.224646799147353207E-16 ) ) ;
#296 = AXIS2_PLACEMENT_3D ( 'NONE', #88, #65, #184 ) ;
#297 = LOCAL_TIME ( 15, 5, 31.00000000000000000, #95 ) ;
#298 = CARTESIAN_POINT ( 'NONE',  ( 1.595606971851311880E-13, 1.499999999999999334, 45.69999999999999574 ) ) ;
#299 = ADVANCED_BREP_SHAPE_REPRESENTATION ( '997968', ( #284, #180, #269 ), #227 ) ;
#300 = DIRECTION ( 'NONE',  ( -3.491481338843133355E-15, 1.224646799147353207E-16, -1.000000000000000000 ) ) ;
#301 = PRODUCT_DEFINITION ( 'UNKNOWN', '', #100, #50 ) ;
ENDSEC;
END-ISO-10303-21;
