ISO-10303-21;
HEADER;
FILE_DESCRIPTION (( 'STEP AP203' ),
    '1' );
FILE_NAME ('997967.step',
    '2021-12-03T14:05:30',
    ( '' ),
    ( '' ),
    'SwSTEP 2.0',
    'SolidWorks 2019',
    '' );
FILE_SCHEMA (( 'CONFIG_CONTROL_DESIGN' ));
ENDSEC;

DATA;
#1 = DIRECTION ( 'NONE',  ( -3.489354422748178188E-15, 0.03489949670250191982, -0.9993908270190956511 ) ) ;
#2 = CC_DESIGN_DATE_AND_TIME_ASSIGNMENT ( #153, #248, ( #128 ) ) ;
#3 = CONICAL_SURFACE ( 'NONE', #132, 0.5525459036729879481, 0.5235987755983001479 ) ;
#4 = AXIS2_PLACEMENT_3D ( 'NONE', #86, #230, #254 ) ;
#5 = COORDINATED_UNIVERSAL_TIME_OFFSET ( 1, 0, .AHEAD. ) ;
#6 = DIRECTION ( 'NONE',  ( 0.0000000000000000000, 1.000000000000000000, 0.0000000000000000000 ) ) ;
#7 = ORIENTED_EDGE ( 'NONE', *, *, #155, .T. ) ;
#8 = APPROVAL_ROLE ( '' ) ;
#9 = DIRECTION ( 'NONE',  ( -3.491481338843133355E-15, 1.224646799147353207E-16, -1.000000000000000000 ) ) ;
#10 = APPROVAL_PERSON_ORGANIZATION ( #282, #126, #73 ) ;
#11 = DATE_AND_TIME ( #122, #34 ) ;
#12 = PLANE ( 'NONE',  #84 ) ;
#13 = APPROVAL_DATE_TIME ( #11, #237 ) ;
#14 = CARTESIAN_POINT ( 'NONE',  ( 0.0000000000000000000, 0.0000000000000000000, 0.0000000000000000000 ) ) ;
#15 = ORIENTED_EDGE ( 'NONE', *, *, #274, .F. ) ;
#16 = AXIS2_PLACEMENT_3D ( 'NONE', #14, #106, #203 ) ;
#17 = CARTESIAN_POINT ( 'NONE',  ( 1.117274028429802989E-14, 0.5525459036729875040, 3.200000000000001066 ) ) ;
#18 = ADVANCED_FACE ( 'NONE', ( #213, #162 ), #3, .T. ) ;
#19 =( LENGTH_UNIT ( ) NAMED_UNIT ( * ) SI_UNIT ( .MILLI., .METRE. ) );
#20 = VERTEX_POINT ( 'NONE', #139 ) ;
#21 = VERTEX_POINT ( 'NONE', #212 ) ;
#22 = ORGANIZATION ( 'UNSPECIFIED', 'UNSPECIFIED', '' ) ;
#23 = DIRECTION ( 'NONE',  ( 4.385628888384508736E-31, 1.000000000000000000, 1.224646799147353207E-16 ) ) ;
#24 = PERSON_AND_ORGANIZATION ( #285, #22 ) ;
#25 = AXIS2_PLACEMENT_3D ( 'NONE', #157, #101, #291 ) ;
#26 = ADVANCED_FACE ( 'NONE', ( #136, #231 ), #181, .F. ) ;
#27 = CARTESIAN_POINT ( 'NONE',  ( 3.142333204958820020E-15, 3.138782065504194748E-33, 0.9000000000000000222 ) ) ;
#28 = PERSON_AND_ORGANIZATION ( #285, #22 ) ;
#29 = FACE_OUTER_BOUND ( 'NONE', #176, .T. ) ;
#30 = FACE_OUTER_BOUND ( 'NONE', #179, .T. ) ;
#31 = AXIS2_PLACEMENT_3D ( 'NONE', #63, #140, #183 ) ;
#32 = PERSON_AND_ORGANIZATION ( #285, #22 ) ;
#33 = ORIENTED_EDGE ( 'NONE', *, *, #295, .T. ) ;
#34 = LOCAL_TIME ( 15, 5, 30.00000000000000000, #5 ) ;
#35 = EDGE_LOOP ( 'NONE', ( #234 ) ) ;
#36 = ORIENTED_EDGE ( 'NONE', *, *, #100, .F. ) ;
#37 = DIRECTION ( 'NONE',  ( -3.491481338843133355E-15, 1.224646799147353207E-16, -1.000000000000000000 ) ) ;
#38 = CARTESIAN_POINT ( 'NONE',  ( 1.606081415867841091E-13, 1.199999999999999512, 46.00000000000000000 ) ) ;
#39 = DIRECTION ( 'NONE',  ( 3.491481338843133355E-15, -1.224646799147353207E-16, 1.000000000000000000 ) ) ;
#40 = EDGE_CURVE ( 'NONE', #20, #20, #112, .T. ) ;
#41 = FACE_OUTER_BOUND ( 'NONE', #149, .T. ) ;
#42 = DIRECTION ( 'NONE',  ( 0.0000000000000000000, 0.0000000000000000000, 1.000000000000000000 ) ) ;
#43 = ADVANCED_FACE ( 'NONE', ( #188 ), #276, .F. ) ;
#44 = CIRCLE ( 'NONE', #163, 0.4185713074574262671 ) ;
#45 = FACE_BOUND ( 'NONE', #80, .T. ) ;
#46 = LINE ( 'NONE', #48, #158 ) ;
#47 = APPROVAL_STATUS ( 'not_yet_approved' ) ;
#48 = CARTESIAN_POINT ( 'NONE',  ( 4.499232477825729317E-14, -1.578118316512259175E-15, 12.88631397731171546 ) ) ;
#49 = FACE_OUTER_BOUND ( 'NONE', #257, .T. ) ;
#50 = VECTOR ( 'NONE', #190, 1000.000000000000227 ) ;
#51 = CIRCLE ( 'NONE', #133, 0.4185713074574262671 ) ;
#52 = LINE ( 'NONE', #151, #116 ) ;
#53 = PERSON_AND_ORGANIZATION_ROLE ( 'creator' ) ;
#54 = CIRCLE ( 'NONE', #189, 0.5525459036729879481 ) ;
#55 = EDGE_LOOP ( 'NONE', ( #33 ) ) ;
#56 = SECURITY_CLASSIFICATION_LEVEL ( 'unclassified' ) ;
#57 = PERSON_AND_ORGANIZATION ( #285, #22 ) ;
#58 = APPROVAL_DATE_TIME ( #146, #126 ) ;
#59 = CARTESIAN_POINT ( 'NONE',  ( 9.426999614876461637E-15, -3.306546357697853733E-16, 2.700000000000000178 ) ) ;
#60 = VECTOR ( 'NONE', #283, 1000.000000000000000 ) ;
#61 = CIRCLE ( 'NONE', #147, 1.499999999999995115 ) ;
#62 = CYLINDRICAL_SURFACE ( 'NONE', #16, 1.500000000000000000 ) ;
#63 = CARTESIAN_POINT ( 'NONE',  ( -1.924124150653631066E-31, 6.748919021978357867E-33, -5.510910596163088939E-17 ) ) ;
#64 = DIRECTION ( 'NONE',  ( -3.491481338843133355E-15, 1.224646799147353207E-16, -1.000000000000000000 ) ) ;
#65 = APPLICATION_CONTEXT ( 'configuration controlled 3d designs of mechanical parts and assemblies' ) ;
#66 = EDGE_CURVE ( 'NONE', #167, #103, #46, .T. ) ;
#67 = DIRECTION ( 'NONE',  ( 1.000000000000000000, 0.0000000000000000000, 0.0000000000000000000 ) ) ;
#68 = DIRECTION ( 'NONE',  ( -3.491481338843133355E-15, 1.224646799147353207E-16, -1.000000000000000000 ) ) ;
#69 = AXIS2_PLACEMENT_3D ( 'NONE', #59, #154, #247 ) ;
#70 = CALENDAR_DATE ( 2021, 3, 12 ) ;
#71 = CC_DESIGN_APPROVAL ( #126, ( #239 ) ) ;
#72 = ADVANCED_FACE ( 'NONE', ( #49, #29 ), #94, .T. ) ;
#73 = APPROVAL_ROLE ( '' ) ;
#74 = PRODUCT_RELATED_PRODUCT_CATEGORY ( 'detail', '', ( #164 ) ) ;
#75 = CONICAL_SURFACE ( 'NONE', #31, 0.4500000000000000111, 0.03490658503988741668 ) ;
#76 = ORIENTED_EDGE ( 'NONE', *, *, #66, .F. ) ;
#77 = DIRECTION ( 'NONE',  ( 4.275831445896958607E-31, 1.000000000000000000, 1.224646799147353207E-16 ) ) ;
#78 = EDGE_LOOP ( 'NONE', ( #15 ) ) ;
#79 = ORIENTED_EDGE ( 'NONE', *, *, #299, .F. ) ;
#80 = EDGE_LOOP ( 'NONE', ( #7 ) ) ;
#81 = FACE_OUTER_BOUND ( 'NONE', #195, .T. ) ;
#82 = ORIENTED_EDGE ( 'NONE', *, *, #155, .F. ) ;
#83 = VERTEX_POINT ( 'NONE', #96 ) ;
#84 = AXIS2_PLACEMENT_3D ( 'NONE', #124, #9, #77 ) ;
#85 = CONICAL_SURFACE ( 'NONE', #4, 1.200000000000005063, 0.7853981633974453924 ) ;
#86 = CARTESIAN_POINT ( 'NONE',  ( 1.606081415867841091E-13, -5.633375276077824704E-15, 46.00000000000000000 ) ) ;
#87 = AXIS2_PLACEMENT_3D ( 'NONE', #215, #284, #6 ) ;
#88 = LOCAL_TIME ( 15, 5, 30.00000000000000000, #119 ) ;
#89 = AXIS2_PLACEMENT_3D ( 'NONE', #185, #113, #206 ) ;
#90 = CC_DESIGN_DATE_AND_TIME_ASSIGNMENT ( #117, #279, ( #241 ) ) ;
#91 = CARTESIAN_POINT ( 'NONE',  ( 0.0000000000000000000, 0.0000000000000000000, 0.0000000000000000000 ) ) ;
#92 = APPROVAL_ROLE ( '' ) ;
#93 = DIRECTION ( 'NONE',  ( 0.0000000000000000000, -1.000000000000000000, 0.0000000000000000000 ) ) ;
#94 = CYLINDRICAL_SURFACE ( 'NONE', #243, 0.4185713074574263226 ) ;
#95 = DATE_AND_TIME ( #70, #194 ) ;
#96 = CARTESIAN_POINT ( 'NONE',  ( 3.142333204958819625E-15, -0.4185713074574263226, 0.8999999999999999112 ) ) ;
#97 = EDGE_LOOP ( 'NONE', ( #262 ) ) ;
#98 = DIRECTION ( 'NONE',  ( -3.491481338843133355E-15, 1.224646799147353207E-16, -1.000000000000000000 ) ) ;
#99 = AXIS2_PLACEMENT_3D ( 'NONE', #165, #296, #232 ) ;
#100 = EDGE_CURVE ( 'NONE', #83, #167, #118, .T. ) ;
#101 = DIRECTION ( 'NONE',  ( 3.491481338843133355E-15, -1.224646799147353207E-16, 1.000000000000000000 ) ) ;
#102 = SHAPE_DEFINITION_REPRESENTATION ( #137, #105 ) ;
#103 = VERTEX_POINT ( 'NONE', #172 ) ;
#104 = APPROVAL_PERSON_ORGANIZATION ( #57, #237, #8 ) ;
#105 = ADVANCED_BREP_SHAPE_REPRESENTATION ( '997967', ( #268, #169, #228 ), #222 ) ;
#106 = DIRECTION ( 'NONE',  ( -3.491481338843133355E-15, 1.224646799147353207E-16, -1.000000000000000000 ) ) ;
#107 = ORIENTED_EDGE ( 'NONE', *, *, #108, .T. ) ;
#108 = EDGE_CURVE ( 'NONE', #205, #83, #170, .T. ) ;
#109 = PERSON_AND_ORGANIZATION_ROLE ( 'design_owner' ) ;
#110 = CARTESIAN_POINT ( 'NONE',  ( 1.117274028429802989E-14, -3.918869757271531446E-16, 3.200000000000001066 ) ) ;
#111 = VERTEX_POINT ( 'NONE', #38 ) ;
#112 = CIRCLE ( 'NONE', #204, 1.500000000000005107 ) ;
#113 = DIRECTION ( 'NONE',  ( 1.000000000000000000, 0.0000000000000000000, -3.491481338843133355E-15 ) ) ;
#114 = PERSON_AND_ORGANIZATION_ROLE ( 'creator' ) ;
#115 = EDGE_CURVE ( 'NONE', #103, #205, #52, .T. ) ;
#116 = VECTOR ( 'NONE', #242, 1000.000000000000000 ) ;
#117 = DATE_AND_TIME ( #300, #177 ) ;
#118 = LINE ( 'NONE', #286, #60 ) ;
#119 = COORDINATED_UNIVERSAL_TIME_OFFSET ( 1, 0, .AHEAD. ) ;
#120 = DIRECTION ( 'NONE',  ( 3.491481338843133355E-15, -1.224646799147353207E-16, 1.000000000000000000 ) ) ;
#121 = UNCERTAINTY_MEASURE_WITH_UNIT (LENGTH_MEASURE( 1.000000000000000082E-05 ), #19, 'distance_accuracy_value', 'NONE');
#122 = CALENDAR_DATE ( 2021, 3, 12 ) ;
#123 = PLANE ( 'NONE',  #186 ) ;
#124 = CARTESIAN_POINT ( 'NONE',  ( -9.620620753268155332E-32, 3.374459510989178933E-33, -2.755455298081544470E-17 ) ) ;
#125 = ORIENTED_EDGE ( 'NONE', *, *, #295, .F. ) ;
#126 = APPROVAL ( #171, 'UNSPECIFIED' ) ;
#127 = AXIS2_PLACEMENT_3D ( 'NONE', #184, #68, #272 ) ;
#128 = SECURITY_CLASSIFICATION ( '', '', #56 ) ;
#129 = ORIENTED_EDGE ( 'NONE', *, *, #159, .T. ) ;
#130 = APPROVAL_STATUS ( 'not_yet_approved' ) ;
#131 = ORIENTED_EDGE ( 'NONE', *, *, #40, .F. ) ;
#132 = AXIS2_PLACEMENT_3D ( 'NONE', #110, #39, #93 ) ;
#133 = AXIS2_PLACEMENT_3D ( 'NONE', #166, #37, #293 ) ;
#134 = VERTEX_POINT ( 'NONE', #17 ) ;
#135 = FACE_OUTER_BOUND ( 'NONE', #156, .T. ) ;
#136 = FACE_OUTER_BOUND ( 'NONE', #35, .T. ) ;
#137 = PRODUCT_DEFINITION_SHAPE ( 'NONE', 'NONE',  #241 ) ;
#138 = CC_DESIGN_PERSON_AND_ORGANIZATION_ASSIGNMENT ( #246, #265, ( #128 ) ) ;
#139 = CARTESIAN_POINT ( 'NONE',  ( 1.595606971851311880E-13, 1.499999999999999334, 45.69999999999999574 ) ) ;
#140 = DIRECTION ( 'NONE',  ( -3.491481338843133355E-15, 1.224646799147353207E-16, -1.000000000000000000 ) ) ;
#141 = DIRECTION ( 'NONE',  ( 0.0000000000000000000, 1.000000000000000000, 0.0000000000000000000 ) ) ;
#142 = CC_DESIGN_PERSON_AND_ORGANIZATION_ASSIGNMENT ( #24, #114, ( #241 ) ) ;
#143 = APPROVAL_DATE_TIME ( #95, #173 ) ;
#144 = DIRECTION ( 'NONE',  ( 4.275831445896959482E-31, 1.000000000000000000, 1.224646799147353207E-16 ) ) ;
#145 = CLOSED_SHELL ( 'NONE', ( #168, #269, #148, #229 ) ) ;
#146 = DATE_AND_TIME ( #260, #88 ) ;
#147 = AXIS2_PLACEMENT_3D ( 'NONE', #208, #64, #294 ) ;
#148 = ADVANCED_FACE ( 'NONE', ( #30 ), #123, .T. ) ;
#149 = EDGE_LOOP ( 'NONE', ( #131 ) ) ;
#150 = CC_DESIGN_PERSON_AND_ORGANIZATION_ASSIGNMENT ( #32, #53, ( #239 ) ) ;
#151 = CARTESIAN_POINT ( 'NONE',  ( 0.0000000000000000000, 0.4500000000000000111, 0.0000000000000000000 ) ) ;
#152 = ORIENTED_EDGE ( 'NONE', *, *, #115, .F. ) ;
#153 = DATE_AND_TIME ( #160, #187 ) ;
#154 = DIRECTION ( 'NONE',  ( -3.491481338843133355E-15, 1.224646799147353207E-16, -1.000000000000000000 ) ) ;
#155 = EDGE_CURVE ( 'NONE', #111, #111, #235, .T. ) ;
#156 = EDGE_LOOP ( 'NONE', ( #79, #107, #129, #223 ) ) ;
#157 = CARTESIAN_POINT ( 'NONE',  ( 3.142333204958820020E-15, 3.138782065504194748E-33, 0.9000000000000000222 ) ) ;
#158 = VECTOR ( 'NONE', #1, 1000.000000000000227 ) ;
#159 = EDGE_CURVE ( 'NONE', #83, #167, #44, .T. ) ;
#160 = CALENDAR_DATE ( 2021, 3, 12 ) ;
#161 = VERTEX_POINT ( 'NONE', #233 ) ;
#162 = FACE_BOUND ( 'NONE', #78, .T. ) ;
#163 = AXIS2_PLACEMENT_3D ( 'NONE', #280, #244, #288 ) ;
#164 = PRODUCT ( '997967', '997967', '', ( #270 ) ) ;
#165 = CARTESIAN_POINT ( 'NONE',  ( -1.924124150653631066E-31, 6.748919021978357867E-33, -5.510910596163088939E-17 ) ) ;
#166 = CARTESIAN_POINT ( 'NONE',  ( 3.142333204958820020E-15, -1.102182119232617788E-16, 0.9000000000000000222 ) ) ;
#167 = VERTEX_POINT ( 'NONE', #263 ) ;
#168 = ADVANCED_FACE ( 'NONE', ( #226 ), #12, .T. ) ;
#169 = MANIFOLD_SOLID_BREP ( 'Corps-Déplacer/Copier1[2]', #145 ) ;
#170 = LINE ( 'NONE', #261, #50 ) ;
#171 = APPROVAL_STATUS ( 'not_yet_approved' ) ;
#172 = CARTESIAN_POINT ( 'NONE',  ( 0.0000000000000000000, 0.4500000000000000111, 0.0000000000000000000 ) ) ;
#173 = APPROVAL ( #47, 'UNSPECIFIED' ) ;
#174 = DESIGN_CONTEXT ( 'detailed design', #65, 'design' ) ;
#175 = PLANE ( 'NONE',  #89 ) ;
#176 = EDGE_LOOP ( 'NONE', ( #289 ) ) ;
#177 = LOCAL_TIME ( 15, 5, 30.00000000000000000, #214 ) ;
#178 = FACE_OUTER_BOUND ( 'NONE', #287, .T. ) ;
#179 = EDGE_LOOP ( 'NONE', ( #225, #245 ) ) ;
#180 = PLANE ( 'NONE',  #25 ) ;
#181 = TOROIDAL_SURFACE ( 'NONE', #255, 1.418571307457426212, 0.9999999999999997780 ) ;
#182 = APPLICATION_PROTOCOL_DEFINITION ( 'international standard', 'config_control_design', 1994, #251 ) ;
#183 = DIRECTION ( 'NONE',  ( 4.275831445896958607E-31, 1.000000000000000000, 1.224646799147352961E-16 ) ) ;
#184 = CARTESIAN_POINT ( 'NONE',  ( 1.606081415867841091E-13, 8.998558695971099120E-33, 46.00000000000000000 ) ) ;
#185 = CARTESIAN_POINT ( 'NONE',  ( 0.0000000000000000000, 0.0000000000000000000, 0.0000000000000000000 ) ) ;
#186 = AXIS2_PLACEMENT_3D ( 'NONE', #27, #120, #191 ) ;
#187 = LOCAL_TIME ( 15, 5, 30.00000000000000000, #218 ) ;
#188 = FACE_OUTER_BOUND ( 'NONE', #219, .T. ) ;
#189 = AXIS2_PLACEMENT_3D ( 'NONE', #273, #297, #252 ) ;
#190 = DIRECTION ( 'NONE',  ( 3.489354422748178188E-15, 0.03489949670250167002, 0.9993908270190956511 ) ) ;
#191 = DIRECTION ( 'NONE',  ( -4.275831445896958607E-31, -1.000000000000000000, -1.224646799147353207E-16 ) ) ;
#192 = CC_DESIGN_PERSON_AND_ORGANIZATION_ASSIGNMENT ( #266, #267, ( #239 ) ) ;
#193 = CLOSED_SHELL ( 'NONE', ( #202, #72, #26, #18, #216, #258, #43 ) ) ;
#194 = LOCAL_TIME ( 15, 5, 30.00000000000000000, #277 ) ;
#195 = EDGE_LOOP ( 'NONE', ( #152, #76, #36, #240 ) ) ;
#196 = CC_DESIGN_PERSON_AND_ORGANIZATION_ASSIGNMENT ( #227, #109, ( #164 ) ) ;
#197 = CARTESIAN_POINT ( 'NONE',  ( -3.848248301307262133E-31, -0.4500000000000000111, -1.102182119232617788E-16 ) ) ;
#198 = ORIENTED_EDGE ( 'NONE', *, *, #40, .T. ) ;
#199 = CIRCLE ( 'NONE', #69, 0.4185713074574263226 ) ;
#200 = EDGE_LOOP ( 'NONE', ( #125 ) ) ;
#201 = FACE_OUTER_BOUND ( 'NONE', #290, .T. ) ;
#202 = ADVANCED_FACE ( 'NONE', ( #201 ), #180, .F. ) ;
#203 = DIRECTION ( 'NONE',  ( 4.275831445896959482E-31, 1.000000000000000000, 1.224646799147353207E-16 ) ) ;
#204 = AXIS2_PLACEMENT_3D ( 'NONE', #298, #210, #141 ) ;
#205 = VERTEX_POINT ( 'NONE', #197 ) ;
#206 = DIRECTION ( 'NONE',  ( -3.491481338843133355E-15, 0.0000000000000000000, -1.000000000000000000 ) ) ;
#207 = DIRECTION ( 'NONE',  ( -3.491481338843133355E-15, 1.224646799147353207E-16, -1.000000000000000000 ) ) ;
#208 = CARTESIAN_POINT ( 'NONE',  ( 1.690239604661262359E-14, -5.928562466057338857E-16, 4.841038632677629572 ) ) ;
#209 =( NAMED_UNIT ( * ) SI_UNIT ( $, .STERADIAN. ) SOLID_ANGLE_UNIT ( ) );
#210 = DIRECTION ( 'NONE',  ( -3.491481338843133355E-15, 1.224646799147353207E-16, -1.000000000000000000 ) ) ;
#211 = CC_DESIGN_SECURITY_CLASSIFICATION ( #128, ( #239 ) ) ;
#212 = CARTESIAN_POINT ( 'NONE',  ( 1.690239604661262359E-14, 1.499999999999994449, 4.841038632677629572 ) ) ;
#213 = FACE_OUTER_BOUND ( 'NONE', #55, .T. ) ;
#214 = COORDINATED_UNIVERSAL_TIME_OFFSET ( 1, 0, .AHEAD. ) ;
#215 = CARTESIAN_POINT ( 'NONE',  ( 1.606081415867841091E-13, -5.633375276077824704E-15, 46.00000000000000000 ) ) ;
#216 = ADVANCED_FACE ( 'NONE', ( #250, #178 ), #62, .T. ) ;
#217 = ORIENTED_EDGE ( 'NONE', *, *, #220, .T. ) ;
#218 = COORDINATED_UNIVERSAL_TIME_OFFSET ( 1, 0, .AHEAD. ) ;
#219 = EDGE_LOOP ( 'NONE', ( #82 ) ) ;
#220 = EDGE_CURVE ( 'NONE', #271, #271, #199, .T. ) ;
#221 = APPROVAL_PERSON_ORGANIZATION ( #28, #173, #92 ) ;
#222 =( GEOMETRIC_REPRESENTATION_CONTEXT ( 3 ) GLOBAL_UNCERTAINTY_ASSIGNED_CONTEXT ( ( #121 ) ) GLOBAL_UNIT_ASSIGNED_CONTEXT ( ( #19, #275, #209 ) ) REPRESENTATION_CONTEXT ( 'NONE', 'WORKASPACE' ) );
#223 = ORIENTED_EDGE ( 'NONE', *, *, #66, .T. ) ;
#224 = ORIENTED_EDGE ( 'NONE', *, *, #299, .T. ) ;
#225 = ORIENTED_EDGE ( 'NONE', *, *, #159, .F. ) ;
#226 = FACE_OUTER_BOUND ( 'NONE', #292, .T. ) ;
#227 = PERSON_AND_ORGANIZATION ( #285, #22 ) ;
#228 = AXIS2_PLACEMENT_3D ( 'NONE', #91, #42, #67 ) ;
#229 = ADVANCED_FACE ( 'NONE', ( #81 ), #175, .T. ) ;
#230 = DIRECTION ( 'NONE',  ( -3.491481338843133355E-15, 1.224646799147353207E-16, -1.000000000000000000 ) ) ;
#231 = FACE_OUTER_BOUND ( 'NONE', #97, .T. ) ;
#232 = DIRECTION ( 'NONE',  ( 4.275831445896958607E-31, 1.000000000000000000, 1.224646799147352961E-16 ) ) ;
#233 = CARTESIAN_POINT ( 'NONE',  ( 3.142333204958820020E-15, 0.4185713074574261561, 0.9000000000000000222 ) ) ;
#234 = ORIENTED_EDGE ( 'NONE', *, *, #274, .T. ) ;
#235 = CIRCLE ( 'NONE', #87, 1.200000000000005063 ) ;
#236 = CARTESIAN_POINT ( 'NONE',  ( 9.426999614876461637E-15, 0.4185713074574259895, 2.700000000000000178 ) ) ;
#237 = APPROVAL ( #130, 'UNSPECIFIED' ) ;
#238 = CARTESIAN_POINT ( 'NONE',  ( 0.0000000000000000000, 0.0000000000000000000, 0.0000000000000000000 ) ) ;
#239 = PRODUCT_DEFINITION_FORMATION_WITH_SPECIFIED_SOURCE ( 'ANY', '', #164, .NOT_KNOWN. ) ;
#240 = ORIENTED_EDGE ( 'NONE', *, *, #108, .F. ) ;
#241 = PRODUCT_DEFINITION ( 'UNKNOWN', '', #239, #174 ) ;
#242 = DIRECTION ( 'NONE',  ( -4.275831445896957731E-31, -1.000000000000000000, -1.224646799147352961E-16 ) ) ;
#243 = AXIS2_PLACEMENT_3D ( 'NONE', #238, #98, #144 ) ;
#244 = DIRECTION ( 'NONE',  ( -3.491481338843133355E-15, 1.224646799147353207E-16, -1.000000000000000000 ) ) ;
#245 = ORIENTED_EDGE ( 'NONE', *, *, #100, .T. ) ;
#246 = PERSON_AND_ORGANIZATION ( #285, #22 ) ;
#247 = DIRECTION ( 'NONE',  ( 0.0000000000000000000, 1.000000000000000000, 0.0000000000000000000 ) ) ;
#248 = DATE_TIME_ROLE ( 'classification_date' ) ;
#249 = CC_DESIGN_APPROVAL ( #237, ( #128 ) ) ;
#250 = FACE_OUTER_BOUND ( 'NONE', #200, .T. ) ;
#251 = APPLICATION_CONTEXT ( 'configuration controlled 3d designs of mechanical parts and assemblies' ) ;
#252 = DIRECTION ( 'NONE',  ( 0.0000000000000000000, 1.000000000000000000, 0.0000000000000000000 ) ) ;
#253 = EDGE_CURVE ( 'NONE', #161, #161, #51, .T. ) ;
#254 = DIRECTION ( 'NONE',  ( 0.0000000000000000000, 1.000000000000000000, 0.0000000000000000000 ) ) ;
#255 = AXIS2_PLACEMENT_3D ( 'NONE', #278, #207, #23 ) ;
#256 = CIRCLE ( 'NONE', #99, 0.4500000000000000111 ) ;
#257 = EDGE_LOOP ( 'NONE', ( #217 ) ) ;
#258 = ADVANCED_FACE ( 'NONE', ( #41, #45 ), #85, .T. ) ;
#259 = APPLICATION_PROTOCOL_DEFINITION ( 'international standard', 'config_control_design', 1994, #65 ) ;
#260 = CALENDAR_DATE ( 2021, 3, 12 ) ;
#261 = CARTESIAN_POINT ( 'NONE',  ( 4.499232477825729317E-14, -1.578118316512259175E-15, 12.88631397731171546 ) ) ;
#262 = ORIENTED_EDGE ( 'NONE', *, *, #220, .F. ) ;
#263 = CARTESIAN_POINT ( 'NONE',  ( 3.142333204958820020E-15, 0.4185713074574261561, 0.9000000000000000222 ) ) ;
#264 = ORIENTED_EDGE ( 'NONE', *, *, #115, .T. ) ;
#265 = PERSON_AND_ORGANIZATION_ROLE ( 'classification_officer' ) ;
#266 = PERSON_AND_ORGANIZATION ( #285, #22 ) ;
#267 = PERSON_AND_ORGANIZATION_ROLE ( 'design_supplier' ) ;
#268 = MANIFOLD_SOLID_BREP ( 'Corps-Déplacer/Copier1[1]', #193 ) ;
#269 = ADVANCED_FACE ( 'NONE', ( #135 ), #75, .T. ) ;
#270 = MECHANICAL_CONTEXT ( 'NONE', #251, 'mechanical' ) ;
#271 = VERTEX_POINT ( 'NONE', #236 ) ;
#272 = DIRECTION ( 'NONE',  ( 4.275831445896958607E-31, 1.000000000000000000, 1.224646799147353207E-16 ) ) ;
#273 = CARTESIAN_POINT ( 'NONE',  ( 1.117274028429802989E-14, -3.918869757271531446E-16, 3.200000000000001066 ) ) ;
#274 = EDGE_CURVE ( 'NONE', #134, #134, #54, .T. ) ;
#275 =( NAMED_UNIT ( * ) PLANE_ANGLE_UNIT ( ) SI_UNIT ( $, .RADIAN. ) );
#276 = PLANE ( 'NONE',  #127 ) ;
#277 = COORDINATED_UNIVERSAL_TIME_OFFSET ( 1, 0, .AHEAD. ) ;
#278 = CARTESIAN_POINT ( 'NONE',  ( 9.426999614876461637E-15, -4.336808689942017736E-16, 2.700000000000000178 ) ) ;
#279 = DATE_TIME_ROLE ( 'creation_date' ) ;
#280 = CARTESIAN_POINT ( 'NONE',  ( 3.142333204958820020E-15, -1.102182119232617788E-16, 0.9000000000000000222 ) ) ;
#281 = ORIENTED_EDGE ( 'NONE', *, *, #253, .T. ) ;
#282 = PERSON_AND_ORGANIZATION ( #285, #22 ) ;
#283 = DIRECTION ( 'NONE',  ( 4.275831445896958607E-31, 1.000000000000000000, 1.224646799147353207E-16 ) ) ;
#284 = DIRECTION ( 'NONE',  ( -3.491481338843133355E-15, 1.224646799147353207E-16, -1.000000000000000000 ) ) ;
#285 = PERSON ( 'UNSPECIFIED', 'UNSPECIFIED', 'UNSPECIFIED', ('UNSPECIFIED'), ('UNSPECIFIED'), ('UNSPECIFIED') ) ;
#286 = CARTESIAN_POINT ( 'NONE',  ( 3.142333204958820020E-15, 3.138782065504194748E-33, 0.9000000000000000222 ) ) ;
#287 = EDGE_LOOP ( 'NONE', ( #198 ) ) ;
#288 = DIRECTION ( 'NONE',  ( 0.0000000000000000000, 1.000000000000000000, 0.0000000000000000000 ) ) ;
#289 = ORIENTED_EDGE ( 'NONE', *, *, #253, .F. ) ;
#290 = EDGE_LOOP ( 'NONE', ( #281 ) ) ;
#291 = DIRECTION ( 'NONE',  ( -4.275831445896958607E-31, -1.000000000000000000, -1.224646799147353207E-16 ) ) ;
#292 = EDGE_LOOP ( 'NONE', ( #224, #264 ) ) ;
#293 = DIRECTION ( 'NONE',  ( 0.0000000000000000000, 1.000000000000000000, 0.0000000000000000000 ) ) ;
#294 = DIRECTION ( 'NONE',  ( 0.0000000000000000000, 1.000000000000000000, 0.0000000000000000000 ) ) ;
#295 = EDGE_CURVE ( 'NONE', #21, #21, #61, .T. ) ;
#296 = DIRECTION ( 'NONE',  ( -3.491481338843133355E-15, 1.224646799147353207E-16, -1.000000000000000000 ) ) ;
#297 = DIRECTION ( 'NONE',  ( -3.491481338843133355E-15, 1.224646799147353207E-16, -1.000000000000000000 ) ) ;
#298 = CARTESIAN_POINT ( 'NONE',  ( 1.595606971851311880E-13, -5.596635872103403844E-15, 45.69999999999999574 ) ) ;
#299 = EDGE_CURVE ( 'NONE', #205, #103, #256, .T. ) ;
#300 = CALENDAR_DATE ( 2021, 3, 12 ) ;
#301 = CC_DESIGN_APPROVAL ( #173, ( #241 ) ) ;
ENDSEC;
END-ISO-10303-21;
