ISO-10303-21;
HEADER;
FILE_DESCRIPTION (( 'STEP AP203' ),
    '1' );
FILE_NAME ('997966.step',
    '2021-12-03T14:05:30',
    ( '' ),
    ( '' ),
    'SwSTEP 2.0',
    'SolidWorks 2019',
    '' );
FILE_SCHEMA (( 'CONFIG_CONTROL_DESIGN' ));
ENDSEC;

DATA;
#1 = DIRECTION ( 'NONE',  ( -4.275831445896958607E-31, -1.000000000000000000, -1.224646799147353207E-16 ) ) ;
#2 = DIRECTION ( 'NONE',  ( 0.0000000000000000000, 1.000000000000000000, 0.0000000000000000000 ) ) ;
#3 = AXIS2_PLACEMENT_3D ( 'NONE', #55, #208, #2 ) ;
#4 = DIRECTION ( 'NONE',  ( -3.491481338843133355E-15, 1.224646799147353207E-16, -1.000000000000000000 ) ) ;
#5 = DIRECTION ( 'NONE',  ( -4.275831445896958607E-31, -1.000000000000000000, -1.224646799147353207E-16 ) ) ;
#6 = PLANE ( 'NONE',  #247 ) ;
#7 = CLOSED_SHELL ( 'NONE', ( #138, #69, #92, #41 ) ) ;
#8 = APPROVAL_DATE_TIME ( #238, #184 ) ;
#9 = ORIENTED_EDGE ( 'NONE', *, *, #226, .T. ) ;
#10 = EDGE_CURVE ( 'NONE', #82, #82, #178, .T. ) ;
#11 = CARTESIAN_POINT ( 'NONE',  ( 4.499232477825729317E-14, -1.578118316512259175E-15, 12.88631397731171546 ) ) ;
#12 = DIRECTION ( 'NONE',  ( -3.489354422748178188E-15, 0.03489949670250191982, -0.9993908270190956511 ) ) ;
#13 = APPROVAL ( #225, 'UNSPECIFIED' ) ;
#14 = VECTOR ( 'NONE', #275, 1000.000000000000000 ) ;
#15 = VERTEX_POINT ( 'NONE', #292 ) ;
#16 = PRODUCT ( '997966', '997966', '', ( #284 ) ) ;
#17 = CARTESIAN_POINT ( 'NONE',  ( 0.0000000000000000000, 0.0000000000000000000, 0.0000000000000000000 ) ) ;
#18 = EDGE_LOOP ( 'NONE', ( #106 ) ) ;
#19 = APPROVAL_DATE_TIME ( #24, #159 ) ;
#20 = PRODUCT_DEFINITION_FORMATION_WITH_SPECIFIED_SOURCE ( 'ANY', '', #16, .NOT_KNOWN. ) ;
#21 = TOROIDAL_SURFACE ( 'NONE', #88, 1.418571307457426434, 0.9999999999999995559 ) ;
#22 = EDGE_LOOP ( 'NONE', ( #9 ) ) ;
#23 = EDGE_CURVE ( 'NONE', #15, #273, #85, .T. ) ;
#24 = DATE_AND_TIME ( #111, #151 ) ;
#25 = ORIENTED_EDGE ( 'NONE', *, *, #239, .T. ) ;
#26 = MANIFOLD_SOLID_BREP ( 'Corps-Déplacer/Copier1[1]', #214 ) ;
#27 = CALENDAR_DATE ( 2021, 3, 12 ) ;
#28 = FACE_OUTER_BOUND ( 'NONE', #67, .T. ) ;
#29 = APPROVAL_DATE_TIME ( #115, #13 ) ;
#30 = DIRECTION ( 'NONE',  ( 3.491481338843133355E-15, -1.224646799147353207E-16, 1.000000000000000000 ) ) ;
#31 = DIRECTION ( 'NONE',  ( 4.275831445896959482E-31, 1.000000000000000000, 1.224646799147353207E-16 ) ) ;
#32 = AXIS2_PLACEMENT_3D ( 'NONE', #213, #121, #253 ) ;
#33 = AXIS2_PLACEMENT_3D ( 'NONE', #180, #150, #222 ) ;
#34 = PLANE ( 'NONE',  #32 ) ;
#35 = FACE_OUTER_BOUND ( 'NONE', #127, .T. ) ;
#36 = EDGE_LOOP ( 'NONE', ( #173, #136, #25, #157 ) ) ;
#37 = AXIS2_PLACEMENT_3D ( 'NONE', #57, #170, #185 ) ;
#38 = EDGE_LOOP ( 'NONE', ( #162, #123, #71, #179 ) ) ;
#39 = CIRCLE ( 'NONE', #3, 0.4185713074574262671 ) ;
#40 = FACE_OUTER_BOUND ( 'NONE', #197, .T. ) ;
#41 = ADVANCED_FACE ( 'NONE', ( #90 ), #249, .T. ) ;
#42 = CARTESIAN_POINT ( 'NONE',  ( 1.595606971851311880E-13, 1.499999999999999334, 45.69999999999999574 ) ) ;
#43 = EDGE_LOOP ( 'NONE', ( #267 ) ) ;
#44 = CARTESIAN_POINT ( 'NONE',  ( 1.376006284165380042E-14, 1.499999999999994449, 3.941038632677629217 ) ) ;
#45 = AXIS2_PLACEMENT_3D ( 'NONE', #187, #143, #209 ) ;
#46 = CARTESIAN_POINT ( 'NONE',  ( 1.606081415867841091E-13, 1.199999999999999512, 46.00000000000000000 ) ) ;
#47 = EDGE_CURVE ( 'NONE', #107, #15, #227, .T. ) ;
#48 = UNCERTAINTY_MEASURE_WITH_UNIT (LENGTH_MEASURE( 1.000000000000000082E-05 ), #152, 'distance_accuracy_value', 'NONE');
#49 = ORIENTED_EDGE ( 'NONE', *, *, #84, .F. ) ;
#50 = CIRCLE ( 'NONE', #251, 0.4185713074574262671 ) ;
#51 = CONICAL_SURFACE ( 'NONE', #33, 1.200000000000005063, 0.7853981633974453924 ) ;
#52 = ORIENTED_EDGE ( 'NONE', *, *, #163, .T. ) ;
#53 = FACE_OUTER_BOUND ( 'NONE', #193, .T. ) ;
#54 =( GEOMETRIC_REPRESENTATION_CONTEXT ( 3 ) GLOBAL_UNCERTAINTY_ASSIGNED_CONTEXT ( ( #48 ) ) GLOBAL_UNIT_ASSIGNED_CONTEXT ( ( #152, #270, #266 ) ) REPRESENTATION_CONTEXT ( 'NONE', 'WORKASPACE' ) );
#55 = CARTESIAN_POINT ( 'NONE',  ( 3.142333204958820020E-15, -1.102182119232617788E-16, 0.9000000000000000222 ) ) ;
#56 = PERSON_AND_ORGANIZATION_ROLE ( 'creator' ) ;
#57 = CARTESIAN_POINT ( 'NONE',  ( -1.924124150653631066E-31, 6.748919021978357867E-33, -5.510910596163088939E-17 ) ) ;
#58 = CARTESIAN_POINT ( 'NONE',  ( -9.620620753268155332E-32, 3.374459510989178933E-33, -2.755455298081544470E-17 ) ) ;
#59 = CALENDAR_DATE ( 2021, 3, 12 ) ;
#60 = DIRECTION ( 'NONE',  ( -3.491481338843133355E-15, 1.224646799147353207E-16, -1.000000000000000000 ) ) ;
#61 = APPLICATION_PROTOCOL_DEFINITION ( 'international standard', 'config_control_design', 1994, #291 ) ;
#62 = CARTESIAN_POINT ( 'NONE',  ( 6.284666409917640828E-15, -2.168404344971008868E-16, 1.800000000000000266 ) ) ;
#63 = APPROVAL_PERSON_ORGANIZATION ( #201, #13, #182 ) ;
#64 = CONICAL_SURFACE ( 'NONE', #37, 0.4500000000000000111, 0.03490658503988741668 ) ;
#65 = VECTOR ( 'NONE', #12, 1000.000000000000227 ) ;
#66 = CC_DESIGN_APPROVAL ( #159, ( #125 ) ) ;
#67 = EDGE_LOOP ( 'NONE', ( #204, #176 ) ) ;
#68 = APPROVAL_ROLE ( '' ) ;
#69 = ADVANCED_FACE ( 'NONE', ( #231 ), #64, .T. ) ;
#70 = ADVANCED_BREP_SHAPE_REPRESENTATION ( '997966', ( #26, #119, #86 ), #54 ) ;
#71 = ORIENTED_EDGE ( 'NONE', *, *, #144, .F. ) ;
#72 = EDGE_CURVE ( 'NONE', #15, #107, #95, .T. ) ;
#73 = DIRECTION ( 'NONE',  ( 0.0000000000000000000, 1.000000000000000000, 0.0000000000000000000 ) ) ;
#74 = CC_DESIGN_PERSON_AND_ORGANIZATION_ASSIGNMENT ( #169, #56, ( #20 ) ) ;
#75 = FACE_OUTER_BOUND ( 'NONE', #134, .T. ) ;
#76 = CYLINDRICAL_SURFACE ( 'NONE', #108, 1.500000000000000000 ) ;
#77 = CARTESIAN_POINT ( 'NONE',  ( 1.595606971851311880E-13, -5.596635872103403844E-15, 45.69999999999999574 ) ) ;
#78 = FACE_OUTER_BOUND ( 'NONE', #293, .T. ) ;
#79 = AXIS2_PLACEMENT_3D ( 'NONE', #77, #145, #207 ) ;
#80 = AXIS2_PLACEMENT_3D ( 'NONE', #167, #60, #254 ) ;
#81 = ORIENTED_EDGE ( 'NONE', *, *, #239, .F. ) ;
#82 = VERTEX_POINT ( 'NONE', #104 ) ;
#83 = DIRECTION ( 'NONE',  ( 4.275831445896959482E-31, 1.000000000000000000, 1.224646799147353207E-16 ) ) ;
#84 = EDGE_CURVE ( 'NONE', #196, #196, #50, .T. ) ;
#85 = LINE ( 'NONE', #299, #124 ) ;
#86 = AXIS2_PLACEMENT_3D ( 'NONE', #17, #220, #290 ) ;
#87 = DIRECTION ( 'NONE',  ( -3.491481338843133355E-15, 1.224646799147353207E-16, -1.000000000000000000 ) ) ;
#88 = AXIS2_PLACEMENT_3D ( 'NONE', #62, #103, #248 ) ;
#89 = ORGANIZATION ( 'UNSPECIFIED', 'UNSPECIFIED', '' ) ;
#90 = FACE_OUTER_BOUND ( 'NONE', #38, .T. ) ;
#91 = AXIS2_PLACEMENT_3D ( 'NONE', #230, #228, #31 ) ;
#92 = ADVANCED_FACE ( 'NONE', ( #96 ), #235, .T. ) ;
#93 = PERSON_AND_ORGANIZATION_ROLE ( 'classification_officer' ) ;
#94 = DIRECTION ( 'NONE',  ( 0.0000000000000000000, 1.000000000000000000, 0.0000000000000000000 ) ) ;
#95 = CIRCLE ( 'NONE', #265, 0.4500000000000000111 ) ;
#96 = FACE_OUTER_BOUND ( 'NONE', #203, .T. ) ;
#97 = DIRECTION ( 'NONE',  ( 4.275831445896958607E-31, 1.000000000000000000, 1.224646799147353207E-16 ) ) ;
#98 = DIRECTION ( 'NONE',  ( -3.491481338843133355E-15, 1.224646799147353207E-16, -1.000000000000000000 ) ) ;
#99 = CARTESIAN_POINT ( 'NONE',  ( -1.924124150653631066E-31, 6.748919021978357867E-33, -5.510910596163088939E-17 ) ) ;
#100 = CC_DESIGN_PERSON_AND_ORGANIZATION_ASSIGNMENT ( #174, #262, ( #16 ) ) ;
#101 = ORIENTED_EDGE ( 'NONE', *, *, #210, .F. ) ;
#102 = PERSON_AND_ORGANIZATION ( #236, #89 ) ;
#103 = DIRECTION ( 'NONE',  ( -3.491481338843133355E-15, 1.224646799147353207E-16, -1.000000000000000000 ) ) ;
#104 = CARTESIAN_POINT ( 'NONE',  ( 6.284666409917640040E-15, 0.4185713074574261006, 1.800000000000000044 ) ) ;
#105 = CARTESIAN_POINT ( 'NONE',  ( 6.284666409917640040E-15, -2.204364238465235576E-16, 1.800000000000000044 ) ) ;
#106 = ORIENTED_EDGE ( 'NONE', *, *, #148, .F. ) ;
#107 = VERTEX_POINT ( 'NONE', #277 ) ;
#108 = AXIS2_PLACEMENT_3D ( 'NONE', #175, #154, #83 ) ;
#109 = CC_DESIGN_DATE_AND_TIME_ASSIGNMENT ( #139, #199, ( #294 ) ) ;
#110 = COORDINATED_UNIVERSAL_TIME_OFFSET ( 1, 0, .AHEAD. ) ;
#111 = CALENDAR_DATE ( 2021, 3, 12 ) ;
#112 = DIRECTION ( 'NONE',  ( 3.491481338843133355E-15, -1.224646799147353207E-16, 1.000000000000000000 ) ) ;
#113 = CARTESIAN_POINT ( 'NONE',  ( 0.0000000000000000000, 0.4500000000000000111, 0.0000000000000000000 ) ) ;
#114 = CARTESIAN_POINT ( 'NONE',  ( 3.142333204958820020E-15, -1.102182119232617788E-16, 0.9000000000000000222 ) ) ;
#115 = DATE_AND_TIME ( #27, #116 ) ;
#116 = LOCAL_TIME ( 15, 5, 30.00000000000000000, #110 ) ;
#117 = VECTOR ( 'NONE', #118, 1000.000000000000000 ) ;
#118 = DIRECTION ( 'NONE',  ( 4.275831445896958607E-31, 1.000000000000000000, 1.224646799147353207E-16 ) ) ;
#119 = MANIFOLD_SOLID_BREP ( 'Corps-Déplacer/Copier1[2]', #7 ) ;
#120 = PERSON_AND_ORGANIZATION_ROLE ( 'design_supplier' ) ;
#121 = DIRECTION ( 'NONE',  ( -3.491481338843133355E-15, 1.224646799147353207E-16, -1.000000000000000000 ) ) ;
#122 = CARTESIAN_POINT ( 'NONE',  ( 8.030407079339209873E-15, -2.816687638038913042E-16, 2.300000000000000711 ) ) ;
#123 = ORIENTED_EDGE ( 'NONE', *, *, #268, .F. ) ;
#124 = VECTOR ( 'NONE', #164, 1000.000000000000227 ) ;
#125 = SECURITY_CLASSIFICATION ( '', '', #211 ) ;
#126 = PRODUCT_RELATED_PRODUCT_CATEGORY ( 'detail', '', ( #16 ) ) ;
#127 = EDGE_LOOP ( 'NONE', ( #49 ) ) ;
#128 = VERTEX_POINT ( 'NONE', #44 ) ;
#129 = ORIENTED_EDGE ( 'NONE', *, *, #144, .T. ) ;
#130 = CC_DESIGN_APPROVAL ( #184, ( #294 ) ) ;
#131 = ORIENTED_EDGE ( 'NONE', *, *, #163, .F. ) ;
#132 = FACE_OUTER_BOUND ( 'NONE', #43, .T. ) ;
#133 = VERTEX_POINT ( 'NONE', #166 ) ;
#134 = EDGE_LOOP ( 'NONE', ( #223 ) ) ;
#135 = CC_DESIGN_PERSON_AND_ORGANIZATION_ASSIGNMENT ( #250, #271, ( #294 ) ) ;
#136 = ORIENTED_EDGE ( 'NONE', *, *, #23, .T. ) ;
#137 = CC_DESIGN_SECURITY_CLASSIFICATION ( #125, ( #20 ) ) ;
#138 = ADVANCED_FACE ( 'NONE', ( #28 ), #142, .T. ) ;
#139 = DATE_AND_TIME ( #165, #258 ) ;
#140 = APPLICATION_CONTEXT ( 'configuration controlled 3d designs of mechanical parts and assemblies' ) ;
#141 = AXIS2_PLACEMENT_3D ( 'NONE', #58, #98, #97 ) ;
#142 = PLANE ( 'NONE',  #141 ) ;
#143 = DIRECTION ( 'NONE',  ( -3.491481338843133355E-15, 1.224646799147353207E-16, -1.000000000000000000 ) ) ;
#144 = EDGE_CURVE ( 'NONE', #273, #133, #257, .T. ) ;
#145 = DIRECTION ( 'NONE',  ( -3.491481338843133355E-15, 1.224646799147353207E-16, -1.000000000000000000 ) ) ;
#146 = DIRECTION ( 'NONE',  ( 3.491481338843133355E-15, -1.224646799147353207E-16, 1.000000000000000000 ) ) ;
#147 = CARTESIAN_POINT ( 'NONE',  ( 3.142333204958820020E-15, 3.138782065504194748E-33, 0.9000000000000000222 ) ) ;
#148 = EDGE_CURVE ( 'NONE', #191, #191, #272, .T. ) ;
#149 = CALENDAR_DATE ( 2021, 3, 12 ) ;
#150 = DIRECTION ( 'NONE',  ( -3.491481338843133355E-15, 1.224646799147353207E-16, -1.000000000000000000 ) ) ;
#151 = LOCAL_TIME ( 15, 5, 30.00000000000000000, #301 ) ;
#152 =( LENGTH_UNIT ( ) NAMED_UNIT ( * ) SI_UNIT ( .MILLI., .METRE. ) );
#153 = CARTESIAN_POINT ( 'NONE',  ( 3.142333204958819625E-15, -0.4185713074574263226, 0.8999999999999999112 ) ) ;
#154 = DIRECTION ( 'NONE',  ( -3.491481338843133355E-15, 1.224646799147353207E-16, -1.000000000000000000 ) ) ;
#155 = ADVANCED_FACE ( 'NONE', ( #78, #35 ), #255, .T. ) ;
#156 = APPROVAL_ROLE ( '' ) ;
#157 = ORIENTED_EDGE ( 'NONE', *, *, #268, .T. ) ;
#158 = SHAPE_DEFINITION_REPRESENTATION ( #205, #70 ) ;
#159 = APPROVAL ( #289, 'UNSPECIFIED' ) ;
#160 = CIRCLE ( 'NONE', #79, 1.500000000000005107 ) ;
#161 = AXIS2_PLACEMENT_3D ( 'NONE', #224, #200, #281 ) ;
#162 = ORIENTED_EDGE ( 'NONE', *, *, #47, .F. ) ;
#163 = EDGE_CURVE ( 'NONE', #194, #194, #160, .T. ) ;
#164 = DIRECTION ( 'NONE',  ( 3.489354422748178188E-15, 0.03489949670250167002, 0.9993908270190956511 ) ) ;
#165 = CALENDAR_DATE ( 2021, 3, 12 ) ;
#166 = CARTESIAN_POINT ( 'NONE',  ( 3.142333204958820020E-15, 0.4185713074574261561, 0.9000000000000000222 ) ) ;
#167 = CARTESIAN_POINT ( 'NONE',  ( 1.606081415867841091E-13, -5.633375276077824704E-15, 46.00000000000000000 ) ) ;
#168 = DIRECTION ( 'NONE',  ( 4.275831445896958607E-31, 1.000000000000000000, 1.224646799147352961E-16 ) ) ;
#169 = PERSON_AND_ORGANIZATION ( #236, #89 ) ;
#170 = DIRECTION ( 'NONE',  ( -3.491481338843133355E-15, 1.224646799147353207E-16, -1.000000000000000000 ) ) ;
#171 = COORDINATED_UNIVERSAL_TIME_OFFSET ( 1, 0, .AHEAD. ) ;
#172 = FACE_BOUND ( 'NONE', #18, .T. ) ;
#173 = ORIENTED_EDGE ( 'NONE', *, *, #72, .F. ) ;
#174 = PERSON_AND_ORGANIZATION ( #236, #89 ) ;
#175 = CARTESIAN_POINT ( 'NONE',  ( 0.0000000000000000000, 0.0000000000000000000, 0.0000000000000000000 ) ) ;
#176 = ORIENTED_EDGE ( 'NONE', *, *, #47, .T. ) ;
#177 = CARTESIAN_POINT ( 'NONE',  ( 8.030407079339209873E-15, 0.5525459036729888362, 2.300000000000000711 ) ) ;
#178 = CIRCLE ( 'NONE', #278, 0.4185713074574263226 ) ;
#179 = ORIENTED_EDGE ( 'NONE', *, *, #23, .F. ) ;
#180 = CARTESIAN_POINT ( 'NONE',  ( 1.606081415867841091E-13, -5.633375276077824704E-15, 46.00000000000000000 ) ) ;
#181 = AXIS2_PLACEMENT_3D ( 'NONE', #122, #112, #260 ) ;
#182 = APPROVAL_ROLE ( '' ) ;
#183 = EDGE_LOOP ( 'NONE', ( #52 ) ) ;
#184 = APPROVAL ( #269, 'UNSPECIFIED' ) ;
#185 = DIRECTION ( 'NONE',  ( 4.275831445896958607E-31, 1.000000000000000000, 1.224646799147352961E-16 ) ) ;
#186 = FACE_OUTER_BOUND ( 'NONE', #261, .T. ) ;
#187 = CARTESIAN_POINT ( 'NONE',  ( 8.030407079339209873E-15, -2.816687638038913042E-16, 2.300000000000000711 ) ) ;
#188 = ADVANCED_FACE ( 'NONE', ( #280 ), #34, .F. ) ;
#189 = PERSON_AND_ORGANIZATION ( #236, #89 ) ;
#190 = CARTESIAN_POINT ( 'NONE',  ( 1.376006284165380042E-14, -4.826380346824719960E-16, 3.941038632677629217 ) ) ;
#191 = VERTEX_POINT ( 'NONE', #177 ) ;
#192 = LINE ( 'NONE', #11, #65 ) ;
#193 = EDGE_LOOP ( 'NONE', ( #286 ) ) ;
#194 = VERTEX_POINT ( 'NONE', #42 ) ;
#195 = CIRCLE ( 'NONE', #232, 1.499999999999994893 ) ;
#196 = VERTEX_POINT ( 'NONE', #242 ) ;
#197 = EDGE_LOOP ( 'NONE', ( #217 ) ) ;
#198 = COORDINATED_UNIVERSAL_TIME_OFFSET ( 1, 0, .AHEAD. ) ;
#199 = DATE_TIME_ROLE ( 'creation_date' ) ;
#200 = DIRECTION ( 'NONE',  ( 1.000000000000000000, 0.0000000000000000000, -3.491481338843133355E-15 ) ) ;
#201 = PERSON_AND_ORGANIZATION ( #236, #89 ) ;
#202 = LOCAL_TIME ( 15, 5, 30.00000000000000000, #198 ) ;
#203 = EDGE_LOOP ( 'NONE', ( #81, #129 ) ) ;
#204 = ORIENTED_EDGE ( 'NONE', *, *, #72, .T. ) ;
#205 = PRODUCT_DEFINITION_SHAPE ( 'NONE', 'NONE',  #294 ) ;
#206 = ADVANCED_FACE ( 'NONE', ( #75 ), #6, .F. ) ;
#207 = DIRECTION ( 'NONE',  ( 0.0000000000000000000, 1.000000000000000000, 0.0000000000000000000 ) ) ;
#208 = DIRECTION ( 'NONE',  ( -3.491481338843133355E-15, 1.224646799147353207E-16, -1.000000000000000000 ) ) ;
#209 = DIRECTION ( 'NONE',  ( 0.0000000000000000000, 1.000000000000000000, 0.0000000000000000000 ) ) ;
#210 = EDGE_CURVE ( 'NONE', #128, #128, #195, .T. ) ;
#211 = SECURITY_CLASSIFICATION_LEVEL ( 'unclassified' ) ;
#212 = CARTESIAN_POINT ( 'NONE',  ( 3.142333204958820020E-15, 3.138782065504194748E-33, 0.9000000000000000222 ) ) ;
#213 = CARTESIAN_POINT ( 'NONE',  ( 1.606081415867841091E-13, 8.998558695971099120E-33, 46.00000000000000000 ) ) ;
#214 = CLOSED_SHELL ( 'NONE', ( #206, #155, #263, #218, #246, #288, #188 ) ) ;
#215 = CIRCLE ( 'NONE', #80, 1.200000000000005063 ) ;
#216 = PERSON_AND_ORGANIZATION ( #236, #89 ) ;
#217 = ORIENTED_EDGE ( 'NONE', *, *, #148, .T. ) ;
#218 = ADVANCED_FACE ( 'NONE', ( #53, #172 ), #241, .T. ) ;
#219 = DATE_TIME_ROLE ( 'classification_date' ) ;
#220 = DIRECTION ( 'NONE',  ( 0.0000000000000000000, 0.0000000000000000000, 1.000000000000000000 ) ) ;
#221 = AXIS2_PLACEMENT_3D ( 'NONE', #147, #146, #1 ) ;
#222 = DIRECTION ( 'NONE',  ( 0.0000000000000000000, 1.000000000000000000, 0.0000000000000000000 ) ) ;
#223 = ORIENTED_EDGE ( 'NONE', *, *, #84, .T. ) ;
#224 = CARTESIAN_POINT ( 'NONE',  ( 0.0000000000000000000, 0.0000000000000000000, 0.0000000000000000000 ) ) ;
#225 = APPROVAL_STATUS ( 'not_yet_approved' ) ;
#226 = EDGE_CURVE ( 'NONE', #287, #287, #215, .T. ) ;
#227 = LINE ( 'NONE', #113, #14 ) ;
#228 = DIRECTION ( 'NONE',  ( -3.491481338843133355E-15, 1.224646799147353207E-16, -1.000000000000000000 ) ) ;
#229 = CC_DESIGN_PERSON_AND_ORGANIZATION_ASSIGNMENT ( #189, #93, ( #125 ) ) ;
#230 = CARTESIAN_POINT ( 'NONE',  ( 0.0000000000000000000, 0.0000000000000000000, 0.0000000000000000000 ) ) ;
#231 = FACE_OUTER_BOUND ( 'NONE', #36, .T. ) ;
#232 = AXIS2_PLACEMENT_3D ( 'NONE', #190, #282, #94 ) ;
#233 = APPROVAL_PERSON_ORGANIZATION ( #216, #184, #68 ) ;
#234 = CARTESIAN_POINT ( 'NONE',  ( 3.142333204958820020E-15, 3.138782065504194748E-33, 0.9000000000000000222 ) ) ;
#235 = PLANE ( 'NONE',  #221 ) ;
#236 = PERSON ( 'UNSPECIFIED', 'UNSPECIFIED', 'UNSPECIFIED', ('UNSPECIFIED'), ('UNSPECIFIED'), ('UNSPECIFIED') ) ;
#237 = EDGE_LOOP ( 'NONE', ( #298 ) ) ;
#238 = DATE_AND_TIME ( #149, #202 ) ;
#239 = EDGE_CURVE ( 'NONE', #273, #133, #39, .T. ) ;
#240 = DATE_AND_TIME ( #59, #295 ) ;
#241 = CONICAL_SURFACE ( 'NONE', #181, 0.5525459036729891693, 0.5235987755982995928 ) ;
#242 = CARTESIAN_POINT ( 'NONE',  ( 3.142333204958820020E-15, 0.4185713074574261561, 0.9000000000000000222 ) ) ;
#243 = CC_DESIGN_DATE_AND_TIME_ASSIGNMENT ( #240, #219, ( #125 ) ) ;
#244 = APPLICATION_PROTOCOL_DEFINITION ( 'international standard', 'config_control_design', 1994, #140 ) ;
#245 = EDGE_LOOP ( 'NONE', ( #131 ) ) ;
#246 = ADVANCED_FACE ( 'NONE', ( #186, #279 ), #76, .T. ) ;
#247 = AXIS2_PLACEMENT_3D ( 'NONE', #212, #30, #5 ) ;
#248 = DIRECTION ( 'NONE',  ( 4.330730167140733233E-31, 1.000000000000000000, 1.224646799147353207E-16 ) ) ;
#249 = PLANE ( 'NONE',  #161 ) ;
#250 = PERSON_AND_ORGANIZATION ( #236, #89 ) ;
#251 = AXIS2_PLACEMENT_3D ( 'NONE', #114, #276, #73 ) ;
#252 = DESIGN_CONTEXT ( 'detailed design', #291, 'design' ) ;
#253 = DIRECTION ( 'NONE',  ( 4.275831445896958607E-31, 1.000000000000000000, 1.224646799147353207E-16 ) ) ;
#254 = DIRECTION ( 'NONE',  ( 0.0000000000000000000, 1.000000000000000000, 0.0000000000000000000 ) ) ;
#255 = CYLINDRICAL_SURFACE ( 'NONE', #91, 0.4185713074574263226 ) ;
#256 = PERSON_AND_ORGANIZATION ( #236, #89 ) ;
#257 = LINE ( 'NONE', #234, #117 ) ;
#258 = LOCAL_TIME ( 15, 5, 30.00000000000000000, #274 ) ;
#259 = APPROVAL_PERSON_ORGANIZATION ( #102, #159, #156 ) ;
#260 = DIRECTION ( 'NONE',  ( 0.0000000000000000000, -1.000000000000000000, 0.0000000000000000000 ) ) ;
#261 = EDGE_LOOP ( 'NONE', ( #101 ) ) ;
#262 = PERSON_AND_ORGANIZATION_ROLE ( 'design_owner' ) ;
#263 = ADVANCED_FACE ( 'NONE', ( #40, #132 ), #21, .F. ) ;
#264 = FACE_BOUND ( 'NONE', #22, .T. ) ;
#265 = AXIS2_PLACEMENT_3D ( 'NONE', #99, #4, #168 ) ;
#266 =( NAMED_UNIT ( * ) SI_UNIT ( $, .STERADIAN. ) SOLID_ANGLE_UNIT ( ) );
#267 = ORIENTED_EDGE ( 'NONE', *, *, #10, .F. ) ;
#268 = EDGE_CURVE ( 'NONE', #133, #107, #192, .T. ) ;
#269 = APPROVAL_STATUS ( 'not_yet_approved' ) ;
#270 =( NAMED_UNIT ( * ) PLANE_ANGLE_UNIT ( ) SI_UNIT ( $, .RADIAN. ) );
#271 = PERSON_AND_ORGANIZATION_ROLE ( 'creator' ) ;
#272 = CIRCLE ( 'NONE', #45, 0.5525459036729891693 ) ;
#273 = VERTEX_POINT ( 'NONE', #153 ) ;
#274 = COORDINATED_UNIVERSAL_TIME_OFFSET ( 1, 0, .AHEAD. ) ;
#275 = DIRECTION ( 'NONE',  ( -4.275831445896957731E-31, -1.000000000000000000, -1.224646799147352961E-16 ) ) ;
#276 = DIRECTION ( 'NONE',  ( -3.491481338843133355E-15, 1.224646799147353207E-16, -1.000000000000000000 ) ) ;
#277 = CARTESIAN_POINT ( 'NONE',  ( 0.0000000000000000000, 0.4500000000000000111, 0.0000000000000000000 ) ) ;
#278 = AXIS2_PLACEMENT_3D ( 'NONE', #105, #87, #296 ) ;
#279 = FACE_OUTER_BOUND ( 'NONE', #183, .T. ) ;
#280 = FACE_OUTER_BOUND ( 'NONE', #237, .T. ) ;
#281 = DIRECTION ( 'NONE',  ( -3.491481338843133355E-15, 0.0000000000000000000, -1.000000000000000000 ) ) ;
#282 = DIRECTION ( 'NONE',  ( -3.491481338843133355E-15, 1.224646799147353207E-16, -1.000000000000000000 ) ) ;
#283 = ORIENTED_EDGE ( 'NONE', *, *, #10, .T. ) ;
#284 = MECHANICAL_CONTEXT ( 'NONE', #140, 'mechanical' ) ;
#285 = FACE_OUTER_BOUND ( 'NONE', #245, .T. ) ;
#286 = ORIENTED_EDGE ( 'NONE', *, *, #210, .T. ) ;
#287 = VERTEX_POINT ( 'NONE', #46 ) ;
#288 = ADVANCED_FACE ( 'NONE', ( #285, #264 ), #51, .T. ) ;
#289 = APPROVAL_STATUS ( 'not_yet_approved' ) ;
#290 = DIRECTION ( 'NONE',  ( 1.000000000000000000, 0.0000000000000000000, 0.0000000000000000000 ) ) ;
#291 = APPLICATION_CONTEXT ( 'configuration controlled 3d designs of mechanical parts and assemblies' ) ;
#292 = CARTESIAN_POINT ( 'NONE',  ( -3.848248301307262133E-31, -0.4500000000000000111, -1.102182119232617788E-16 ) ) ;
#293 = EDGE_LOOP ( 'NONE', ( #283 ) ) ;
#294 = PRODUCT_DEFINITION ( 'UNKNOWN', '', #20, #252 ) ;
#295 = LOCAL_TIME ( 15, 5, 30.00000000000000000, #171 ) ;
#296 = DIRECTION ( 'NONE',  ( 0.0000000000000000000, 1.000000000000000000, 0.0000000000000000000 ) ) ;
#297 = CC_DESIGN_PERSON_AND_ORGANIZATION_ASSIGNMENT ( #256, #120, ( #20 ) ) ;
#298 = ORIENTED_EDGE ( 'NONE', *, *, #226, .F. ) ;
#299 = CARTESIAN_POINT ( 'NONE',  ( 4.499232477825729317E-14, -1.578118316512259175E-15, 12.88631397731171546 ) ) ;
#300 = CC_DESIGN_APPROVAL ( #13, ( #20 ) ) ;
#301 = COORDINATED_UNIVERSAL_TIME_OFFSET ( 1, 0, .AHEAD. ) ;
ENDSEC;
END-ISO-10303-21;
