ISO-10303-21;
HEADER;
FILE_DESCRIPTION (( 'STEP AP203' ),
    '1' );
FILE_NAME ('997965.step',
    '2021-12-03T14:05:29',
    ( '' ),
    ( '' ),
    'SwSTEP 2.0',
    'SolidWorks 2019',
    '' );
FILE_SCHEMA (( 'CONFIG_CONTROL_DESIGN' ));
ENDSEC;

DATA;
#1 = CARTESIAN_POINT ( 'NONE',  ( -3.420665156717566973E-31, -0.4000000000000000222, -9.797174393178826150E-17 ) ) ;
#2 = PERSON_AND_ORGANIZATION ( #257, #11 ) ;
#3 = AXIS2_PLACEMENT_3D ( 'NONE', #213, #283, #75 ) ;
#4 = CALENDAR_DATE ( 2021, 3, 12 ) ;
#5 = EDGE_LOOP ( 'NONE', ( #72 ) ) ;
#6 = FACE_OUTER_BOUND ( 'NONE', #74, .T. ) ;
#7 = DIRECTION ( 'NONE',  ( 0.0000000000000000000, 1.000000000000000000, 0.0000000000000000000 ) ) ;
#8 =( GEOMETRIC_REPRESENTATION_CONTEXT ( 3 ) GLOBAL_UNCERTAINTY_ASSIGNED_CONTEXT ( ( #106 ) ) GLOBAL_UNIT_ASSIGNED_CONTEXT ( ( #194, #148, #173 ) ) REPRESENTATION_CONTEXT ( 'NONE', 'WORKASPACE' ) );
#9 = DIRECTION ( 'NONE',  ( 0.0000000000000000000, 1.000000000000000000, 0.0000000000000000000 ) ) ;
#10 = DIRECTION ( 'NONE',  ( -4.275831445896958607E-31, -1.000000000000000000, -1.224646799147353207E-16 ) ) ;
#11 = ORGANIZATION ( 'UNSPECIFIED', 'UNSPECIFIED', '' ) ;
#12 = EDGE_CURVE ( 'NONE', #121, #118, #223, .T. ) ;
#13 = COORDINATED_UNIVERSAL_TIME_OFFSET ( 1, 0, .AHEAD. ) ;
#14 = TOROIDAL_SURFACE ( 'NONE', #3, 1.372063384406601250, 0.9999999999999995559 ) ;
#15 = LINE ( 'NONE', #190, #231 ) ;
#16 = PERSON_AND_ORGANIZATION ( #257, #11 ) ;
#17 = FACE_OUTER_BOUND ( 'NONE', #210, .T. ) ;
#18 = EDGE_CURVE ( 'NONE', #73, #73, #91, .T. ) ;
#19 = CLOSED_SHELL ( 'NONE', ( #86, #164, #222, #63, #220, #289, #268 ) ) ;
#20 = PERSON_AND_ORGANIZATION ( #257, #11 ) ;
#21 = EDGE_LOOP ( 'NONE', ( #273 ) ) ;
#22 = CARTESIAN_POINT ( 'NONE',  ( 2.793185071074506684E-15, -0.3720633844066013052, 0.8000000000000000444 ) ) ;
#23 = CC_DESIGN_APPROVAL ( #276, ( #43 ) ) ;
#24 = VERTEX_POINT ( 'NONE', #76 ) ;
#25 = DIRECTION ( 'NONE',  ( 4.275831445896958607E-31, 1.000000000000000000, 1.224646799147353207E-16 ) ) ;
#26 = ORIENTED_EDGE ( 'NONE', *, *, #96, .F. ) ;
#27 = ORIENTED_EDGE ( 'NONE', *, *, #235, .F. ) ;
#28 = DIRECTION ( 'NONE',  ( 3.491481338843133355E-15, -1.224646799147353207E-16, 1.000000000000000000 ) ) ;
#29 = PRODUCT_RELATED_PRODUCT_CATEGORY ( 'detail', '', ( #201 ) ) ;
#30 = CC_DESIGN_SECURITY_CLASSIFICATION ( #202, ( #43 ) ) ;
#31 = AXIS2_PLACEMENT_3D ( 'NONE', #300, #89, #114 ) ;
#32 = DIRECTION ( 'NONE',  ( -3.491481338843133355E-15, 1.224646799147353207E-16, -1.000000000000000000 ) ) ;
#33 = DIRECTION ( 'NONE',  ( 0.0000000000000000000, 1.000000000000000000, 0.0000000000000000000 ) ) ;
#34 = DIRECTION ( 'NONE',  ( 0.0000000000000000000, 1.000000000000000000, 0.0000000000000000000 ) ) ;
#35 = AXIS2_PLACEMENT_3D ( 'NONE', #199, #55, #79 ) ;
#36 = ADVANCED_FACE ( 'NONE', ( #129 ), #247, .T. ) ;
#37 = CALENDAR_DATE ( 2021, 3, 12 ) ;
#38 = LOCAL_TIME ( 15, 5, 29.00000000000000000, #170 ) ;
#39 = PERSON_AND_ORGANIZATION ( #257, #11 ) ;
#40 = EDGE_CURVE ( 'NONE', #52, #52, #208, .T. ) ;
#41 = CYLINDRICAL_SURFACE ( 'NONE', #225, 1.500000000000000000 ) ;
#42 = APPROVAL_DATE_TIME ( #251, #276 ) ;
#43 = PRODUCT_DEFINITION_FORMATION_WITH_SPECIFIED_SOURCE ( 'ANY', '', #201, .NOT_KNOWN. ) ;
#44 = FACE_OUTER_BOUND ( 'NONE', #174, .T. ) ;
#45 = DATE_TIME_ROLE ( 'creation_date' ) ;
#46 = ORIENTED_EDGE ( 'NONE', *, *, #109, .F. ) ;
#47 = LOCAL_TIME ( 15, 5, 29.00000000000000000, #64 ) ;
#48 = ORIENTED_EDGE ( 'NONE', *, *, #235, .T. ) ;
#49 = CARTESIAN_POINT ( 'NONE',  ( 2.793185071074506684E-15, 2.790028502670395522E-33, 0.8000000000000000444 ) ) ;
#50 = EDGE_LOOP ( 'NONE', ( #179 ) ) ;
#51 = FACE_OUTER_BOUND ( 'NONE', #151, .T. ) ;
#52 = VERTEX_POINT ( 'NONE', #130 ) ;
#53 = DIRECTION ( 'NONE',  ( 3.491481338843133355E-15, -1.224646799147353207E-16, 1.000000000000000000 ) ) ;
#54 = AXIS2_PLACEMENT_3D ( 'NONE', #87, #165, #113 ) ;
#55 = DIRECTION ( 'NONE',  ( 1.000000000000000000, 0.0000000000000000000, -3.491481338843133355E-15 ) ) ;
#56 = DIRECTION ( 'NONE',  ( -3.489354422748178188E-15, 0.03489949670250191982, -0.9993908270190956511 ) ) ;
#57 = PERSON_AND_ORGANIZATION ( #257, #11 ) ;
#58 = AXIS2_PLACEMENT_3D ( 'NONE', #274, #172, #227 ) ;
#59 = APPROVAL_ROLE ( '' ) ;
#60 = CC_DESIGN_DATE_AND_TIME_ASSIGNMENT ( #255, #45, ( #115 ) ) ;
#61 = AXIS2_PLACEMENT_3D ( 'NONE', #237, #214, #104 ) ;
#62 = FACE_OUTER_BOUND ( 'NONE', #93, .T. ) ;
#63 = ADVANCED_FACE ( 'NONE', ( #180, #82 ), #77, .T. ) ;
#64 = COORDINATED_UNIVERSAL_TIME_OFFSET ( 1, 0, .AHEAD. ) ;
#65 = AXIS2_PLACEMENT_3D ( 'NONE', #95, #28, #99 ) ;
#66 = ORIENTED_EDGE ( 'NONE', *, *, #96, .T. ) ;
#67 = CONICAL_SURFACE ( 'NONE', #111, 0.4000000000000000222, 0.03490658503988741668 ) ;
#68 = CARTESIAN_POINT ( 'NONE',  ( 2.032598233848560575E-14, 1.499999999999994449, 5.821592718356161100 ) ) ;
#69 = EDGE_LOOP ( 'NONE', ( #256, #66 ) ) ;
#70 = CARTESIAN_POINT ( 'NONE',  ( 1.606081415867841091E-13, -5.633375276077824704E-15, 46.00000000000000000 ) ) ;
#71 = APPLICATION_PROTOCOL_DEFINITION ( 'international standard', 'config_control_design', 1994, #102 ) ;
#72 = ORIENTED_EDGE ( 'NONE', *, *, #40, .T. ) ;
#73 = VERTEX_POINT ( 'NONE', #279 ) ;
#74 = EDGE_LOOP ( 'NONE', ( #146, #48 ) ) ;
#75 = DIRECTION ( 'NONE',  ( 4.387781634824572867E-31, 1.000000000000000000, 1.224646799147353207E-16 ) ) ;
#76 = CARTESIAN_POINT ( 'NONE',  ( 2.793185071074506684E-15, 0.3720633844066010831, 0.8000000000000000444 ) ) ;
#77 = CONICAL_SURFACE ( 'NONE', #116, 0.5060379806221640964, 0.5235987755982999259 ) ;
#78 = LINE ( 'NONE', #49, #182 ) ;
#79 = DIRECTION ( 'NONE',  ( -3.491481338843133355E-15, 0.0000000000000000000, -1.000000000000000000 ) ) ;
#80 = DIRECTION ( 'NONE',  ( -3.491481338843133355E-15, 1.224646799147353207E-16, -1.000000000000000000 ) ) ;
#81 = LINE ( 'NONE', #183, #245 ) ;
#82 = FACE_BOUND ( 'NONE', #149, .T. ) ;
#83 = CC_DESIGN_APPROVAL ( #258, ( #202 ) ) ;
#84 = COORDINATED_UNIVERSAL_TIME_OFFSET ( 1, 0, .AHEAD. ) ;
#85 = MANIFOLD_SOLID_BREP ( 'Corps-Déplacer/Copier1[2]', #135 ) ;
#86 = ADVANCED_FACE ( 'NONE', ( #51 ), #133, .F. ) ;
#87 = CARTESIAN_POINT ( 'NONE',  ( 2.793185071074506684E-15, -9.797174393178826150E-17, 0.8000000000000000444 ) ) ;
#88 = PERSON_AND_ORGANIZATION ( #257, #11 ) ;
#89 = DIRECTION ( 'NONE',  ( -3.491481338843133355E-15, 1.224646799147353207E-16, -1.000000000000000000 ) ) ;
#90 = FACE_OUTER_BOUND ( 'NONE', #191, .T. ) ;
#91 = CIRCLE ( 'NONE', #297, 0.5060379806221640964 ) ;
#92 = CALENDAR_DATE ( 2021, 3, 12 ) ;
#93 = EDGE_LOOP ( 'NONE', ( #156, #281, #259, #230 ) ) ;
#94 = CARTESIAN_POINT ( 'NONE',  ( 1.256933281983528008E-14, 0.3720633844066008056, 3.600000000000000089 ) ) ;
#95 = CARTESIAN_POINT ( 'NONE',  ( 2.793185071074506684E-15, 2.790028502670395522E-33, 0.8000000000000000444 ) ) ;
#96 = EDGE_CURVE ( 'NONE', #299, #240, #108, .T. ) ;
#97 = VECTOR ( 'NONE', #266, 1000.000000000000000 ) ;
#98 = DIRECTION ( 'NONE',  ( 0.0000000000000000000, 0.0000000000000000000, 1.000000000000000000 ) ) ;
#99 = DIRECTION ( 'NONE',  ( -4.275831445896958607E-31, -1.000000000000000000, -1.224646799147353207E-16 ) ) ;
#100 = EDGE_LOOP ( 'NONE', ( #26, #46, #27, #278 ) ) ;
#101 = PLANE ( 'NONE',  #163 ) ;
#102 = APPLICATION_CONTEXT ( 'configuration controlled 3d designs of mechanical parts and assemblies' ) ;
#103 = CARTESIAN_POINT ( 'NONE',  ( -1.710332578358783486E-31, 5.999039130647431116E-33, -4.898587196589413075E-17 ) ) ;
#104 = DIRECTION ( 'NONE',  ( 0.0000000000000000000, 1.000000000000000000, 0.0000000000000000000 ) ) ;
#105 = CARTESIAN_POINT ( 'NONE',  ( 1.431507348925684991E-14, -5.021051876504149357E-16, 4.100000000000001421 ) ) ;
#106 = UNCERTAINTY_MEASURE_WITH_UNIT (LENGTH_MEASURE( 1.000000000000000082E-05 ), #194, 'distance_accuracy_value', 'NONE');
#107 = LOCAL_TIME ( 15, 5, 29.00000000000000000, #13 ) ;
#108 = LINE ( 'NONE', #286, #97 ) ;
#109 = EDGE_CURVE ( 'NONE', #118, #299, #81, .T. ) ;
#110 = DIRECTION ( 'NONE',  ( 0.0000000000000000000, -1.000000000000000000, 0.0000000000000000000 ) ) ;
#111 = AXIS2_PLACEMENT_3D ( 'NONE', #224, #136, #112 ) ;
#112 = DIRECTION ( 'NONE',  ( 4.275831445896958607E-31, 1.000000000000000000, 1.224646799147353207E-16 ) ) ;
#113 = DIRECTION ( 'NONE',  ( 0.0000000000000000000, 1.000000000000000000, 0.0000000000000000000 ) ) ;
#114 = DIRECTION ( 'NONE',  ( 4.275831445896958607E-31, 1.000000000000000000, 1.224646799147353207E-16 ) ) ;
#115 = PRODUCT_DEFINITION ( 'UNKNOWN', '', #43, #131 ) ;
#116 = AXIS2_PLACEMENT_3D ( 'NONE', #246, #53, #110 ) ;
#117 = COORDINATED_UNIVERSAL_TIME_OFFSET ( 1, 0, .AHEAD. ) ;
#118 = VERTEX_POINT ( 'NONE', #252 ) ;
#119 = SHAPE_DEFINITION_REPRESENTATION ( #188, #157 ) ;
#120 = CIRCLE ( 'NONE', #61, 0.3720633844066012497 ) ;
#121 = VERTEX_POINT ( 'NONE', #22 ) ;
#122 = CARTESIAN_POINT ( 'NONE',  ( 0.0000000000000000000, 0.4000000000000000222, 0.0000000000000000000 ) ) ;
#123 = CIRCLE ( 'NONE', #198, 1.500000000000005107 ) ;
#124 = ORIENTED_EDGE ( 'NONE', *, *, #18, .F. ) ;
#125 = FACE_OUTER_BOUND ( 'NONE', #69, .T. ) ;
#126 = APPROVAL_ROLE ( '' ) ;
#127 = ORIENTED_EDGE ( 'NONE', *, *, #215, .T. ) ;
#128 = DIRECTION ( 'NONE',  ( 4.275831445896958607E-31, 1.000000000000000000, 1.224646799147353207E-16 ) ) ;
#129 = FACE_OUTER_BOUND ( 'NONE', #100, .T. ) ;
#130 = CARTESIAN_POINT ( 'NONE',  ( 1.606081415867841091E-13, 1.199999999999999512, 46.00000000000000000 ) ) ;
#131 = DESIGN_CONTEXT ( 'detailed design', #271, 'design' ) ;
#132 = AXIS2_PLACEMENT_3D ( 'NONE', #70, #218, #9 ) ;
#133 = PLANE ( 'NONE',  #238 ) ;
#134 = CC_DESIGN_DATE_AND_TIME_ASSIGNMENT ( #267, #228, ( #202 ) ) ;
#135 = CLOSED_SHELL ( 'NONE', ( #250, #144, #264, #36 ) ) ;
#136 = DIRECTION ( 'NONE',  ( -3.491481338843133355E-15, 1.224646799147353207E-16, -1.000000000000000000 ) ) ;
#137 = CARTESIAN_POINT ( 'NONE',  ( 0.0000000000000000000, 0.0000000000000000000, 0.0000000000000000000 ) ) ;
#138 = APPROVAL ( #232, 'UNSPECIFIED' ) ;
#139 = PERSON_AND_ORGANIZATION_ROLE ( 'design_supplier' ) ;
#140 = CONICAL_SURFACE ( 'NONE', #132, 1.200000000000005063, 0.7853981633974453924 ) ;
#141 = FACE_OUTER_BOUND ( 'NONE', #50, .T. ) ;
#142 = CC_DESIGN_PERSON_AND_ORGANIZATION_ASSIGNMENT ( #16, #139, ( #43 ) ) ;
#143 = PERSON_AND_ORGANIZATION ( #257, #11 ) ;
#144 = ADVANCED_FACE ( 'NONE', ( #62 ), #67, .T. ) ;
#145 = PERSON_AND_ORGANIZATION ( #257, #11 ) ;
#146 = ORIENTED_EDGE ( 'NONE', *, *, #12, .F. ) ;
#147 = APPROVAL_STATUS ( 'not_yet_approved' ) ;
#148 =( NAMED_UNIT ( * ) PLANE_ANGLE_UNIT ( ) SI_UNIT ( $, .RADIAN. ) );
#149 = EDGE_LOOP ( 'NONE', ( #124 ) ) ;
#150 = APPROVAL_DATE_TIME ( #277, #138 ) ;
#151 = EDGE_LOOP ( 'NONE', ( #127 ) ) ;
#152 = DIRECTION ( 'NONE',  ( 4.275831445896958607E-31, 1.000000000000000000, 1.224646799147353207E-16 ) ) ;
#153 = EDGE_CURVE ( 'NONE', #221, #221, #123, .T. ) ;
#154 = ORIENTED_EDGE ( 'NONE', *, *, #248, .F. ) ;
#155 = DIRECTION ( 'NONE',  ( -3.491481338843133355E-15, 1.224646799147353207E-16, -1.000000000000000000 ) ) ;
#156 = ORIENTED_EDGE ( 'NONE', *, *, #293, .F. ) ;
#157 = ADVANCED_BREP_SHAPE_REPRESENTATION ( '997965', ( #282, #85, #185 ), #8 ) ;
#158 = CARTESIAN_POINT ( 'NONE',  ( 1.595606971851311880E-13, 1.499999999999999334, 45.69999999999999574 ) ) ;
#159 = CIRCLE ( 'NONE', #54, 0.3720633844066011942 ) ;
#160 = EDGE_CURVE ( 'NONE', #244, #244, #270, .T. ) ;
#161 = LOCAL_TIME ( 15, 5, 29.00000000000000000, #117 ) ;
#162 = AXIS2_PLACEMENT_3D ( 'NONE', #263, #265, #33 ) ;
#163 = AXIS2_PLACEMENT_3D ( 'NONE', #275, #80, #128 ) ;
#164 = ADVANCED_FACE ( 'NONE', ( #141, #17 ), #211, .T. ) ;
#165 = DIRECTION ( 'NONE',  ( -3.491481338843133355E-15, 1.224646799147353207E-16, -1.000000000000000000 ) ) ;
#166 = DATE_AND_TIME ( #4, #47 ) ;
#167 = CIRCLE ( 'NONE', #301, 0.4000000000000000222 ) ;
#168 = CARTESIAN_POINT ( 'NONE',  ( 1.595606971851311880E-13, -5.596635872103403844E-15, 45.69999999999999574 ) ) ;
#169 = CC_DESIGN_PERSON_AND_ORGANIZATION_ASSIGNMENT ( #2, #239, ( #115 ) ) ;
#170 = COORDINATED_UNIVERSAL_TIME_OFFSET ( 1, 0, .AHEAD. ) ;
#171 = ORIENTED_EDGE ( 'NONE', *, *, #215, .F. ) ;
#172 = DIRECTION ( 'NONE',  ( -3.491481338843133355E-15, 1.224646799147353207E-16, -1.000000000000000000 ) ) ;
#173 =( NAMED_UNIT ( * ) SI_UNIT ( $, .STERADIAN. ) SOLID_ANGLE_UNIT ( ) );
#174 = EDGE_LOOP ( 'NONE', ( #189 ) ) ;
#175 = DIRECTION ( 'NONE',  ( -3.491481338843133355E-15, 1.224646799147353207E-16, -1.000000000000000000 ) ) ;
#176 = CALENDAR_DATE ( 2021, 3, 12 ) ;
#177 = APPROVAL_PERSON_ORGANIZATION ( #145, #276, #205 ) ;
#178 = PERSON_AND_ORGANIZATION_ROLE ( 'design_owner' ) ;
#179 = ORIENTED_EDGE ( 'NONE', *, *, #248, .T. ) ;
#180 = FACE_OUTER_BOUND ( 'NONE', #203, .T. ) ;
#181 = FACE_OUTER_BOUND ( 'NONE', #234, .T. ) ;
#182 = VECTOR ( 'NONE', #152, 1000.000000000000000 ) ;
#183 = CARTESIAN_POINT ( 'NONE',  ( 3.999317758067315159E-14, -1.402771836899785890E-15, 11.45450131316597009 ) ) ;
#184 = CARTESIAN_POINT ( 'NONE',  ( 2.793185071074506684E-15, 2.790028502670395522E-33, 0.8000000000000000444 ) ) ;
#185 = AXIS2_PLACEMENT_3D ( 'NONE', #280, #98, #216 ) ;
#186 = CALENDAR_DATE ( 2021, 3, 12 ) ;
#187 = SECURITY_CLASSIFICATION_LEVEL ( 'unclassified' ) ;
#188 = PRODUCT_DEFINITION_SHAPE ( 'NONE', 'NONE',  #115 ) ;
#189 = ORIENTED_EDGE ( 'NONE', *, *, #160, .F. ) ;
#190 = CARTESIAN_POINT ( 'NONE',  ( 3.999317758067315159E-14, -1.402771836899785890E-15, 11.45450131316597009 ) ) ;
#191 = EDGE_LOOP ( 'NONE', ( #260 ) ) ;
#192 = ORIENTED_EDGE ( 'NONE', *, *, #160, .T. ) ;
#193 = CC_DESIGN_PERSON_AND_ORGANIZATION_ASSIGNMENT ( #143, #178, ( #201 ) ) ;
#194 =( LENGTH_UNIT ( ) NAMED_UNIT ( * ) SI_UNIT ( .MILLI., .METRE. ) );
#195 = ORIENTED_EDGE ( 'NONE', *, *, #40, .F. ) ;
#196 = FACE_OUTER_BOUND ( 'NONE', #212, .T. ) ;
#197 = DIRECTION ( 'NONE',  ( -3.491481338843133355E-15, 1.224646799147353207E-16, -1.000000000000000000 ) ) ;
#198 = AXIS2_PLACEMENT_3D ( 'NONE', #168, #298, #206 ) ;
#199 = CARTESIAN_POINT ( 'NONE',  ( 0.0000000000000000000, 0.0000000000000000000, 0.0000000000000000000 ) ) ;
#200 = EDGE_CURVE ( 'NONE', #240, #121, #15, .T. ) ;
#201 = PRODUCT ( '997965', '997965', '', ( #272 ) ) ;
#202 = SECURITY_CLASSIFICATION ( '', '', #187 ) ;
#203 = EDGE_LOOP ( 'NONE', ( #192 ) ) ;
#204 = APPROVAL_PERSON_ORGANIZATION ( #20, #138, #126 ) ;
#205 = APPROVAL_ROLE ( '' ) ;
#206 = DIRECTION ( 'NONE',  ( 0.0000000000000000000, 1.000000000000000000, 0.0000000000000000000 ) ) ;
#207 = DIRECTION ( 'NONE',  ( -3.491481338843133355E-15, 1.224646799147353207E-16, -1.000000000000000000 ) ) ;
#208 = CIRCLE ( 'NONE', #162, 1.200000000000005063 ) ;
#209 = VERTEX_POINT ( 'NONE', #94 ) ;
#210 = EDGE_LOOP ( 'NONE', ( #171 ) ) ;
#211 = CYLINDRICAL_SURFACE ( 'NONE', #31, 0.3720633844066012497 ) ;
#212 = EDGE_LOOP ( 'NONE', ( #154 ) ) ;
#213 = CARTESIAN_POINT ( 'NONE',  ( 1.256933281983528008E-14, -4.336808689942017736E-16, 3.600000000000000089 ) ) ;
#214 = DIRECTION ( 'NONE',  ( -3.491481338843133355E-15, 1.224646799147353207E-16, -1.000000000000000000 ) ) ;
#215 = EDGE_CURVE ( 'NONE', #24, #24, #159, .T. ) ;
#216 = DIRECTION ( 'NONE',  ( 1.000000000000000000, 0.0000000000000000000, 0.0000000000000000000 ) ) ;
#217 = ORIENTED_EDGE ( 'NONE', *, *, #153, .F. ) ;
#218 = DIRECTION ( 'NONE',  ( -3.491481338843133355E-15, 1.224646799147353207E-16, -1.000000000000000000 ) ) ;
#219 = APPROVAL_PERSON_ORGANIZATION ( #57, #258, #59 ) ;
#220 = ADVANCED_FACE ( 'NONE', ( #44, #291 ), #41, .T. ) ;
#221 = VERTEX_POINT ( 'NONE', #158 ) ;
#222 = ADVANCED_FACE ( 'NONE', ( #90, #196 ), #14, .F. ) ;
#223 = CIRCLE ( 'NONE', #287, 0.3720633844066011942 ) ;
#224 = CARTESIAN_POINT ( 'NONE',  ( -1.710332578358783486E-31, 5.999039130647431116E-33, -4.898587196589413075E-17 ) ) ;
#225 = AXIS2_PLACEMENT_3D ( 'NONE', #137, #207, #294 ) ;
#226 = CC_DESIGN_PERSON_AND_ORGANIZATION_ASSIGNMENT ( #88, #295, ( #202 ) ) ;
#227 = DIRECTION ( 'NONE',  ( 0.0000000000000000000, 1.000000000000000000, 0.0000000000000000000 ) ) ;
#228 = DATE_TIME_ROLE ( 'classification_date' ) ;
#229 = APPLICATION_PROTOCOL_DEFINITION ( 'international standard', 'config_control_design', 1994, #271 ) ;
#230 = ORIENTED_EDGE ( 'NONE', *, *, #109, .T. ) ;
#231 = VECTOR ( 'NONE', #290, 1000.000000000000227 ) ;
#232 = APPROVAL_STATUS ( 'not_yet_approved' ) ;
#233 = FACE_OUTER_BOUND ( 'NONE', #254, .T. ) ;
#234 = EDGE_LOOP ( 'NONE', ( #217 ) ) ;
#235 = EDGE_CURVE ( 'NONE', #121, #118, #78, .T. ) ;
#236 = PLANE ( 'NONE',  #65 ) ;
#237 = CARTESIAN_POINT ( 'NONE',  ( 1.256933281983528008E-14, -4.408728476930471151E-16, 3.600000000000000089 ) ) ;
#238 = AXIS2_PLACEMENT_3D ( 'NONE', #184, #243, #10 ) ;
#239 = PERSON_AND_ORGANIZATION_ROLE ( 'creator' ) ;
#240 = VERTEX_POINT ( 'NONE', #1 ) ;
#241 = PLANE ( 'NONE',  #285 ) ;
#242 = LOCAL_TIME ( 15, 5, 29.00000000000000000, #84 ) ;
#243 = DIRECTION ( 'NONE',  ( 3.491481338843133355E-15, -1.224646799147353207E-16, 1.000000000000000000 ) ) ;
#244 = VERTEX_POINT ( 'NONE', #68 ) ;
#245 = VECTOR ( 'NONE', #56, 1000.000000000000227 ) ;
#246 = CARTESIAN_POINT ( 'NONE',  ( 1.431507348925684991E-14, -5.021051876504149357E-16, 4.100000000000001421 ) ) ;
#247 = PLANE ( 'NONE',  #35 ) ;
#248 = EDGE_CURVE ( 'NONE', #209, #209, #120, .T. ) ;
#249 = APPROVAL_STATUS ( 'not_yet_approved' ) ;
#250 = ADVANCED_FACE ( 'NONE', ( #125 ), #241, .T. ) ;
#251 = DATE_AND_TIME ( #37, #242 ) ;
#252 = CARTESIAN_POINT ( 'NONE',  ( 2.793185071074506684E-15, 0.3720633844066010831, 0.8000000000000000444 ) ) ;
#253 = APPROVAL_DATE_TIME ( #166, #258 ) ;
#254 = EDGE_LOOP ( 'NONE', ( #195 ) ) ;
#255 = DATE_AND_TIME ( #176, #38 ) ;
#256 = ORIENTED_EDGE ( 'NONE', *, *, #293, .T. ) ;
#257 = PERSON ( 'UNSPECIFIED', 'UNSPECIFIED', 'UNSPECIFIED', ('UNSPECIFIED'), ('UNSPECIFIED'), ('UNSPECIFIED') ) ;
#258 = APPROVAL ( #249, 'UNSPECIFIED' ) ;
#259 = ORIENTED_EDGE ( 'NONE', *, *, #12, .T. ) ;
#260 = ORIENTED_EDGE ( 'NONE', *, *, #18, .T. ) ;
#261 = CARTESIAN_POINT ( 'NONE',  ( -8.551662891793917432E-32, 2.999519565323715558E-33, -2.449293598294706538E-17 ) ) ;
#262 = FACE_BOUND ( 'NONE', #5, .T. ) ;
#263 = CARTESIAN_POINT ( 'NONE',  ( 1.606081415867841091E-13, -5.633375276077824704E-15, 46.00000000000000000 ) ) ;
#264 = ADVANCED_FACE ( 'NONE', ( #6 ), #236, .T. ) ;
#265 = DIRECTION ( 'NONE',  ( -3.491481338843133355E-15, 1.224646799147353207E-16, -1.000000000000000000 ) ) ;
#266 = DIRECTION ( 'NONE',  ( -4.275831445896958607E-31, -1.000000000000000000, -1.224646799147353207E-16 ) ) ;
#267 = DATE_AND_TIME ( #186, #107 ) ;
#268 = ADVANCED_FACE ( 'NONE', ( #233 ), #101, .F. ) ;
#269 = PERSON_AND_ORGANIZATION_ROLE ( 'creator' ) ;
#270 = CIRCLE ( 'NONE', #58, 1.499999999999995115 ) ;
#271 = APPLICATION_CONTEXT ( 'configuration controlled 3d designs of mechanical parts and assemblies' ) ;
#272 = MECHANICAL_CONTEXT ( 'NONE', #102, 'mechanical' ) ;
#273 = ORIENTED_EDGE ( 'NONE', *, *, #153, .T. ) ;
#274 = CARTESIAN_POINT ( 'NONE',  ( 2.032598233848560575E-14, -7.129394888474411815E-16, 5.821592718356161100 ) ) ;
#275 = CARTESIAN_POINT ( 'NONE',  ( 1.606081415867841091E-13, 8.998558695971099120E-33, 46.00000000000000000 ) ) ;
#276 = APPROVAL ( #147, 'UNSPECIFIED' ) ;
#277 = DATE_AND_TIME ( #92, #161 ) ;
#278 = ORIENTED_EDGE ( 'NONE', *, *, #200, .F. ) ;
#279 = CARTESIAN_POINT ( 'NONE',  ( 1.431507348925684991E-14, 0.5060379806221635413, 4.100000000000001421 ) ) ;
#280 = CARTESIAN_POINT ( 'NONE',  ( 0.0000000000000000000, 0.0000000000000000000, 0.0000000000000000000 ) ) ;
#281 = ORIENTED_EDGE ( 'NONE', *, *, #200, .T. ) ;
#282 = MANIFOLD_SOLID_BREP ( 'Corps-Déplacer/Copier1[1]', #19 ) ;
#283 = DIRECTION ( 'NONE',  ( -3.491481338843133355E-15, 1.224646799147353207E-16, -1.000000000000000000 ) ) ;
#284 = DIRECTION ( 'NONE',  ( 4.275831445896958607E-31, 1.000000000000000000, 1.224646799147353207E-16 ) ) ;
#285 = AXIS2_PLACEMENT_3D ( 'NONE', #261, #155, #284 ) ;
#286 = CARTESIAN_POINT ( 'NONE',  ( 0.0000000000000000000, 0.4000000000000000222, 0.0000000000000000000 ) ) ;
#287 = AXIS2_PLACEMENT_3D ( 'NONE', #288, #32, #34 ) ;
#288 = CARTESIAN_POINT ( 'NONE',  ( 2.793185071074506684E-15, -9.797174393178826150E-17, 0.8000000000000000444 ) ) ;
#289 = ADVANCED_FACE ( 'NONE', ( #181, #262 ), #140, .T. ) ;
#290 = DIRECTION ( 'NONE',  ( 3.489354422748178188E-15, 0.03489949670250167002, 0.9993908270190956511 ) ) ;
#291 = FACE_OUTER_BOUND ( 'NONE', #21, .T. ) ;
#292 = CC_DESIGN_APPROVAL ( #138, ( #115 ) ) ;
#293 = EDGE_CURVE ( 'NONE', #240, #299, #167, .T. ) ;
#294 = DIRECTION ( 'NONE',  ( 4.275831445896959482E-31, 1.000000000000000000, 1.224646799147353207E-16 ) ) ;
#295 = PERSON_AND_ORGANIZATION_ROLE ( 'classification_officer' ) ;
#296 = CC_DESIGN_PERSON_AND_ORGANIZATION_ASSIGNMENT ( #39, #269, ( #43 ) ) ;
#297 = AXIS2_PLACEMENT_3D ( 'NONE', #105, #197, #7 ) ;
#298 = DIRECTION ( 'NONE',  ( -3.491481338843133355E-15, 1.224646799147353207E-16, -1.000000000000000000 ) ) ;
#299 = VERTEX_POINT ( 'NONE', #122 ) ;
#300 = CARTESIAN_POINT ( 'NONE',  ( 0.0000000000000000000, 0.0000000000000000000, 0.0000000000000000000 ) ) ;
#301 = AXIS2_PLACEMENT_3D ( 'NONE', #103, #175, #25 ) ;
ENDSEC;
END-ISO-10303-21;
