ISO-10303-21;
HEADER;
FILE_DESCRIPTION (( 'STEP AP203' ),
    '1' );
FILE_NAME ('997964.step',
    '2021-12-03T14:05:28',
    ( '' ),
    ( '' ),
    'SwSTEP 2.0',
    'SolidWorks 2019',
    '' );
FILE_SCHEMA (( 'CONFIG_CONTROL_DESIGN' ));
ENDSEC;

DATA;
#1 = EDGE_CURVE ( 'NONE', #159, #62, #126, .T. ) ;
#2 = PERSON_AND_ORGANIZATION_ROLE ( 'creator' ) ;
#3 = CONICAL_SURFACE ( 'NONE', #217, 0.5060379806221633192, 0.5235987755983000369 ) ;
#4 = LINE ( 'NONE', #93, #45 ) ;
#5 = FACE_OUTER_BOUND ( 'NONE', #35, .T. ) ;
#6 = CARTESIAN_POINT ( 'NONE',  ( 0.0000000000000000000, 0.0000000000000000000, 0.0000000000000000000 ) ) ;
#7 = PERSON_AND_ORGANIZATION_ROLE ( 'classification_officer' ) ;
#8 = AXIS2_PLACEMENT_3D ( 'NONE', #65, #99, #46 ) ;
#9 = PERSON_AND_ORGANIZATION_ROLE ( 'design_supplier' ) ;
#10 = VERTEX_POINT ( 'NONE', #102 ) ;
#11 = ADVANCED_FACE ( 'NONE', ( #180 ), #271, .F. ) ;
#12 = ADVANCED_FACE ( 'NONE', ( #253 ), #115, .T. ) ;
#13 = EDGE_LOOP ( 'NONE', ( #43 ) ) ;
#14 = EDGE_LOOP ( 'NONE', ( #134 ) ) ;
#15 = DIRECTION ( 'NONE',  ( -4.275831445896958607E-31, -1.000000000000000000, -1.224646799147353207E-16 ) ) ;
#16 = PERSON_AND_ORGANIZATION ( #174, #224 ) ;
#17 = EDGE_LOOP ( 'NONE', ( #276 ) ) ;
#18 = PERSON_AND_ORGANIZATION ( #174, #224 ) ;
#19 = EDGE_LOOP ( 'NONE', ( #298 ) ) ;
#20 = PRODUCT_DEFINITION_FORMATION_WITH_SPECIFIED_SOURCE ( 'ANY', '', #248, .NOT_KNOWN. ) ;
#21 = FACE_OUTER_BOUND ( 'NONE', #109, .T. ) ;
#22 = DIRECTION ( 'NONE',  ( -3.491481338843133355E-15, 1.224646799147353207E-16, -1.000000000000000000 ) ) ;
#23 = EDGE_CURVE ( 'NONE', #173, #173, #34, .T. ) ;
#24 = LINE ( 'NONE', #123, #154 ) ;
#25 = CARTESIAN_POINT ( 'NONE',  ( 1.606081415867841091E-13, -5.633375276077824704E-15, 46.00000000000000000 ) ) ;
#26 = DIRECTION ( 'NONE',  ( -3.491481338843133355E-15, 1.224646799147353207E-16, -1.000000000000000000 ) ) ;
#27 = DIRECTION ( 'NONE',  ( 0.0000000000000000000, 0.0000000000000000000, 1.000000000000000000 ) ) ;
#28 = AXIS2_PLACEMENT_3D ( 'NONE', #241, #121, #191 ) ;
#29 = DIRECTION ( 'NONE',  ( -3.491481338843133355E-15, 1.224646799147353207E-16, -1.000000000000000000 ) ) ;
#30 = CARTESIAN_POINT ( 'NONE',  ( 1.595606971851311880E-13, -5.596635872103403844E-15, 45.69999999999999574 ) ) ;
#31 = ADVANCED_FACE ( 'NONE', ( #89, #184 ), #203, .T. ) ;
#32 = APPROVAL_DATE_TIME ( #283, #140 ) ;
#33 = CARTESIAN_POINT ( 'NONE',  ( 2.793185071074506684E-15, -0.3720633844066013052, 0.8000000000000000444 ) ) ;
#34 = CIRCLE ( 'NONE', #287, 0.3720633844066011942 ) ;
#35 = EDGE_LOOP ( 'NONE', ( #142 ) ) ;
#36 = ORIENTED_EDGE ( 'NONE', *, *, #73, .T. ) ;
#37 = LOCAL_TIME ( 15, 5, 28.00000000000000000, #141 ) ;
#38 = ORIENTED_EDGE ( 'NONE', *, *, #1, .T. ) ;
#39 = EDGE_CURVE ( 'NONE', #106, #106, #69, .T. ) ;
#40 = APPROVAL_ROLE ( '' ) ;
#41 = EDGE_LOOP ( 'NONE', ( #226 ) ) ;
#42 = PERSON_AND_ORGANIZATION_ROLE ( 'creator' ) ;
#43 = ORIENTED_EDGE ( 'NONE', *, *, #132, .T. ) ;
#44 = CC_DESIGN_PERSON_AND_ORGANIZATION_ASSIGNMENT ( #150, #7, ( #279 ) ) ;
#45 = VECTOR ( 'NONE', #213, 1000.000000000000227 ) ;
#46 = DIRECTION ( 'NONE',  ( 0.0000000000000000000, 1.000000000000000000, 0.0000000000000000000 ) ) ;
#47 = APPROVAL_DATE_TIME ( #215, #101 ) ;
#48 = FACE_OUTER_BOUND ( 'NONE', #274, .T. ) ;
#49 = DIRECTION ( 'NONE',  ( 0.0000000000000000000, -1.000000000000000000, 0.0000000000000000000 ) ) ;
#50 = MECHANICAL_CONTEXT ( 'NONE', #94, 'mechanical' ) ;
#51 = CYLINDRICAL_SURFACE ( 'NONE', #143, 0.3720633844066011942 ) ;
#52 = DATE_AND_TIME ( #103, #210 ) ;
#53 = AXIS2_PLACEMENT_3D ( 'NONE', #265, #131, #57 ) ;
#54 = DIRECTION ( 'NONE',  ( -3.491481338843133355E-15, 1.224646799147353207E-16, -1.000000000000000000 ) ) ;
#55 = CARTESIAN_POINT ( 'NONE',  ( 2.793185071074506684E-15, 0.3720633844066010831, 0.8000000000000000444 ) ) ;
#56 = CC_DESIGN_DATE_AND_TIME_ASSIGNMENT ( #145, #300, ( #228 ) ) ;
#57 = DIRECTION ( 'NONE',  ( 4.275831445896958607E-31, 1.000000000000000000, 1.224646799147353207E-16 ) ) ;
#58 = AXIS2_PLACEMENT_3D ( 'NONE', #30, #129, #151 ) ;
#59 = CARTESIAN_POINT ( 'NONE',  ( 1.012529588264508831E-14, 0.5060379806221629861, 2.900000000000000799 ) ) ;
#60 = AXIS2_PLACEMENT_3D ( 'NONE', #166, #26, #187 ) ;
#61 = ORIENTED_EDGE ( 'NONE', *, *, #108, .T. ) ;
#62 = VERTEX_POINT ( 'NONE', #301 ) ;
#63 = DIRECTION ( 'NONE',  ( -4.275831445896958607E-31, -1.000000000000000000, -1.224646799147353207E-16 ) ) ;
#64 = DATE_AND_TIME ( #254, #81 ) ;
#65 = CARTESIAN_POINT ( 'NONE',  ( 1.606081415867841091E-13, -5.633375276077824704E-15, 46.00000000000000000 ) ) ;
#66 = DIRECTION ( 'NONE',  ( 4.275831445896958607E-31, 1.000000000000000000, 1.224646799147353207E-16 ) ) ;
#67 = ORIENTED_EDGE ( 'NONE', *, *, #225, .T. ) ;
#68 = DIRECTION ( 'NONE',  ( 4.275831445896958607E-31, 1.000000000000000000, 1.224646799147353207E-16 ) ) ;
#69 = CIRCLE ( 'NONE', #244, 1.200000000000005063 ) ;
#70 = COORDINATED_UNIVERSAL_TIME_OFFSET ( 1, 0, .AHEAD. ) ;
#71 = DIRECTION ( 'NONE',  ( 3.489354422748178188E-15, 0.03489949670250167002, 0.9993908270190956511 ) ) ;
#72 = CARTESIAN_POINT ( 'NONE',  ( 2.793185071074506684E-15, 0.3720633844066010831, 0.8000000000000000444 ) ) ;
#73 = EDGE_CURVE ( 'NONE', #62, #159, #75, .T. ) ;
#74 = FACE_OUTER_BOUND ( 'NONE', #14, .T. ) ;
#75 = LINE ( 'NONE', #196, #285 ) ;
#76 = TOROIDAL_SURFACE ( 'NONE', #137, 1.372063384406601250, 0.9999999999999997780 ) ;
#77 = LOCAL_TIME ( 15, 5, 28.00000000000000000, #70 ) ;
#78 = DIRECTION ( 'NONE',  ( 0.0000000000000000000, 1.000000000000000000, 0.0000000000000000000 ) ) ;
#79 = VERTEX_POINT ( 'NONE', #153 ) ;
#80 = AXIS2_PLACEMENT_3D ( 'NONE', #256, #29, #170 ) ;
#81 = LOCAL_TIME ( 15, 5, 28.00000000000000000, #230 ) ;
#82 = PERSON_AND_ORGANIZATION ( #174, #224 ) ;
#83 = ADVANCED_FACE ( 'NONE', ( #122, #168 ), #76, .F. ) ;
#84 = EDGE_LOOP ( 'NONE', ( #117 ) ) ;
#85 = ADVANCED_FACE ( 'NONE', ( #48, #5 ), #51, .T. ) ;
#86 = ORIENTED_EDGE ( 'NONE', *, *, #108, .F. ) ;
#87 = ORIENTED_EDGE ( 'NONE', *, *, #240, .T. ) ;
#88 = AXIS2_PLACEMENT_3D ( 'NONE', #183, #27, #293 ) ;
#89 = FACE_OUTER_BOUND ( 'NONE', #17, .T. ) ;
#90 = DIRECTION ( 'NONE',  ( -3.491481338843133355E-15, 1.224646799147353207E-16, -1.000000000000000000 ) ) ;
#91 = ORIENTED_EDGE ( 'NONE', *, *, #39, .T. ) ;
#92 = CARTESIAN_POINT ( 'NONE',  ( 1.606081415867841091E-13, 8.998558695971099120E-33, 46.00000000000000000 ) ) ;
#93 = CARTESIAN_POINT ( 'NONE',  ( 3.999317758067315159E-14, -1.402771836899785890E-15, 11.45450131316597009 ) ) ;
#94 = APPLICATION_CONTEXT ( 'configuration controlled 3d designs of mechanical parts and assemblies' ) ;
#95 = ADVANCED_FACE ( 'NONE', ( #282 ), #125, .T. ) ;
#96 = APPROVAL_DATE_TIME ( #64, #232 ) ;
#97 = DIRECTION ( 'NONE',  ( 4.275831445896958607E-31, 1.000000000000000000, 1.224646799147353207E-16 ) ) ;
#98 = COORDINATED_UNIVERSAL_TIME_OFFSET ( 1, 0, .AHEAD. ) ;
#99 = DIRECTION ( 'NONE',  ( -3.491481338843133355E-15, 1.224646799147353207E-16, -1.000000000000000000 ) ) ;
#100 = AXIS2_PLACEMENT_3D ( 'NONE', #258, #172, #281 ) ;
#101 = APPROVAL ( #119, 'UNSPECIFIED' ) ;
#102 = CARTESIAN_POINT ( 'NONE',  ( 1.595606971851311880E-13, 1.499999999999999334, 45.69999999999999574 ) ) ;
#103 = CALENDAR_DATE ( 2021, 3, 12 ) ;
#104 = VERTEX_POINT ( 'NONE', #284 ) ;
#105 = DATE_TIME_ROLE ( 'classification_date' ) ;
#106 = VERTEX_POINT ( 'NONE', #266 ) ;
#107 = CIRCLE ( 'NONE', #100, 0.3720633844066011942 ) ;
#108 = EDGE_CURVE ( 'NONE', #270, #255, #277, .T. ) ;
#109 = EDGE_LOOP ( 'NONE', ( #234, #252, #86, #113 ) ) ;
#110 = CIRCLE ( 'NONE', #80, 1.499999999999995115 ) ;
#111 = ADVANCED_FACE ( 'NONE', ( #238, #260 ), #3, .T. ) ;
#112 = CC_DESIGN_APPROVAL ( #232, ( #228 ) ) ;
#113 = ORIENTED_EDGE ( 'NONE', *, *, #247, .F. ) ;
#114 = APPLICATION_CONTEXT ( 'configuration controlled 3d designs of mechanical parts and assemblies' ) ;
#115 = PLANE ( 'NONE',  #175 ) ;
#116 = CALENDAR_DATE ( 2021, 3, 12 ) ;
#117 = ORIENTED_EDGE ( 'NONE', *, *, #23, .T. ) ;
#118 = CLOSED_SHELL ( 'NONE', ( #11, #85, #83, #111, #263, #31, #163 ) ) ;
#119 = APPROVAL_STATUS ( 'not_yet_approved' ) ;
#120 = ORIENTED_EDGE ( 'NONE', *, *, #267, .F. ) ;
#121 = DIRECTION ( 'NONE',  ( 1.000000000000000000, 0.0000000000000000000, -3.491481338843133355E-15 ) ) ;
#122 = FACE_OUTER_BOUND ( 'NONE', #207, .T. ) ;
#123 = CARTESIAN_POINT ( 'NONE',  ( 3.999317758067315159E-14, -1.402771836899785890E-15, 11.45450131316597009 ) ) ;
#124 = PERSON_AND_ORGANIZATION ( #174, #224 ) ;
#125 = PLANE ( 'NONE',  #199 ) ;
#126 = CIRCLE ( 'NONE', #268, 0.4000000000000000222 ) ;
#127 = CYLINDRICAL_SURFACE ( 'NONE', #291, 1.500000000000000000 ) ;
#128 = COORDINATED_UNIVERSAL_TIME_OFFSET ( 1, 0, .AHEAD. ) ;
#129 = DIRECTION ( 'NONE',  ( -3.491481338843133355E-15, 1.224646799147353207E-16, -1.000000000000000000 ) ) ;
#130 =( GEOMETRIC_REPRESENTATION_CONTEXT ( 3 ) GLOBAL_UNCERTAINTY_ASSIGNED_CONTEXT ( ( #257 ) ) GLOBAL_UNIT_ASSIGNED_CONTEXT ( ( #286, #202, #242 ) ) REPRESENTATION_CONTEXT ( 'NONE', 'WORKASPACE' ) );
#131 = DIRECTION ( 'NONE',  ( -3.491481338843133355E-15, 1.224646799147353207E-16, -1.000000000000000000 ) ) ;
#132 = EDGE_CURVE ( 'NONE', #10, #10, #221, .T. ) ;
#133 = APPROVAL_PERSON_ORGANIZATION ( #124, #232, #40 ) ;
#134 = ORIENTED_EDGE ( 'NONE', *, *, #39, .F. ) ;
#135 = DESIGN_CONTEXT ( 'detailed design', #114, 'design' ) ;
#136 = ORIENTED_EDGE ( 'NONE', *, *, #267, .T. ) ;
#137 = AXIS2_PLACEMENT_3D ( 'NONE', #146, #148, #219 ) ;
#138 = DIRECTION ( 'NONE',  ( 3.491481338843133355E-15, -1.224646799147353207E-16, 1.000000000000000000 ) ) ;
#139 = CARTESIAN_POINT ( 'NONE',  ( 2.793185071074506684E-15, -9.797174393178826150E-17, 0.8000000000000000444 ) ) ;
#140 = APPROVAL ( #198, 'UNSPECIFIED' ) ;
#141 = COORDINATED_UNIVERSAL_TIME_OFFSET ( 1, 0, .AHEAD. ) ;
#142 = ORIENTED_EDGE ( 'NONE', *, *, #23, .F. ) ;
#143 = AXIS2_PLACEMENT_3D ( 'NONE', #6, #90, #235 ) ;
#144 = DIRECTION ( 'NONE',  ( -3.491481338843133355E-15, 1.224646799147353207E-16, -1.000000000000000000 ) ) ;
#145 = DATE_AND_TIME ( #116, #37 ) ;
#146 = CARTESIAN_POINT ( 'NONE',  ( 8.379555213223518475E-15, -2.168404344971008868E-16, 2.399999999999999911 ) ) ;
#147 = ADVANCED_FACE ( 'NONE', ( #21 ), #296, .T. ) ;
#148 = DIRECTION ( 'NONE',  ( -3.491481338843133355E-15, 1.224646799147353207E-16, -1.000000000000000000 ) ) ;
#149 = FACE_OUTER_BOUND ( 'NONE', #41, .T. ) ;
#150 = PERSON_AND_ORGANIZATION ( #174, #224 ) ;
#151 = DIRECTION ( 'NONE',  ( 0.0000000000000000000, 1.000000000000000000, 0.0000000000000000000 ) ) ;
#152 = PERSON_AND_ORGANIZATION ( #174, #224 ) ;
#153 = CARTESIAN_POINT ( 'NONE',  ( 8.379555213223518475E-15, 0.3720633844066009166, 2.399999999999999911 ) ) ;
#154 = VECTOR ( 'NONE', #71, 1000.000000000000227 ) ;
#155 = APPROVAL_ROLE ( '' ) ;
#156 = EDGE_CURVE ( 'NONE', #104, #104, #110, .T. ) ;
#157 = AXIS2_PLACEMENT_3D ( 'NONE', #160, #138, #15 ) ;
#158 = EDGE_CURVE ( 'NONE', #255, #62, #4, .T. ) ;
#159 = VERTEX_POINT ( 'NONE', #189 ) ;
#160 = CARTESIAN_POINT ( 'NONE',  ( 2.793185071074506684E-15, 2.790028502670395522E-33, 0.8000000000000000444 ) ) ;
#161 = CONICAL_SURFACE ( 'NONE', #53, 0.4000000000000000222, 0.03490658503988741668 ) ;
#162 = ORIENTED_EDGE ( 'NONE', *, *, #225, .F. ) ;
#163 = ADVANCED_FACE ( 'NONE', ( #74 ), #299, .F. ) ;
#164 = PERSON_AND_ORGANIZATION_ROLE ( 'design_owner' ) ;
#165 = EDGE_LOOP ( 'NONE', ( #120, #61 ) ) ;
#166 = CARTESIAN_POINT ( 'NONE',  ( 1.012529588264508831E-14, -3.551475717527324818E-16, 2.900000000000000799 ) ) ;
#167 = APPLICATION_PROTOCOL_DEFINITION ( 'international standard', 'config_control_design', 1994, #114 ) ;
#168 = FACE_OUTER_BOUND ( 'NONE', #19, .T. ) ;
#169 = CARTESIAN_POINT ( 'NONE',  ( 1.012529588264508831E-14, -3.551475717527324818E-16, 2.900000000000000799 ) ) ;
#170 = DIRECTION ( 'NONE',  ( 0.0000000000000000000, 1.000000000000000000, 0.0000000000000000000 ) ) ;
#171 = APPLICATION_PROTOCOL_DEFINITION ( 'international standard', 'config_control_design', 1994, #94 ) ;
#172 = DIRECTION ( 'NONE',  ( -3.491481338843133355E-15, 1.224646799147353207E-16, -1.000000000000000000 ) ) ;
#173 = VERTEX_POINT ( 'NONE', #55 ) ;
#174 = PERSON ( 'UNSPECIFIED', 'UNSPECIFIED', 'UNSPECIFIED', ('UNSPECIFIED'), ('UNSPECIFIED'), ('UNSPECIFIED') ) ;
#175 = AXIS2_PLACEMENT_3D ( 'NONE', #290, #272, #63 ) ;
#176 = FACE_OUTER_BOUND ( 'NONE', #208, .T. ) ;
#177 = CARTESIAN_POINT ( 'NONE',  ( 2.793185071074506684E-15, -9.797174393178826150E-17, 0.8000000000000000444 ) ) ;
#178 = CC_DESIGN_DATE_AND_TIME_ASSIGNMENT ( #52, #105, ( #279 ) ) ;
#179 = EDGE_LOOP ( 'NONE', ( #91 ) ) ;
#180 = FACE_OUTER_BOUND ( 'NONE', #84, .T. ) ;
#181 = EDGE_LOOP ( 'NONE', ( #162 ) ) ;
#182 = APPROVAL_PERSON_ORGANIZATION ( #152, #140, #155 ) ;
#183 = CARTESIAN_POINT ( 'NONE',  ( 0.0000000000000000000, 0.0000000000000000000, 0.0000000000000000000 ) ) ;
#184 = FACE_BOUND ( 'NONE', #179, .T. ) ;
#185 = CARTESIAN_POINT ( 'NONE',  ( 2.793185071074506684E-15, 2.790028502670395522E-33, 0.8000000000000000444 ) ) ;
#186 = ORIENTED_EDGE ( 'NONE', *, *, #1, .F. ) ;
#187 = DIRECTION ( 'NONE',  ( 0.0000000000000000000, 1.000000000000000000, 0.0000000000000000000 ) ) ;
#188 = CLOSED_SHELL ( 'NONE', ( #95, #292, #12, #147 ) ) ;
#189 = CARTESIAN_POINT ( 'NONE',  ( -3.420665156717566973E-31, -0.4000000000000000222, -9.797174393178826150E-17 ) ) ;
#190 = DIRECTION ( 'NONE',  ( -4.275831445896958607E-31, -1.000000000000000000, -1.224646799147353207E-16 ) ) ;
#191 = DIRECTION ( 'NONE',  ( -3.491481338843133355E-15, 0.0000000000000000000, -1.000000000000000000 ) ) ;
#192 = SECURITY_CLASSIFICATION_LEVEL ( 'unclassified' ) ;
#193 = DIRECTION ( 'NONE',  ( 0.0000000000000000000, 1.000000000000000000, 0.0000000000000000000 ) ) ;
#194 = CC_DESIGN_PERSON_AND_ORGANIZATION_ASSIGNMENT ( #82, #9, ( #20 ) ) ;
#195 = AXIS2_PLACEMENT_3D ( 'NONE', #92, #144, #68 ) ;
#196 = CARTESIAN_POINT ( 'NONE',  ( 0.0000000000000000000, 0.4000000000000000222, 0.0000000000000000000 ) ) ;
#197 = DIRECTION ( 'NONE',  ( -3.491481338843133355E-15, 1.224646799147353207E-16, -1.000000000000000000 ) ) ;
#198 = APPROVAL_STATUS ( 'not_yet_approved' ) ;
#199 = AXIS2_PLACEMENT_3D ( 'NONE', #216, #54, #97 ) ;
#200 = CALENDAR_DATE ( 2021, 3, 12 ) ;
#201 = APPROVAL_PERSON_ORGANIZATION ( #18, #101, #297 ) ;
#202 =( NAMED_UNIT ( * ) PLANE_ANGLE_UNIT ( ) SI_UNIT ( $, .RADIAN. ) );
#203 = CONICAL_SURFACE ( 'NONE', #8, 1.200000000000005063, 0.7853981633974453924 ) ;
#204 = ORIENTED_EDGE ( 'NONE', *, *, #158, .T. ) ;
#205 = CC_DESIGN_SECURITY_CLASSIFICATION ( #279, ( #20 ) ) ;
#206 = CARTESIAN_POINT ( 'NONE',  ( -1.710332578358783486E-31, 5.999039130647431116E-33, -4.898587196589413075E-17 ) ) ;
#207 = EDGE_LOOP ( 'NONE', ( #67 ) ) ;
#208 = EDGE_LOOP ( 'NONE', ( #186, #211, #136, #204 ) ) ;
#209 = CIRCLE ( 'NONE', #251, 0.3720633844066011942 ) ;
#210 = LOCAL_TIME ( 15, 5, 28.00000000000000000, #128 ) ;
#211 = ORIENTED_EDGE ( 'NONE', *, *, #247, .T. ) ;
#212 = CC_DESIGN_PERSON_AND_ORGANIZATION_ASSIGNMENT ( #16, #42, ( #228 ) ) ;
#213 = DIRECTION ( 'NONE',  ( -3.489354422748178188E-15, 0.03489949670250191982, -0.9993908270190956511 ) ) ;
#214 = DIRECTION ( 'NONE',  ( 3.491481338843133355E-15, -1.224646799147353207E-16, 1.000000000000000000 ) ) ;
#215 = DATE_AND_TIME ( #259, #77 ) ;
#216 = CARTESIAN_POINT ( 'NONE',  ( -8.551662891793917432E-32, 2.999519565323715558E-33, -2.449293598294706538E-17 ) ) ;
#217 = AXIS2_PLACEMENT_3D ( 'NONE', #169, #214, #49 ) ;
#218 = PERSON_AND_ORGANIZATION ( #174, #224 ) ;
#219 = DIRECTION ( 'NONE',  ( 4.387781634824572867E-31, 1.000000000000000000, 1.224646799147353207E-16 ) ) ;
#220 = CARTESIAN_POINT ( 'NONE',  ( 0.0000000000000000000, 0.0000000000000000000, 0.0000000000000000000 ) ) ;
#221 = CIRCLE ( 'NONE', #58, 1.500000000000005107 ) ;
#222 = MANIFOLD_SOLID_BREP ( 'Corps-Déplacer/Copier1[1]', #118 ) ;
#223 = MANIFOLD_SOLID_BREP ( 'Corps-Déplacer/Copier1[2]', #188 ) ;
#224 = ORGANIZATION ( 'UNSPECIFIED', 'UNSPECIFIED', '' ) ;
#225 = EDGE_CURVE ( 'NONE', #245, #245, #262, .T. ) ;
#226 = ORIENTED_EDGE ( 'NONE', *, *, #156, .F. ) ;
#227 = ORIENTED_EDGE ( 'NONE', *, *, #156, .T. ) ;
#228 = PRODUCT_DEFINITION ( 'UNKNOWN', '', #20, #135 ) ;
#229 = DIRECTION ( 'NONE',  ( 4.275831445896958607E-31, 1.000000000000000000, 1.224646799147353207E-16 ) ) ;
#230 = COORDINATED_UNIVERSAL_TIME_OFFSET ( 1, 0, .AHEAD. ) ;
#231 = DIRECTION ( 'NONE',  ( -3.491481338843133355E-15, 1.224646799147353207E-16, -1.000000000000000000 ) ) ;
#232 = APPROVAL ( #233, 'UNSPECIFIED' ) ;
#233 = APPROVAL_STATUS ( 'not_yet_approved' ) ;
#234 = ORIENTED_EDGE ( 'NONE', *, *, #73, .F. ) ;
#235 = DIRECTION ( 'NONE',  ( 4.275831445896958607E-31, 1.000000000000000000, 1.224646799147353207E-16 ) ) ;
#236 = LOCAL_TIME ( 15, 5, 28.00000000000000000, #98 ) ;
#237 = PERSON_AND_ORGANIZATION ( #174, #224 ) ;
#238 = FACE_OUTER_BOUND ( 'NONE', #288, .T. ) ;
#239 = FACE_OUTER_BOUND ( 'NONE', #13, .T. ) ;
#240 = EDGE_CURVE ( 'NONE', #79, #79, #107, .T. ) ;
#241 = CARTESIAN_POINT ( 'NONE',  ( 0.0000000000000000000, 0.0000000000000000000, 0.0000000000000000000 ) ) ;
#242 =( NAMED_UNIT ( * ) SI_UNIT ( $, .STERADIAN. ) SOLID_ANGLE_UNIT ( ) );
#243 = ADVANCED_BREP_SHAPE_REPRESENTATION ( '997964', ( #222, #223, #88 ), #130 ) ;
#244 = AXIS2_PLACEMENT_3D ( 'NONE', #25, #22, #193 ) ;
#245 = VERTEX_POINT ( 'NONE', #59 ) ;
#246 = DIRECTION ( 'NONE',  ( 4.275831445896959482E-31, 1.000000000000000000, 1.224646799147353207E-16 ) ) ;
#247 = EDGE_CURVE ( 'NONE', #159, #270, #24, .T. ) ;
#248 = PRODUCT ( '997964', '997964', '', ( #50 ) ) ;
#249 = CC_DESIGN_PERSON_AND_ORGANIZATION_ASSIGNMENT ( #237, #2, ( #20 ) ) ;
#250 = EDGE_LOOP ( 'NONE', ( #38, #36 ) ) ;
#251 = AXIS2_PLACEMENT_3D ( 'NONE', #177, #197, #78 ) ;
#252 = ORIENTED_EDGE ( 'NONE', *, *, #158, .F. ) ;
#253 = FACE_OUTER_BOUND ( 'NONE', #165, .T. ) ;
#254 = CALENDAR_DATE ( 2021, 3, 12 ) ;
#255 = VERTEX_POINT ( 'NONE', #72 ) ;
#256 = CARTESIAN_POINT ( 'NONE',  ( 1.613620473187384888E-14, -5.659818729497589248E-16, 4.621592718356161811 ) ) ;
#257 = UNCERTAINTY_MEASURE_WITH_UNIT (LENGTH_MEASURE( 1.000000000000000082E-05 ), #286, 'distance_accuracy_value', 'NONE');
#258 = CARTESIAN_POINT ( 'NONE',  ( 8.379555213223518475E-15, -2.939152317953647106E-16, 2.399999999999999911 ) ) ;
#259 = CALENDAR_DATE ( 2021, 3, 12 ) ;
#260 = FACE_BOUND ( 'NONE', #181, .T. ) ;
#261 = DIRECTION ( 'NONE',  ( -3.491481338843133355E-15, 1.224646799147353207E-16, -1.000000000000000000 ) ) ;
#262 = CIRCLE ( 'NONE', #60, 0.5060379806221633192 ) ;
#263 = ADVANCED_FACE ( 'NONE', ( #149, #239 ), #127, .T. ) ;
#264 = SHAPE_DEFINITION_REPRESENTATION ( #275, #243 ) ;
#265 = CARTESIAN_POINT ( 'NONE',  ( -1.710332578358783486E-31, 5.999039130647431116E-33, -4.898587196589413075E-17 ) ) ;
#266 = CARTESIAN_POINT ( 'NONE',  ( 1.606081415867841091E-13, 1.199999999999999512, 46.00000000000000000 ) ) ;
#267 = EDGE_CURVE ( 'NONE', #270, #255, #209, .T. ) ;
#268 = AXIS2_PLACEMENT_3D ( 'NONE', #206, #289, #229 ) ;
#269 = PRODUCT_RELATED_PRODUCT_CATEGORY ( 'detail', '', ( #248 ) ) ;
#270 = VERTEX_POINT ( 'NONE', #33 ) ;
#271 = PLANE ( 'NONE',  #157 ) ;
#272 = DIRECTION ( 'NONE',  ( 3.491481338843133355E-15, -1.224646799147353207E-16, 1.000000000000000000 ) ) ;
#273 = CC_DESIGN_APPROVAL ( #140, ( #279 ) ) ;
#274 = EDGE_LOOP ( 'NONE', ( #87 ) ) ;
#275 = PRODUCT_DEFINITION_SHAPE ( 'NONE', 'NONE',  #228 ) ;
#276 = ORIENTED_EDGE ( 'NONE', *, *, #132, .F. ) ;
#277 = LINE ( 'NONE', #185, #278 ) ;
#278 = VECTOR ( 'NONE', #66, 1000.000000000000000 ) ;
#279 = SECURITY_CLASSIFICATION ( '', '', #192 ) ;
#280 = CC_DESIGN_PERSON_AND_ORGANIZATION_ASSIGNMENT ( #218, #164, ( #248 ) ) ;
#281 = DIRECTION ( 'NONE',  ( 0.0000000000000000000, 1.000000000000000000, 0.0000000000000000000 ) ) ;
#282 = FACE_OUTER_BOUND ( 'NONE', #250, .T. ) ;
#283 = DATE_AND_TIME ( #200, #236 ) ;
#284 = CARTESIAN_POINT ( 'NONE',  ( 1.613620473187384888E-14, 1.499999999999994449, 4.621592718356161811 ) ) ;
#285 = VECTOR ( 'NONE', #190, 1000.000000000000000 ) ;
#286 =( LENGTH_UNIT ( ) NAMED_UNIT ( * ) SI_UNIT ( .MILLI., .METRE. ) );
#287 = AXIS2_PLACEMENT_3D ( 'NONE', #139, #231, #294 ) ;
#288 = EDGE_LOOP ( 'NONE', ( #227 ) ) ;
#289 = DIRECTION ( 'NONE',  ( -3.491481338843133355E-15, 1.224646799147353207E-16, -1.000000000000000000 ) ) ;
#290 = CARTESIAN_POINT ( 'NONE',  ( 2.793185071074506684E-15, 2.790028502670395522E-33, 0.8000000000000000444 ) ) ;
#291 = AXIS2_PLACEMENT_3D ( 'NONE', #220, #261, #246 ) ;
#292 = ADVANCED_FACE ( 'NONE', ( #176 ), #161, .T. ) ;
#293 = DIRECTION ( 'NONE',  ( 1.000000000000000000, 0.0000000000000000000, 0.0000000000000000000 ) ) ;
#294 = DIRECTION ( 'NONE',  ( 0.0000000000000000000, 1.000000000000000000, 0.0000000000000000000 ) ) ;
#295 = CC_DESIGN_APPROVAL ( #101, ( #20 ) ) ;
#296 = PLANE ( 'NONE',  #28 ) ;
#297 = APPROVAL_ROLE ( '' ) ;
#298 = ORIENTED_EDGE ( 'NONE', *, *, #240, .F. ) ;
#299 = PLANE ( 'NONE',  #195 ) ;
#300 = DATE_TIME_ROLE ( 'creation_date' ) ;
#301 = CARTESIAN_POINT ( 'NONE',  ( 0.0000000000000000000, 0.4000000000000000222, 0.0000000000000000000 ) ) ;
ENDSEC;
END-ISO-10303-21;
