ISO-10303-21;
HEADER;
FILE_DESCRIPTION (( 'STEP AP203' ),
    '1' );
FILE_NAME ('997963.step',
    '2021-12-03T14:05:28',
    ( '' ),
    ( '' ),
    'SwSTEP 2.0',
    'SolidWorks 2019',
    '' );
FILE_SCHEMA (( 'CONFIG_CONTROL_DESIGN' ));
ENDSEC;

DATA;
#1 = ORIENTED_EDGE ( 'NONE', *, *, #140, .F. ) ;
#2 = DIRECTION ( 'NONE',  ( 4.275831445896959482E-31, 1.000000000000000000, 1.224646799147353207E-16 ) ) ;
#3 = CIRCLE ( 'NONE', #183, 0.3720633844066011942 ) ;
#4 = ORIENTED_EDGE ( 'NONE', *, *, #271, .F. ) ;
#5 = APPROVAL_PERSON_ORGANIZATION ( #22, #282, #69 ) ;
#6 = DATE_TIME_ROLE ( 'classification_date' ) ;
#7 = EDGE_LOOP ( 'NONE', ( #10, #152 ) ) ;
#8 = DIRECTION ( 'NONE',  ( 3.489354422748178188E-15, 0.03489949670250167002, 0.9993908270190956511 ) ) ;
#9 = EDGE_LOOP ( 'NONE', ( #84 ) ) ;
#10 = ORIENTED_EDGE ( 'NONE', *, *, #271, .T. ) ;
#11 = LINE ( 'NONE', #212, #122 ) ;
#12 = ADVANCED_FACE ( 'NONE', ( #58, #176 ), #259, .T. ) ;
#13 = DIRECTION ( 'NONE',  ( -4.275831445896958607E-31, -1.000000000000000000, -1.224646799147353207E-16 ) ) ;
#14 = DIRECTION ( 'NONE',  ( -4.275831445896958607E-31, -1.000000000000000000, -1.224646799147353207E-16 ) ) ;
#15 = FACE_OUTER_BOUND ( 'NONE', #30, .T. ) ;
#16 = DIRECTION ( 'NONE',  ( 1.000000000000000000, 0.0000000000000000000, -3.491481338843133355E-15 ) ) ;
#17 = APPROVAL_STATUS ( 'not_yet_approved' ) ;
#18 = CALENDAR_DATE ( 2021, 3, 12 ) ;
#19 = LOCAL_TIME ( 15, 5, 28.00000000000000000, #272 ) ;
#20 = ADVANCED_FACE ( 'NONE', ( #147 ), #241, .F. ) ;
#21 = CARTESIAN_POINT ( 'NONE',  ( 7.332110811570583202E-15, 0.5060379806221627641, 2.100000000000000533 ) ) ;
#22 = PERSON_AND_ORGANIZATION ( #255, #298 ) ;
#23 =( NAMED_UNIT ( * ) SI_UNIT ( $, .STERADIAN. ) SOLID_ANGLE_UNIT ( ) );
#24 = CONICAL_SURFACE ( 'NONE', #117, 1.200000000000005063, 0.7853981633974453924 ) ;
#25 = AXIS2_PLACEMENT_3D ( 'NONE', #135, #89, #64 ) ;
#26 = APPROVAL_ROLE ( '' ) ;
#27 = ADVANCED_BREP_SHAPE_REPRESENTATION ( '997963', ( #35, #237, #137 ), #100 ) ;
#28 = ADVANCED_FACE ( 'NONE', ( #280 ), #220, .T. ) ;
#29 = DIRECTION ( 'NONE',  ( -4.275831445896958607E-31, -1.000000000000000000, -1.224646799147353207E-16 ) ) ;
#30 = EDGE_LOOP ( 'NONE', ( #128 ) ) ;
#31 = EDGE_LOOP ( 'NONE', ( #257, #172, #151, #263 ) ) ;
#32 = ORIENTED_EDGE ( 'NONE', *, *, #104, .T. ) ;
#33 = ORIENTED_EDGE ( 'NONE', *, *, #222, .F. ) ;
#34 = DIRECTION ( 'NONE',  ( -3.491481338843133355E-15, 1.224646799147353207E-16, -1.000000000000000000 ) ) ;
#35 = MANIFOLD_SOLID_BREP ( 'Corps-Déplacer/Copier1[1]', #98 ) ;
#36 = ORIENTED_EDGE ( 'NONE', *, *, #177, .T. ) ;
#37 = PRODUCT_DEFINITION ( 'UNKNOWN', '', #158, #95 ) ;
#38 = FACE_OUTER_BOUND ( 'NONE', #77, .T. ) ;
#39 = DIRECTION ( 'NONE',  ( 4.275831445896958607E-31, 1.000000000000000000, 1.224646799147353207E-16 ) ) ;
#40 = PLANE ( 'NONE',  #83 ) ;
#41 = FACE_OUTER_BOUND ( 'NONE', #262, .T. ) ;
#42 = AXIS2_PLACEMENT_3D ( 'NONE', #133, #250, #185 ) ;
#43 = VERTEX_POINT ( 'NONE', #296 ) ;
#44 = COORDINATED_UNIVERSAL_TIME_OFFSET ( 1, 0, .AHEAD. ) ;
#45 = UNCERTAINTY_MEASURE_WITH_UNIT (LENGTH_MEASURE( 1.000000000000000082E-05 ), #168, 'distance_accuracy_value', 'NONE');
#46 = CC_DESIGN_PERSON_AND_ORGANIZATION_ASSIGNMENT ( #47, #236, ( #158 ) ) ;
#47 = PERSON_AND_ORGANIZATION ( #255, #298 ) ;
#48 = AXIS2_PLACEMENT_3D ( 'NONE', #227, #198, #29 ) ;
#49 = LOCAL_TIME ( 15, 5, 28.00000000000000000, #149 ) ;
#50 = APPLICATION_PROTOCOL_DEFINITION ( 'international standard', 'config_control_design', 1994, #105 ) ;
#51 = DATE_AND_TIME ( #223, #49 ) ;
#52 = EDGE_CURVE ( 'NONE', #82, #240, #129, .T. ) ;
#53 = AXIS2_PLACEMENT_3D ( 'NONE', #228, #115, #66 ) ;
#54 = APPROVAL_PERSON_ORGANIZATION ( #192, #232, #251 ) ;
#55 = FACE_OUTER_BOUND ( 'NONE', #154, .T. ) ;
#56 = CARTESIAN_POINT ( 'NONE',  ( 1.606081415867841091E-13, -5.633375276077824704E-15, 46.00000000000000000 ) ) ;
#57 = PLANE ( 'NONE',  #81 ) ;
#58 = FACE_OUTER_BOUND ( 'NONE', #243, .T. ) ;
#59 = ADVANCED_FACE ( 'NONE', ( #55 ), #57, .F. ) ;
#60 = EDGE_LOOP ( 'NONE', ( #36 ) ) ;
#61 = LINE ( 'NONE', #112, #142 ) ;
#62 = CIRCLE ( 'NONE', #162, 1.499999999999994893 ) ;
#63 = CARTESIAN_POINT ( 'NONE',  ( 0.0000000000000000000, 0.0000000000000000000, 0.0000000000000000000 ) ) ;
#64 = DIRECTION ( 'NONE',  ( 4.275831445896958607E-31, 1.000000000000000000, 1.224646799147353207E-16 ) ) ;
#65 = ADVANCED_FACE ( 'NONE', ( #221, #195 ), #24, .T. ) ;
#66 = DIRECTION ( 'NONE',  ( 4.331806540360766175E-31, 1.000000000000000000, 1.224646799147353207E-16 ) ) ;
#67 = CONICAL_SURFACE ( 'NONE', #217, 0.5060379806221629861, 0.5235987755982999259 ) ;
#68 = PLANE ( 'NONE',  #170 ) ;
#69 = APPROVAL_ROLE ( '' ) ;
#70 = DATE_AND_TIME ( #119, #19 ) ;
#71 = LOCAL_TIME ( 15, 5, 28.00000000000000000, #124 ) ;
#72 = MECHANICAL_CONTEXT ( 'NONE', #87, 'mechanical' ) ;
#73 = VERTEX_POINT ( 'NONE', #215 ) ;
#74 = ORIENTED_EDGE ( 'NONE', *, *, #300, .T. ) ;
#75 = CIRCLE ( 'NONE', #157, 0.5060379806221629861 ) ;
#76 = EDGE_LOOP ( 'NONE', ( #32 ) ) ;
#77 = EDGE_LOOP ( 'NONE', ( #281, #131 ) ) ;
#78 = EDGE_LOOP ( 'NONE', ( #283 ) ) ;
#79 = PERSON_AND_ORGANIZATION ( #255, #298 ) ;
#80 = LINE ( 'NONE', #225, #208 ) ;
#81 = AXIS2_PLACEMENT_3D ( 'NONE', #127, #224, #109 ) ;
#82 = VERTEX_POINT ( 'NONE', #130 ) ;
#83 = AXIS2_PLACEMENT_3D ( 'NONE', #114, #16, #290 ) ;
#84 = ORIENTED_EDGE ( 'NONE', *, *, #146, .F. ) ;
#85 = EDGE_CURVE ( 'NONE', #103, #82, #80, .T. ) ;
#86 = DIRECTION ( 'NONE',  ( 0.0000000000000000000, 1.000000000000000000, 0.0000000000000000000 ) ) ;
#87 = APPLICATION_CONTEXT ( 'configuration controlled 3d designs of mechanical parts and assemblies' ) ;
#88 = DIRECTION ( 'NONE',  ( -3.489354422748178188E-15, 0.03489949670250191982, -0.9993908270190956511 ) ) ;
#89 = DIRECTION ( 'NONE',  ( -3.491481338843133355E-15, 1.224646799147353207E-16, -1.000000000000000000 ) ) ;
#90 = CC_DESIGN_PERSON_AND_ORGANIZATION_ASSIGNMENT ( #121, #254, ( #126 ) ) ;
#91 = DIRECTION ( 'NONE',  ( -3.491481338843133355E-15, 1.224646799147353207E-16, -1.000000000000000000 ) ) ;
#92 = DIRECTION ( 'NONE',  ( 0.0000000000000000000, 1.000000000000000000, 0.0000000000000000000 ) ) ;
#93 = ADVANCED_FACE ( 'NONE', ( #201 ), #276, .T. ) ;
#94 = VERTEX_POINT ( 'NONE', #21 ) ;
#95 = DESIGN_CONTEXT ( 'detailed design', #105, 'design' ) ;
#96 = DATE_AND_TIME ( #18, #167 ) ;
#97 = CARTESIAN_POINT ( 'NONE',  ( 1.334301966079934377E-14, 1.499999999999994449, 3.821592718356162433 ) ) ;
#98 = CLOSED_SHELL ( 'NONE', ( #20, #258, #153, #211, #12, #65, #59 ) ) ;
#99 = AXIS2_PLACEMENT_3D ( 'NONE', #269, #289, #86 ) ;
#100 =( GEOMETRIC_REPRESENTATION_CONTEXT ( 3 ) GLOBAL_UNCERTAINTY_ASSIGNED_CONTEXT ( ( #45 ) ) GLOBAL_UNIT_ASSIGNED_CONTEXT ( ( #168, #164, #23 ) ) REPRESENTATION_CONTEXT ( 'NONE', 'WORKASPACE' ) );
#101 = APPROVAL_DATE_TIME ( #299, #232 ) ;
#102 = CARTESIAN_POINT ( 'NONE',  ( -8.551662891793917432E-32, 2.999519565323715558E-33, -2.449293598294706538E-17 ) ) ;
#103 = VERTEX_POINT ( 'NONE', #205 ) ;
#104 = EDGE_CURVE ( 'NONE', #94, #94, #75, .T. ) ;
#105 = APPLICATION_CONTEXT ( 'configuration controlled 3d designs of mechanical parts and assemblies' ) ;
#106 = AXIS2_PLACEMENT_3D ( 'NONE', #63, #159, #246 ) ;
#107 = VERTEX_POINT ( 'NONE', #267 ) ;
#108 = PERSON_AND_ORGANIZATION ( #255, #298 ) ;
#109 = DIRECTION ( 'NONE',  ( 4.275831445896958607E-31, 1.000000000000000000, 1.224646799147353207E-16 ) ) ;
#110 = CC_DESIGN_APPROVAL ( #219, ( #144 ) ) ;
#111 = DIRECTION ( 'NONE',  ( 0.0000000000000000000, -1.000000000000000000, 0.0000000000000000000 ) ) ;
#112 = CARTESIAN_POINT ( 'NONE',  ( 2.793185071074506684E-15, 2.790028502670395522E-33, 0.8000000000000000444 ) ) ;
#113 = FACE_OUTER_BOUND ( 'NONE', #178, .T. ) ;
#114 = CARTESIAN_POINT ( 'NONE',  ( 0.0000000000000000000, 0.0000000000000000000, 0.0000000000000000000 ) ) ;
#115 = DIRECTION ( 'NONE',  ( -3.491481338843133355E-15, 1.224646799147353207E-16, -1.000000000000000000 ) ) ;
#116 = CARTESIAN_POINT ( 'NONE',  ( 1.595606971851311880E-13, 1.499999999999999334, 45.69999999999999574 ) ) ;
#117 = AXIS2_PLACEMENT_3D ( 'NONE', #56, #150, #285 ) ;
#118 = CC_DESIGN_SECURITY_CLASSIFICATION ( #144, ( #158 ) ) ;
#119 = CALENDAR_DATE ( 2021, 3, 12 ) ;
#120 = APPROVAL_DATE_TIME ( #70, #282 ) ;
#121 = PERSON_AND_ORGANIZATION ( #255, #298 ) ;
#122 = VECTOR ( 'NONE', #88, 1000.000000000000227 ) ;
#123 = VECTOR ( 'NONE', #14, 1000.000000000000000 ) ;
#124 = COORDINATED_UNIVERSAL_TIME_OFFSET ( 1, 0, .AHEAD. ) ;
#125 = CC_DESIGN_PERSON_AND_ORGANIZATION_ASSIGNMENT ( #252, #216, ( #158 ) ) ;
#126 = PRODUCT ( '997963', '997963', '', ( #72 ) ) ;
#127 = CARTESIAN_POINT ( 'NONE',  ( 1.606081415867841091E-13, 8.998558695971099120E-33, 46.00000000000000000 ) ) ;
#128 = ORIENTED_EDGE ( 'NONE', *, *, #300, .F. ) ;
#129 = CIRCLE ( 'NONE', #261, 0.3720633844066011942 ) ;
#130 = CARTESIAN_POINT ( 'NONE',  ( 2.793185071074506684E-15, -0.3720633844066013052, 0.8000000000000000444 ) ) ;
#131 = ORIENTED_EDGE ( 'NONE', *, *, #132, .T. ) ;
#132 = EDGE_CURVE ( 'NONE', #82, #240, #61, .T. ) ;
#133 = CARTESIAN_POINT ( 'NONE',  ( 1.606081415867841091E-13, -5.633375276077824704E-15, 46.00000000000000000 ) ) ;
#134 = DIRECTION ( 'NONE',  ( 0.0000000000000000000, 1.000000000000000000, 0.0000000000000000000 ) ) ;
#135 = CARTESIAN_POINT ( 'NONE',  ( -1.710332578358783486E-31, 5.999039130647431116E-33, -4.898587196589413075E-17 ) ) ;
#136 = CARTESIAN_POINT ( 'NONE',  ( 7.332110811570583202E-15, -2.571758278209442943E-16, 2.100000000000000533 ) ) ;
#137 = AXIS2_PLACEMENT_3D ( 'NONE', #145, #189, #214 ) ;
#138 = CYLINDRICAL_SURFACE ( 'NONE', #106, 0.3720633844066011942 ) ;
#139 = APPLICATION_PROTOCOL_DEFINITION ( 'international standard', 'config_control_design', 1994, #87 ) ;
#140 = EDGE_CURVE ( 'NONE', #73, #73, #3, .T. ) ;
#141 = PERSON_AND_ORGANIZATION_ROLE ( 'creator' ) ;
#142 = VECTOR ( 'NONE', #39, 1000.000000000000000 ) ;
#143 = DATE_TIME_ROLE ( 'creation_date' ) ;
#144 = SECURITY_CLASSIFICATION ( '', '', #273 ) ;
#145 = CARTESIAN_POINT ( 'NONE',  ( 0.0000000000000000000, 0.0000000000000000000, 0.0000000000000000000 ) ) ;
#146 = EDGE_CURVE ( 'NONE', #295, #295, #256, .T. ) ;
#147 = FACE_OUTER_BOUND ( 'NONE', #278, .T. ) ;
#148 = ORIENTED_EDGE ( 'NONE', *, *, #85, .T. ) ;
#149 = COORDINATED_UNIVERSAL_TIME_OFFSET ( 1, 0, .AHEAD. ) ;
#150 = DIRECTION ( 'NONE',  ( -3.491481338843133355E-15, 1.224646799147353207E-16, -1.000000000000000000 ) ) ;
#151 = ORIENTED_EDGE ( 'NONE', *, *, #132, .F. ) ;
#152 = ORIENTED_EDGE ( 'NONE', *, *, #165, .T. ) ;
#153 = ADVANCED_FACE ( 'NONE', ( #233, #230 ), #297, .F. ) ;
#154 = EDGE_LOOP ( 'NONE', ( #279 ) ) ;
#155 = CARTESIAN_POINT ( 'NONE',  ( 2.793185071074506684E-15, -9.797174393178826150E-17, 0.8000000000000000444 ) ) ;
#156 = CC_DESIGN_PERSON_AND_ORGANIZATION_ASSIGNMENT ( #274, #141, ( #37 ) ) ;
#157 = AXIS2_PLACEMENT_3D ( 'NONE', #181, #184, #134 ) ;
#158 = PRODUCT_DEFINITION_FORMATION_WITH_SPECIFIED_SOURCE ( 'ANY', '', #126, .NOT_KNOWN. ) ;
#159 = DIRECTION ( 'NONE',  ( -3.491481338843133355E-15, 1.224646799147353207E-16, -1.000000000000000000 ) ) ;
#160 = DIRECTION ( 'NONE',  ( 0.0000000000000000000, 1.000000000000000000, 0.0000000000000000000 ) ) ;
#161 = CARTESIAN_POINT ( 'NONE',  ( 5.586370142149013368E-15, -1.959434878635765230E-16, 1.600000000000000089 ) ) ;
#162 = AXIS2_PLACEMENT_3D ( 'NONE', #182, #265, #160 ) ;
#163 = DIRECTION ( 'NONE',  ( 3.491481338843133355E-15, -1.224646799147353207E-16, 1.000000000000000000 ) ) ;
#164 =( NAMED_UNIT ( * ) PLANE_ANGLE_UNIT ( ) SI_UNIT ( $, .RADIAN. ) );
#165 = EDGE_CURVE ( 'NONE', #107, #103, #244, .T. ) ;
#166 = VERTEX_POINT ( 'NONE', #97 ) ;
#167 = LOCAL_TIME ( 15, 5, 28.00000000000000000, #234 ) ;
#168 =( LENGTH_UNIT ( ) NAMED_UNIT ( * ) SI_UNIT ( .MILLI., .METRE. ) );
#169 = SHAPE_DEFINITION_REPRESENTATION ( #245, #27 ) ;
#170 = AXIS2_PLACEMENT_3D ( 'NONE', #288, #163, #13 ) ;
#171 = DIRECTION ( 'NONE',  ( 0.0000000000000000000, 1.000000000000000000, 0.0000000000000000000 ) ) ;
#172 = ORIENTED_EDGE ( 'NONE', *, *, #213, .F. ) ;
#173 = DIRECTION ( 'NONE',  ( -3.491481338843133355E-15, 1.224646799147353207E-16, -1.000000000000000000 ) ) ;
#174 = EDGE_LOOP ( 'NONE', ( #193 ) ) ;
#175 = APPROVAL_DATE_TIME ( #197, #219 ) ;
#176 = FACE_OUTER_BOUND ( 'NONE', #174, .T. ) ;
#177 = EDGE_CURVE ( 'NONE', #43, #43, #284, .T. ) ;
#178 = EDGE_LOOP ( 'NONE', ( #202 ) ) ;
#179 = DIRECTION ( 'NONE',  ( 4.275831445896958607E-31, 1.000000000000000000, 1.224646799147353207E-16 ) ) ;
#180 = ADVANCED_FACE ( 'NONE', ( #38 ), #68, .T. ) ;
#181 = CARTESIAN_POINT ( 'NONE',  ( 7.332110811570583202E-15, -2.571758278209442943E-16, 2.100000000000000533 ) ) ;
#182 = CARTESIAN_POINT ( 'NONE',  ( 1.334301966079934377E-14, -4.680101290179706879E-16, 3.821592718356162433 ) ) ;
#183 = AXIS2_PLACEMENT_3D ( 'NONE', #161, #231, #264 ) ;
#184 = DIRECTION ( 'NONE',  ( -3.491481338843133355E-15, 1.224646799147353207E-16, -1.000000000000000000 ) ) ;
#185 = DIRECTION ( 'NONE',  ( 0.0000000000000000000, 1.000000000000000000, 0.0000000000000000000 ) ) ;
#186 = CC_DESIGN_DATE_AND_TIME_ASSIGNMENT ( #96, #143, ( #37 ) ) ;
#187 = DIRECTION ( 'NONE',  ( 4.275831445896958607E-31, 1.000000000000000000, 1.224646799147353207E-16 ) ) ;
#188 = APPROVAL_STATUS ( 'not_yet_approved' ) ;
#189 = DIRECTION ( 'NONE',  ( 0.0000000000000000000, 0.0000000000000000000, 1.000000000000000000 ) ) ;
#190 = AXIS2_PLACEMENT_3D ( 'NONE', #242, #34, #2 ) ;
#191 = VERTEX_POINT ( 'NONE', #218 ) ;
#192 = PERSON_AND_ORGANIZATION ( #255, #298 ) ;
#193 = ORIENTED_EDGE ( 'NONE', *, *, #146, .T. ) ;
#194 = ORIENTED_EDGE ( 'NONE', *, *, #52, .T. ) ;
#195 = FACE_BOUND ( 'NONE', #60, .T. ) ;
#196 = CC_DESIGN_APPROVAL ( #282, ( #158 ) ) ;
#197 = DATE_AND_TIME ( #301, #71 ) ;
#198 = DIRECTION ( 'NONE',  ( 3.491481338843133355E-15, -1.224646799147353207E-16, 1.000000000000000000 ) ) ;
#199 = CC_DESIGN_PERSON_AND_ORGANIZATION_ASSIGNMENT ( #79, #200, ( #144 ) ) ;
#200 = PERSON_AND_ORGANIZATION_ROLE ( 'classification_officer' ) ;
#201 = FACE_OUTER_BOUND ( 'NONE', #238, .T. ) ;
#202 = ORIENTED_EDGE ( 'NONE', *, *, #222, .T. ) ;
#203 = APPROVAL_STATUS ( 'not_yet_approved' ) ;
#204 = EDGE_LOOP ( 'NONE', ( #1 ) ) ;
#205 = CARTESIAN_POINT ( 'NONE',  ( -3.420665156717566973E-31, -0.4000000000000000222, -9.797174393178826150E-17 ) ) ;
#206 = FACE_BOUND ( 'NONE', #78, .T. ) ;
#207 = CARTESIAN_POINT ( 'NONE',  ( 0.0000000000000000000, 0.4000000000000000222, 0.0000000000000000000 ) ) ;
#208 = VECTOR ( 'NONE', #8, 1000.000000000000227 ) ;
#209 = APPROVAL_PERSON_ORGANIZATION ( #108, #219, #26 ) ;
#210 = CARTESIAN_POINT ( 'NONE',  ( 2.793185071074506684E-15, 0.3720633844066010831, 0.8000000000000000444 ) ) ;
#211 = ADVANCED_FACE ( 'NONE', ( #113, #206 ), #67, .T. ) ;
#212 = CARTESIAN_POINT ( 'NONE',  ( 3.999317758067315159E-14, -1.402771836899785890E-15, 11.45450131316597009 ) ) ;
#213 = EDGE_CURVE ( 'NONE', #240, #107, #11, .T. ) ;
#214 = DIRECTION ( 'NONE',  ( 1.000000000000000000, 0.0000000000000000000, 0.0000000000000000000 ) ) ;
#215 = CARTESIAN_POINT ( 'NONE',  ( 5.586370142149013368E-15, 0.3720633844066009721, 1.600000000000000089 ) ) ;
#216 = PERSON_AND_ORGANIZATION_ROLE ( 'creator' ) ;
#217 = AXIS2_PLACEMENT_3D ( 'NONE', #136, #248, #111 ) ;
#218 = CARTESIAN_POINT ( 'NONE',  ( 2.793185071074506684E-15, 0.3720633844066010831, 0.8000000000000000444 ) ) ;
#219 = APPROVAL ( #203, 'UNSPECIFIED' ) ;
#220 = PLANE ( 'NONE',  #253 ) ;
#221 = FACE_OUTER_BOUND ( 'NONE', #9, .T. ) ;
#222 = EDGE_CURVE ( 'NONE', #166, #166, #62, .T. ) ;
#223 = CALENDAR_DATE ( 2021, 3, 12 ) ;
#224 = DIRECTION ( 'NONE',  ( -3.491481338843133355E-15, 1.224646799147353207E-16, -1.000000000000000000 ) ) ;
#225 = CARTESIAN_POINT ( 'NONE',  ( 3.999317758067315159E-14, -1.402771836899785890E-15, 11.45450131316597009 ) ) ;
#226 = ORIENTED_EDGE ( 'NONE', *, *, #140, .T. ) ;
#227 = CARTESIAN_POINT ( 'NONE',  ( 2.793185071074506684E-15, 2.790028502670395522E-33, 0.8000000000000000444 ) ) ;
#228 = CARTESIAN_POINT ( 'NONE',  ( 5.586370142149013368E-15, -2.168404344971008868E-16, 1.599999999999999867 ) ) ;
#229 = LOCAL_TIME ( 15, 5, 28.00000000000000000, #44 ) ;
#230 = FACE_OUTER_BOUND ( 'NONE', #204, .T. ) ;
#231 = DIRECTION ( 'NONE',  ( -3.491481338843133355E-15, 1.224646799147353207E-16, -1.000000000000000000 ) ) ;
#232 = APPROVAL ( #17, 'UNSPECIFIED' ) ;
#233 = FACE_OUTER_BOUND ( 'NONE', #76, .T. ) ;
#234 = COORDINATED_UNIVERSAL_TIME_OFFSET ( 1, 0, .AHEAD. ) ;
#235 = AXIS2_PLACEMENT_3D ( 'NONE', #286, #91, #187 ) ;
#236 = PERSON_AND_ORGANIZATION_ROLE ( 'design_supplier' ) ;
#237 = MANIFOLD_SOLID_BREP ( 'Corps-Déplacer/Copier1[2]', #293 ) ;
#238 = EDGE_LOOP ( 'NONE', ( #4, #148, #194, #275 ) ) ;
#239 = PRODUCT_RELATED_PRODUCT_CATEGORY ( 'detail', '', ( #126 ) ) ;
#240 = VERTEX_POINT ( 'NONE', #210 ) ;
#241 = PLANE ( 'NONE',  #48 ) ;
#242 = CARTESIAN_POINT ( 'NONE',  ( 0.0000000000000000000, 0.0000000000000000000, 0.0000000000000000000 ) ) ;
#243 = EDGE_LOOP ( 'NONE', ( #33 ) ) ;
#244 = LINE ( 'NONE', #207, #123 ) ;
#245 = PRODUCT_DEFINITION_SHAPE ( 'NONE', 'NONE',  #37 ) ;
#246 = DIRECTION ( 'NONE',  ( 4.275831445896958607E-31, 1.000000000000000000, 1.224646799147353207E-16 ) ) ;
#247 = FACE_OUTER_BOUND ( 'NONE', #31, .T. ) ;
#248 = DIRECTION ( 'NONE',  ( 3.491481338843133355E-15, -1.224646799147353207E-16, 1.000000000000000000 ) ) ;
#249 = CIRCLE ( 'NONE', #25, 0.4000000000000000222 ) ;
#250 = DIRECTION ( 'NONE',  ( -3.491481338843133355E-15, 1.224646799147353207E-16, -1.000000000000000000 ) ) ;
#251 = APPROVAL_ROLE ( '' ) ;
#252 = PERSON_AND_ORGANIZATION ( #255, #298 ) ;
#253 = AXIS2_PLACEMENT_3D ( 'NONE', #102, #260, #179 ) ;
#254 = PERSON_AND_ORGANIZATION_ROLE ( 'design_owner' ) ;
#255 = PERSON ( 'UNSPECIFIED', 'UNSPECIFIED', 'UNSPECIFIED', ('UNSPECIFIED'), ('UNSPECIFIED'), ('UNSPECIFIED') ) ;
#256 = CIRCLE ( 'NONE', #99, 1.500000000000005107 ) ;
#257 = ORIENTED_EDGE ( 'NONE', *, *, #165, .F. ) ;
#258 = ADVANCED_FACE ( 'NONE', ( #41, #15 ), #138, .T. ) ;
#259 = CYLINDRICAL_SURFACE ( 'NONE', #190, 1.500000000000000000 ) ;
#260 = DIRECTION ( 'NONE',  ( -3.491481338843133355E-15, 1.224646799147353207E-16, -1.000000000000000000 ) ) ;
#261 = AXIS2_PLACEMENT_3D ( 'NONE', #155, #173, #171 ) ;
#262 = EDGE_LOOP ( 'NONE', ( #226 ) ) ;
#263 = ORIENTED_EDGE ( 'NONE', *, *, #85, .F. ) ;
#264 = DIRECTION ( 'NONE',  ( 0.0000000000000000000, 1.000000000000000000, 0.0000000000000000000 ) ) ;
#265 = DIRECTION ( 'NONE',  ( -3.491481338843133355E-15, 1.224646799147353207E-16, -1.000000000000000000 ) ) ;
#266 = AXIS2_PLACEMENT_3D ( 'NONE', #268, #291, #92 ) ;
#267 = CARTESIAN_POINT ( 'NONE',  ( 0.0000000000000000000, 0.4000000000000000222, 0.0000000000000000000 ) ) ;
#268 = CARTESIAN_POINT ( 'NONE',  ( 2.793185071074506684E-15, -9.797174393178826150E-17, 0.8000000000000000444 ) ) ;
#269 = CARTESIAN_POINT ( 'NONE',  ( 1.595606971851311880E-13, -5.596635872103403844E-15, 45.69999999999999574 ) ) ;
#270 = CIRCLE ( 'NONE', #266, 0.3720633844066011942 ) ;
#271 = EDGE_CURVE ( 'NONE', #103, #107, #249, .T. ) ;
#272 = COORDINATED_UNIVERSAL_TIME_OFFSET ( 1, 0, .AHEAD. ) ;
#273 = SECURITY_CLASSIFICATION_LEVEL ( 'unclassified' ) ;
#274 = PERSON_AND_ORGANIZATION ( #255, #298 ) ;
#275 = ORIENTED_EDGE ( 'NONE', *, *, #213, .T. ) ;
#276 = CONICAL_SURFACE ( 'NONE', #235, 0.4000000000000000222, 0.03490658503988741668 ) ;
#277 = CC_DESIGN_APPROVAL ( #232, ( #37 ) ) ;
#278 = EDGE_LOOP ( 'NONE', ( #74 ) ) ;
#279 = ORIENTED_EDGE ( 'NONE', *, *, #177, .F. ) ;
#280 = FACE_OUTER_BOUND ( 'NONE', #7, .T. ) ;
#281 = ORIENTED_EDGE ( 'NONE', *, *, #52, .F. ) ;
#282 = APPROVAL ( #188, 'UNSPECIFIED' ) ;
#283 = ORIENTED_EDGE ( 'NONE', *, *, #104, .F. ) ;
#284 = CIRCLE ( 'NONE', #42, 1.200000000000005063 ) ;
#285 = DIRECTION ( 'NONE',  ( 0.0000000000000000000, 1.000000000000000000, 0.0000000000000000000 ) ) ;
#286 = CARTESIAN_POINT ( 'NONE',  ( -1.710332578358783486E-31, 5.999039130647431116E-33, -4.898587196589413075E-17 ) ) ;
#287 = CC_DESIGN_DATE_AND_TIME_ASSIGNMENT ( #51, #6, ( #144 ) ) ;
#288 = CARTESIAN_POINT ( 'NONE',  ( 2.793185071074506684E-15, 2.790028502670395522E-33, 0.8000000000000000444 ) ) ;
#289 = DIRECTION ( 'NONE',  ( -3.491481338843133355E-15, 1.224646799147353207E-16, -1.000000000000000000 ) ) ;
#290 = DIRECTION ( 'NONE',  ( -3.491481338843133355E-15, 0.0000000000000000000, -1.000000000000000000 ) ) ;
#291 = DIRECTION ( 'NONE',  ( -3.491481338843133355E-15, 1.224646799147353207E-16, -1.000000000000000000 ) ) ;
#292 = ADVANCED_FACE ( 'NONE', ( #247 ), #40, .T. ) ;
#293 = CLOSED_SHELL ( 'NONE', ( #28, #93, #180, #292 ) ) ;
#294 = CALENDAR_DATE ( 2021, 3, 12 ) ;
#295 = VERTEX_POINT ( 'NONE', #116 ) ;
#296 = CARTESIAN_POINT ( 'NONE',  ( 1.606081415867841091E-13, 1.199999999999999512, 46.00000000000000000 ) ) ;
#297 = TOROIDAL_SURFACE ( 'NONE', #53, 1.372063384406601250, 0.9999999999999997780 ) ;
#298 = ORGANIZATION ( 'UNSPECIFIED', 'UNSPECIFIED', '' ) ;
#299 = DATE_AND_TIME ( #294, #229 ) ;
#300 = EDGE_CURVE ( 'NONE', #191, #191, #270, .T. ) ;
#301 = CALENDAR_DATE ( 2021, 3, 12 ) ;
ENDSEC;
END-ISO-10303-21;
