ISO-10303-21;
HEADER;
FILE_DESCRIPTION (( 'STEP AP203' ),
    '1' );
FILE_NAME ('997961.step',
    '2021-12-03T14:05:27',
    ( '' ),
    ( '' ),
    'SwSTEP 2.0',
    'SolidWorks 2019',
    '' );
FILE_SCHEMA (( 'CONFIG_CONTROL_DESIGN' ));
ENDSEC;

DATA;
#1 =( LENGTH_UNIT ( ) NAMED_UNIT ( * ) SI_UNIT ( .MILLI., .METRE. ) );
#2 = PRODUCT_RELATED_PRODUCT_CATEGORY ( 'detail', '', ( #46 ) ) ;
#3 = PERSON_AND_ORGANIZATION_ROLE ( 'classification_officer' ) ;
#4 = CONICAL_SURFACE ( 'NONE', #279, 0.3499999999999999778, 0.03490658503988718769 ) ;
#5 = LOCAL_TIME ( 15, 5, 27.00000000000000000, #300 ) ;
#6 = CLOSED_SHELL ( 'NONE', ( #47, #44, #140, #274, #190, #259, #253 ) ) ;
#7 = TOROIDAL_SURFACE ( 'NONE', #192, 1.325555461355776066, 1.000000000000000000 ) ;
#8 = CC_DESIGN_PERSON_AND_ORGANIZATION_ASSIGNMENT ( #25, #183, ( #174 ) ) ;
#9 = LINE ( 'NONE', #189, #130 ) ;
#10 =( GEOMETRIC_REPRESENTATION_CONTEXT ( 3 ) GLOBAL_UNCERTAINTY_ASSIGNED_CONTEXT ( ( #77 ) ) GLOBAL_UNIT_ASSIGNED_CONTEXT ( ( #1, #22, #179 ) ) REPRESENTATION_CONTEXT ( 'NONE', 'WORKASPACE' ) );
#11 = DIRECTION ( 'NONE',  ( 4.390020485223408867E-31, 1.000000000000000000, 1.224646799147353207E-16 ) ) ;
#12 = VERTEX_POINT ( 'NONE', #216 ) ;
#13 = DIRECTION ( 'NONE',  ( 0.0000000000000000000, 1.000000000000000000, 0.0000000000000000000 ) ) ;
#14 = ORIENTED_EDGE ( 'NONE', *, *, #291, .T. ) ;
#15 = PERSON_AND_ORGANIZATION ( #78, #289 ) ;
#16 = CARTESIAN_POINT ( 'NONE',  ( 7.332110811570581624E-15, -2.571758278209441957E-16, 2.100000000000000089 ) ) ;
#17 = FACE_OUTER_BOUND ( 'NONE', #60, .T. ) ;
#18 = SECURITY_CLASSIFICATION ( '', '', #138 ) ;
#19 = PLANE ( 'NONE',  #149 ) ;
#20 = APPROVAL_ROLE ( '' ) ;
#21 = PLANE ( 'NONE',  #286 ) ;
#22 =( NAMED_UNIT ( * ) PLANE_ANGLE_UNIT ( ) SI_UNIT ( $, .RADIAN. ) );
#23 = AXIS2_PLACEMENT_3D ( 'NONE', #123, #59, #268 ) ;
#24 = EDGE_CURVE ( 'NONE', #106, #145, #45, .T. ) ;
#25 = PERSON_AND_ORGANIZATION ( #78, #289 ) ;
#26 = AXIS2_PLACEMENT_3D ( 'NONE', #110, #103, #200 ) ;
#27 = APPROVAL_PERSON_ORGANIZATION ( #69, #164, #157 ) ;
#28 = APPLICATION_CONTEXT ( 'configuration controlled 3d designs of mechanical parts and assemblies' ) ;
#29 = ORIENTED_EDGE ( 'NONE', *, *, #52, .F. ) ;
#30 = AXIS2_PLACEMENT_3D ( 'NONE', #222, #214, #89 ) ;
#31 = APPROVAL ( #223, 'UNSPECIFIED' ) ;
#32 = CARTESIAN_POINT ( 'NONE',  ( 2.444036937190192954E-15, -0.3255554613557762877, 0.6999999999999998446 ) ) ;
#33 = APPROVAL_PERSON_ORGANIZATION ( #249, #287, #295 ) ;
#34 = DIRECTION ( 'NONE',  ( 0.0000000000000000000, 1.000000000000000000, 0.0000000000000000000 ) ) ;
#35 = DIRECTION ( 'NONE',  ( -3.491481338843133355E-15, 1.224646799147353207E-16, -1.000000000000000000 ) ) ;
#36 = CARTESIAN_POINT ( 'NONE',  ( 0.0000000000000000000, 0.0000000000000000000, 0.0000000000000000000 ) ) ;
#37 = EDGE_LOOP ( 'NONE', ( #62, #194 ) ) ;
#38 = DIRECTION ( 'NONE',  ( 3.491481338843133355E-15, -1.224646799147353207E-16, 1.000000000000000000 ) ) ;
#39 = ORIENTED_EDGE ( 'NONE', *, *, #107, .F. ) ;
#40 = CARTESIAN_POINT ( 'NONE',  ( 1.595606971851311880E-13, 1.499999999999999334, 45.69999999999999574 ) ) ;
#41 = ORIENTED_EDGE ( 'NONE', *, *, #24, .T. ) ;
#42 = APPLICATION_PROTOCOL_DEFINITION ( 'international standard', 'config_control_design', 1994, #28 ) ;
#43 = DIRECTION ( 'NONE',  ( 4.275831445896958607E-31, 1.000000000000000000, 1.224646799147353207E-16 ) ) ;
#44 = ADVANCED_FACE ( 'NONE', ( #296, #153 ), #299, .T. ) ;
#45 = LINE ( 'NONE', #178, #79 ) ;
#46 = PRODUCT ( '997961', '997961', '', ( #272 ) ) ;
#47 = ADVANCED_FACE ( 'NONE', ( #228 ), #21, .F. ) ;
#48 = AXIS2_PLACEMENT_3D ( 'NONE', #141, #35, #282 ) ;
#49 = LOCAL_TIME ( 15, 5, 27.00000000000000000, #230 ) ;
#50 = MANIFOLD_SOLID_BREP ( 'Corps-Déplacer/Copier1[1]', #6 ) ;
#51 = MANIFOLD_SOLID_BREP ( 'Corps-Déplacer/Copier1[2]', #127 ) ;
#52 = EDGE_CURVE ( 'NONE', #132, #151, #173, .T. ) ;
#53 = FACE_OUTER_BOUND ( 'NONE', #113, .T. ) ;
#54 = EDGE_LOOP ( 'NONE', ( #72 ) ) ;
#55 = DIRECTION ( 'NONE',  ( -3.491481338843133355E-15, 1.224646799147353207E-16, -1.000000000000000000 ) ) ;
#56 = CARTESIAN_POINT ( 'NONE',  ( 7.332110811570581624E-15, -2.168404344971008868E-16, 2.100000000000000089 ) ) ;
#57 = ORIENTED_EDGE ( 'NONE', *, *, #181, .T. ) ;
#58 = CONICAL_SURFACE ( 'NONE', #202, 1.200000000000005063, 0.7853981633974453924 ) ;
#59 = DIRECTION ( 'NONE',  ( -3.491481338843133355E-15, 1.224646799147353207E-16, -1.000000000000000000 ) ) ;
#60 = EDGE_LOOP ( 'NONE', ( #218 ) ) ;
#61 = APPROVAL_STATUS ( 'not_yet_approved' ) ;
#62 = ORIENTED_EDGE ( 'NONE', *, *, #245, .F. ) ;
#63 = PLANE ( 'NONE',  #144 ) ;
#64 = VERTEX_POINT ( 'NONE', #284 ) ;
#65 = CIRCLE ( 'NONE', #76, 1.200000000000005063 ) ;
#66 = DIRECTION ( 'NONE',  ( -3.491481338843133355E-15, 1.224646799147353207E-16, -1.000000000000000000 ) ) ;
#67 = CARTESIAN_POINT ( 'NONE',  ( 2.444036937190193349E-15, 2.441274939836596638E-33, 0.6999999999999999556 ) ) ;
#68 = COORDINATED_UNIVERSAL_TIME_OFFSET ( 1, 0, .AHEAD. ) ;
#69 = PERSON_AND_ORGANIZATION ( #78, #289 ) ;
#70 = CIRCLE ( 'NONE', #112, 0.3255554613557760657 ) ;
#71 = DIRECTION ( 'NONE',  ( 3.491481338843133355E-15, -1.224646799147353207E-16, 1.000000000000000000 ) ) ;
#72 = ORIENTED_EDGE ( 'NONE', *, *, #235, .T. ) ;
#73 = DATE_AND_TIME ( #168, #49 ) ;
#74 = PERSON_AND_ORGANIZATION ( #78, #289 ) ;
#75 = EDGE_LOOP ( 'NONE', ( #244 ) ) ;
#76 = AXIS2_PLACEMENT_3D ( 'NONE', #128, #220, #213 ) ;
#77 = UNCERTAINTY_MEASURE_WITH_UNIT (LENGTH_MEASURE( 1.000000000000000082E-05 ), #1, 'distance_accuracy_value', 'NONE');
#78 = PERSON ( 'UNSPECIFIED', 'UNSPECIFIED', 'UNSPECIFIED', ('UNSPECIFIED'), ('UNSPECIFIED'), ('UNSPECIFIED') ) ;
#79 = VECTOR ( 'NONE', #201, 1000.000000000000114 ) ;
#80 = CARTESIAN_POINT ( 'NONE',  ( 2.444036937190193349E-15, -8.572527594031471957E-17, 0.6999999999999999556 ) ) ;
#81 = EDGE_CURVE ( 'NONE', #151, #106, #95, .T. ) ;
#82 = AXIS2_PLACEMENT_3D ( 'NONE', #80, #143, #84 ) ;
#83 = CARTESIAN_POINT ( 'NONE',  ( 1.606081415867841091E-13, 1.199999999999999512, 46.00000000000000000 ) ) ;
#84 = DIRECTION ( 'NONE',  ( 0.0000000000000000000, 1.000000000000000000, 0.0000000000000000000 ) ) ;
#85 = PERSON_AND_ORGANIZATION ( #78, #289 ) ;
#86 = ORIENTED_EDGE ( 'NONE', *, *, #156, .T. ) ;
#87 = DIRECTION ( 'NONE',  ( -3.491481338843133355E-15, 1.224646799147353207E-16, -1.000000000000000000 ) ) ;
#88 = DIRECTION ( 'NONE',  ( 4.275831445896958607E-31, 1.000000000000000000, 1.224646799147353207E-16 ) ) ;
#89 = DIRECTION ( 'NONE',  ( 0.0000000000000000000, 1.000000000000000000, 0.0000000000000000000 ) ) ;
#90 = CARTESIAN_POINT ( 'NONE',  ( 3.499403038308923720E-14, -1.227425357287320887E-15, 10.02268864902029044 ) ) ;
#91 = LOCAL_TIME ( 15, 5, 27.00000000000000000, #68 ) ;
#92 = PERSON_AND_ORGANIZATION_ROLE ( 'creator' ) ;
#93 = DIRECTION ( 'NONE',  ( 0.0000000000000000000, 1.000000000000000000, 0.0000000000000000000 ) ) ;
#94 = CALENDAR_DATE ( 2021, 3, 12 ) ;
#95 = LINE ( 'NONE', #67, #139 ) ;
#96 = DATE_AND_TIME ( #258, #280 ) ;
#97 = CONICAL_SURFACE ( 'NONE', #185, 0.4595300575713379687, 0.5235987755982998149 ) ;
#98 = ADVANCED_FACE ( 'NONE', ( #204 ), #19, .T. ) ;
#99 = CC_DESIGN_APPROVAL ( #287, ( #205 ) ) ;
#100 = CIRCLE ( 'NONE', #266, 0.4595300575713379687 ) ;
#101 = DIRECTION ( 'NONE',  ( -4.275831445896958607E-31, -1.000000000000000000, -1.224646799147353207E-16 ) ) ;
#102 = CC_DESIGN_PERSON_AND_ORGANIZATION_ASSIGNMENT ( #15, #148, ( #46 ) ) ;
#103 = DIRECTION ( 'NONE',  ( -3.491481338843133355E-15, 1.224646799147353207E-16, -1.000000000000000000 ) ) ;
#104 = FACE_OUTER_BOUND ( 'NONE', #206, .T. ) ;
#105 = DIRECTION ( 'NONE',  ( -4.275831445896958607E-31, -1.000000000000000000, -1.224646799147353207E-16 ) ) ;
#106 = VERTEX_POINT ( 'NONE', #271 ) ;
#107 = EDGE_CURVE ( 'NONE', #12, #12, #171, .T. ) ;
#108 = DIRECTION ( 'NONE',  ( 4.275831445896958607E-31, 1.000000000000000000, 1.224646799147353207E-16 ) ) ;
#109 = FACE_BOUND ( 'NONE', #147, .T. ) ;
#110 = CARTESIAN_POINT ( 'NONE',  ( 1.595606971851311880E-13, -5.596635872103403844E-15, 45.69999999999999574 ) ) ;
#111 = CALENDAR_DATE ( 2021, 3, 12 ) ;
#112 = AXIS2_PLACEMENT_3D ( 'NONE', #16, #211, #197 ) ;
#113 = EDGE_LOOP ( 'NONE', ( #170 ) ) ;
#114 = EDGE_LOOP ( 'NONE', ( #182 ) ) ;
#115 = APPROVAL_DATE_TIME ( #73, #31 ) ;
#116 = VECTOR ( 'NONE', #273, 1000.000000000000114 ) ;
#117 = CC_DESIGN_DATE_AND_TIME_ASSIGNMENT ( #227, #177, ( #205 ) ) ;
#118 = DATE_TIME_ROLE ( 'classification_date' ) ;
#119 = APPROVAL_PERSON_ORGANIZATION ( #135, #31, #20 ) ;
#120 = CIRCLE ( 'NONE', #82, 0.3255554613557761767 ) ;
#121 = CARTESIAN_POINT ( 'NONE',  ( -1.496541006063935469E-31, 5.249159239316501627E-33, -4.286263797015735979E-17 ) ) ;
#122 = CARTESIAN_POINT ( 'NONE',  ( 1.606081415867841091E-13, 8.998558695971099120E-33, 46.00000000000000000 ) ) ;
#123 = CARTESIAN_POINT ( 'NONE',  ( -1.496541006063935469E-31, 5.249159239316501627E-33, -4.286263797015735979E-17 ) ) ;
#124 = CC_DESIGN_DATE_AND_TIME_ASSIGNMENT ( #96, #118, ( #18 ) ) ;
#125 = PLANE ( 'NONE',  #212 ) ;
#126 = PLANE ( 'NONE',  #260 ) ;
#127 = CLOSED_SHELL ( 'NONE', ( #98, #233, #237, #134 ) ) ;
#128 = CARTESIAN_POINT ( 'NONE',  ( 1.606081415867841091E-13, -5.633375276077824704E-15, 46.00000000000000000 ) ) ;
#129 = APPLICATION_CONTEXT ( 'configuration controlled 3d designs of mechanical parts and assemblies' ) ;
#130 = VECTOR ( 'NONE', #105, 1000.000000000000000 ) ;
#131 = ORIENTED_EDGE ( 'NONE', *, *, #156, .F. ) ;
#132 = VERTEX_POINT ( 'NONE', #167 ) ;
#133 = DATE_AND_TIME ( #94, #5 ) ;
#134 = ADVANCED_FACE ( 'NONE', ( #263 ), #125, .T. ) ;
#135 = PERSON_AND_ORGANIZATION ( #78, #289 ) ;
#136 = CARTESIAN_POINT ( 'NONE',  ( 0.0000000000000000000, 0.0000000000000000000, 0.0000000000000000000 ) ) ;
#137 = APPROVAL_DATE_TIME ( #162, #164 ) ;
#138 = SECURITY_CLASSIFICATION_LEVEL ( 'unclassified' ) ;
#139 = VECTOR ( 'NONE', #226, 1000.000000000000000 ) ;
#140 = ADVANCED_FACE ( 'NONE', ( #261, #53 ), #7, .F. ) ;
#141 = CARTESIAN_POINT ( 'NONE',  ( 0.0000000000000000000, 0.0000000000000000000, 0.0000000000000000000 ) ) ;
#142 = EDGE_LOOP ( 'NONE', ( #250 ) ) ;
#143 = DIRECTION ( 'NONE',  ( -3.491481338843133355E-15, 1.224646799147353207E-16, -1.000000000000000000 ) ) ;
#144 = AXIS2_PLACEMENT_3D ( 'NONE', #150, #38, #101 ) ;
#145 = VERTEX_POINT ( 'NONE', #217 ) ;
#146 = FACE_OUTER_BOUND ( 'NONE', #142, .T. ) ;
#147 = EDGE_LOOP ( 'NONE', ( #252 ) ) ;
#148 = PERSON_AND_ORGANIZATION_ROLE ( 'design_owner' ) ;
#149 = AXIS2_PLACEMENT_3D ( 'NONE', #199, #254, #43 ) ;
#150 = CARTESIAN_POINT ( 'NONE',  ( 2.444036937190193349E-15, 2.441274939836596638E-33, 0.6999999999999999556 ) ) ;
#151 = VERTEX_POINT ( 'NONE', #32 ) ;
#152 = VERTEX_POINT ( 'NONE', #251 ) ;
#153 = FACE_OUTER_BOUND ( 'NONE', #276, .T. ) ;
#154 = DIRECTION ( 'NONE',  ( 1.000000000000000000, 0.0000000000000000000, 0.0000000000000000000 ) ) ;
#155 = COORDINATED_UNIVERSAL_TIME_OFFSET ( 1, 0, .AHEAD. ) ;
#156 = EDGE_CURVE ( 'NONE', #132, #145, #240, .T. ) ;
#157 = APPROVAL_ROLE ( '' ) ;
#158 = EDGE_LOOP ( 'NONE', ( #86, #57 ) ) ;
#159 = COORDINATED_UNIVERSAL_TIME_OFFSET ( 1, 0, .AHEAD. ) ;
#160 = CC_DESIGN_PERSON_AND_ORGANIZATION_ASSIGNMENT ( #85, #92, ( #205 ) ) ;
#161 = DESIGN_CONTEXT ( 'detailed design', #28, 'design' ) ;
#162 = DATE_AND_TIME ( #256, #187 ) ;
#163 = ORIENTED_EDGE ( 'NONE', *, *, #209, .F. ) ;
#164 = APPROVAL ( #180, 'UNSPECIFIED' ) ;
#165 = EDGE_LOOP ( 'NONE', ( #163 ) ) ;
#166 = VERTEX_POINT ( 'NONE', #40 ) ;
#167 = CARTESIAN_POINT ( 'NONE',  ( -2.993082012127870937E-31, -0.3499999999999999778, -8.572527594031471957E-17 ) ) ;
#168 = CALENDAR_DATE ( 2021, 3, 12 ) ;
#169 = FACE_OUTER_BOUND ( 'NONE', #37, .T. ) ;
#170 = ORIENTED_EDGE ( 'NONE', *, *, #235, .F. ) ;
#171 = CIRCLE ( 'NONE', #210, 1.499999999999994893 ) ;
#172 = DIRECTION ( 'NONE',  ( 0.0000000000000000000, 0.0000000000000000000, 1.000000000000000000 ) ) ;
#173 = LINE ( 'NONE', #90, #116 ) ;
#174 = PRODUCT_DEFINITION_FORMATION_WITH_SPECIFIED_SOURCE ( 'ANY', '', #46, .NOT_KNOWN. ) ;
#175 = CARTESIAN_POINT ( 'NONE',  ( 9.077851480992151457E-15, 0.4595300575713376356, 2.600000000000000977 ) ) ;
#176 = CC_DESIGN_PERSON_AND_ORGANIZATION_ASSIGNMENT ( #277, #236, ( #174 ) ) ;
#177 = DATE_TIME_ROLE ( 'creation_date' ) ;
#178 = CARTESIAN_POINT ( 'NONE',  ( 3.499403038308923720E-14, -1.227425357287320887E-15, 10.02268864902029044 ) ) ;
#179 =( NAMED_UNIT ( * ) SI_UNIT ( $, .STERADIAN. ) SOLID_ANGLE_UNIT ( ) );
#180 = APPROVAL_STATUS ( 'not_yet_approved' ) ;
#181 = EDGE_CURVE ( 'NONE', #145, #132, #9, .T. ) ;
#182 = ORIENTED_EDGE ( 'NONE', *, *, #209, .T. ) ;
#183 = PERSON_AND_ORGANIZATION_ROLE ( 'creator' ) ;
#184 = ADVANCED_BREP_SHAPE_REPRESENTATION ( '997961', ( #50, #51, #193 ), #10 ) ;
#185 = AXIS2_PLACEMENT_3D ( 'NONE', #219, #198, #297 ) ;
#186 = CARTESIAN_POINT ( 'NONE',  ( 0.0000000000000000000, 0.0000000000000000000, 0.0000000000000000000 ) ) ;
#187 = LOCAL_TIME ( 15, 5, 27.00000000000000000, #155 ) ;
#188 = DIRECTION ( 'NONE',  ( -3.491481338843133355E-15, 1.224646799147353207E-16, -1.000000000000000000 ) ) ;
#189 = CARTESIAN_POINT ( 'NONE',  ( 0.0000000000000000000, 0.3499999999999999778, 0.0000000000000000000 ) ) ;
#190 = ADVANCED_FACE ( 'NONE', ( #104, #146 ), #246, .T. ) ;
#191 = EDGE_LOOP ( 'NONE', ( #14 ) ) ;
#192 = AXIS2_PLACEMENT_3D ( 'NONE', #56, #241, #11 ) ;
#193 = AXIS2_PLACEMENT_3D ( 'NONE', #36, #172, #154 ) ;
#194 = ORIENTED_EDGE ( 'NONE', *, *, #81, .T. ) ;
#195 = APPROVAL_DATE_TIME ( #133, #287 ) ;
#196 = CC_DESIGN_SECURITY_CLASSIFICATION ( #18, ( #174 ) ) ;
#197 = DIRECTION ( 'NONE',  ( 0.0000000000000000000, 1.000000000000000000, 0.0000000000000000000 ) ) ;
#198 = DIRECTION ( 'NONE',  ( 3.491481338843133355E-15, -1.224646799147353207E-16, 1.000000000000000000 ) ) ;
#199 = CARTESIAN_POINT ( 'NONE',  ( -7.482705030319677343E-32, 2.624579619658250814E-33, -2.143131898507867989E-17 ) ) ;
#200 = DIRECTION ( 'NONE',  ( 0.0000000000000000000, 1.000000000000000000, 0.0000000000000000000 ) ) ;
#201 = DIRECTION ( 'NONE',  ( -3.489354422748178188E-15, 0.03489949670250169084, -0.9993908270190956511 ) ) ;
#202 = AXIS2_PLACEMENT_3D ( 'NONE', #242, #55, #13 ) ;
#203 = APPLICATION_PROTOCOL_DEFINITION ( 'international standard', 'config_control_design', 1994, #129 ) ;
#204 = FACE_OUTER_BOUND ( 'NONE', #158, .T. ) ;
#205 = PRODUCT_DEFINITION ( 'UNKNOWN', '', #174, #161 ) ;
#206 = EDGE_LOOP ( 'NONE', ( #39 ) ) ;
#207 = PRODUCT_DEFINITION_SHAPE ( 'NONE', 'NONE',  #205 ) ;
#208 = CC_DESIGN_APPROVAL ( #31, ( #174 ) ) ;
#209 = EDGE_CURVE ( 'NONE', #267, #267, #65, .T. ) ;
#210 = AXIS2_PLACEMENT_3D ( 'NONE', #231, #66, #93 ) ;
#211 = DIRECTION ( 'NONE',  ( -3.491481338843133355E-15, 1.224646799147353207E-16, -1.000000000000000000 ) ) ;
#212 = AXIS2_PLACEMENT_3D ( 'NONE', #186, #243, #283 ) ;
#213 = DIRECTION ( 'NONE',  ( 0.0000000000000000000, 1.000000000000000000, 0.0000000000000000000 ) ) ;
#214 = DIRECTION ( 'NONE',  ( -3.491481338843133355E-15, 1.224646799147353207E-16, -1.000000000000000000 ) ) ;
#215 = EDGE_LOOP ( 'NONE', ( #131, #262, #247, #41 ) ) ;
#216 = CARTESIAN_POINT ( 'NONE',  ( 1.537001341713508047E-14, 1.499999999999994449, 4.402146804034695826 ) ) ;
#217 = CARTESIAN_POINT ( 'NONE',  ( 0.0000000000000000000, 0.3499999999999999778, 0.0000000000000000000 ) ) ;
#218 = ORIENTED_EDGE ( 'NONE', *, *, #269, .F. ) ;
#219 = CARTESIAN_POINT ( 'NONE',  ( 9.077851480992151457E-15, -3.184081677783119670E-16, 2.600000000000000977 ) ) ;
#220 = DIRECTION ( 'NONE',  ( -3.491481338843133355E-15, 1.224646799147353207E-16, -1.000000000000000000 ) ) ;
#221 = CC_DESIGN_PERSON_AND_ORGANIZATION_ASSIGNMENT ( #74, #3, ( #18 ) ) ;
#222 = CARTESIAN_POINT ( 'NONE',  ( 2.444036937190193349E-15, -8.572527594031471957E-17, 0.6999999999999999556 ) ) ;
#223 = APPROVAL_STATUS ( 'not_yet_approved' ) ;
#224 = ORIENTED_EDGE ( 'NONE', *, *, #81, .F. ) ;
#225 = CC_DESIGN_APPROVAL ( #164, ( #18 ) ) ;
#226 = DIRECTION ( 'NONE',  ( 4.275831445896958607E-31, 1.000000000000000000, 1.224646799147353207E-16 ) ) ;
#227 = DATE_AND_TIME ( #111, #91 ) ;
#228 = FACE_OUTER_BOUND ( 'NONE', #75, .T. ) ;
#229 = EDGE_LOOP ( 'NONE', ( #285 ) ) ;
#230 = COORDINATED_UNIVERSAL_TIME_OFFSET ( 1, 0, .AHEAD. ) ;
#231 = CARTESIAN_POINT ( 'NONE',  ( 1.537001341713508047E-14, -5.391074992937840625E-16, 4.402146804034695826 ) ) ;
#232 = CIRCLE ( 'NONE', #26, 1.500000000000005107 ) ;
#233 = ADVANCED_FACE ( 'NONE', ( #292 ), #4, .T. ) ;
#234 = CARTESIAN_POINT ( 'NONE',  ( 2.444036937190193349E-15, 2.441274939836596638E-33, 0.6999999999999999556 ) ) ;
#235 = EDGE_CURVE ( 'NONE', #64, #64, #70, .T. ) ;
#236 = PERSON_AND_ORGANIZATION_ROLE ( 'design_supplier' ) ;
#237 = ADVANCED_FACE ( 'NONE', ( #169 ), #63, .T. ) ;
#238 = ORIENTED_EDGE ( 'NONE', *, *, #181, .F. ) ;
#239 = VERTEX_POINT ( 'NONE', #175 ) ;
#240 = CIRCLE ( 'NONE', #23, 0.3499999999999999778 ) ;
#241 = DIRECTION ( 'NONE',  ( -3.491481338843133355E-15, 1.224646799147353207E-16, -1.000000000000000000 ) ) ;
#242 = CARTESIAN_POINT ( 'NONE',  ( 1.606081415867841091E-13, -5.633375276077824704E-15, 46.00000000000000000 ) ) ;
#243 = DIRECTION ( 'NONE',  ( 1.000000000000000000, 0.0000000000000000000, -3.491481338843133355E-15 ) ) ;
#244 = ORIENTED_EDGE ( 'NONE', *, *, #255, .T. ) ;
#245 = EDGE_CURVE ( 'NONE', #151, #106, #120, .T. ) ;
#246 = CYLINDRICAL_SURFACE ( 'NONE', #48, 1.500000000000000000 ) ;
#247 = ORIENTED_EDGE ( 'NONE', *, *, #245, .T. ) ;
#248 = FACE_OUTER_BOUND ( 'NONE', #229, .T. ) ;
#249 = PERSON_AND_ORGANIZATION ( #78, #289 ) ;
#250 = ORIENTED_EDGE ( 'NONE', *, *, #269, .T. ) ;
#251 = CARTESIAN_POINT ( 'NONE',  ( 2.444036937190193349E-15, 0.3255554613557760657, 0.6999999999999999556 ) ) ;
#252 = ORIENTED_EDGE ( 'NONE', *, *, #291, .F. ) ;
#253 = ADVANCED_FACE ( 'NONE', ( #270 ), #126, .F. ) ;
#254 = DIRECTION ( 'NONE',  ( -3.491481338843133355E-15, 1.224646799147353207E-16, -1.000000000000000000 ) ) ;
#255 = EDGE_CURVE ( 'NONE', #152, #152, #298, .T. ) ;
#256 = CALENDAR_DATE ( 2021, 3, 12 ) ;
#257 = ORIENTED_EDGE ( 'NONE', *, *, #24, .F. ) ;
#258 = CALENDAR_DATE ( 2021, 3, 12 ) ;
#259 = ADVANCED_FACE ( 'NONE', ( #17, #288 ), #58, .T. ) ;
#260 = AXIS2_PLACEMENT_3D ( 'NONE', #122, #290, #264 ) ;
#261 = FACE_OUTER_BOUND ( 'NONE', #191, .T. ) ;
#262 = ORIENTED_EDGE ( 'NONE', *, *, #52, .T. ) ;
#263 = FACE_OUTER_BOUND ( 'NONE', #278, .T. ) ;
#264 = DIRECTION ( 'NONE',  ( 4.275831445896958607E-31, 1.000000000000000000, 1.224646799147353207E-16 ) ) ;
#265 = SHAPE_DEFINITION_REPRESENTATION ( #207, #184 ) ;
#266 = AXIS2_PLACEMENT_3D ( 'NONE', #294, #87, #34 ) ;
#267 = VERTEX_POINT ( 'NONE', #83 ) ;
#268 = DIRECTION ( 'NONE',  ( 4.275831445896958607E-31, 1.000000000000000000, 1.224646799147353207E-16 ) ) ;
#269 = EDGE_CURVE ( 'NONE', #166, #166, #232, .T. ) ;
#270 = FACE_OUTER_BOUND ( 'NONE', #165, .T. ) ;
#271 = CARTESIAN_POINT ( 'NONE',  ( 2.444036937190193349E-15, 0.3255554613557760657, 0.6999999999999999556 ) ) ;
#272 = MECHANICAL_CONTEXT ( 'NONE', #129, 'mechanical' ) ;
#273 = DIRECTION ( 'NONE',  ( 3.489354422748178188E-15, 0.03489949670250143410, 0.9993908270190956511 ) ) ;
#274 = ADVANCED_FACE ( 'NONE', ( #248, #109 ), #97, .T. ) ;
#275 = DIRECTION ( 'NONE',  ( -3.491481338843133355E-15, 1.224646799147353207E-16, -1.000000000000000000 ) ) ;
#276 = EDGE_LOOP ( 'NONE', ( #293 ) ) ;
#277 = PERSON_AND_ORGANIZATION ( #78, #289 ) ;
#278 = EDGE_LOOP ( 'NONE', ( #238, #257, #224, #29 ) ) ;
#279 = AXIS2_PLACEMENT_3D ( 'NONE', #121, #188, #108 ) ;
#280 = LOCAL_TIME ( 15, 5, 27.00000000000000000, #159 ) ;
#281 = AXIS2_PLACEMENT_3D ( 'NONE', #136, #275, #88 ) ;
#282 = DIRECTION ( 'NONE',  ( 4.275831445896959482E-31, 1.000000000000000000, 1.224646799147353207E-16 ) ) ;
#283 = DIRECTION ( 'NONE',  ( -3.491481338843133355E-15, 0.0000000000000000000, -1.000000000000000000 ) ) ;
#284 = CARTESIAN_POINT ( 'NONE',  ( 7.332110811570581624E-15, 0.3255554613557757881, 2.100000000000000089 ) ) ;
#285 = ORIENTED_EDGE ( 'NONE', *, *, #107, .T. ) ;
#286 = AXIS2_PLACEMENT_3D ( 'NONE', #234, #71, #301 ) ;
#287 = APPROVAL ( #61, 'UNSPECIFIED' ) ;
#288 = FACE_BOUND ( 'NONE', #114, .T. ) ;
#289 = ORGANIZATION ( 'UNSPECIFIED', 'UNSPECIFIED', '' ) ;
#290 = DIRECTION ( 'NONE',  ( -3.491481338843133355E-15, 1.224646799147353207E-16, -1.000000000000000000 ) ) ;
#291 = EDGE_CURVE ( 'NONE', #239, #239, #100, .T. ) ;
#292 = FACE_OUTER_BOUND ( 'NONE', #215, .T. ) ;
#293 = ORIENTED_EDGE ( 'NONE', *, *, #255, .F. ) ;
#294 = CARTESIAN_POINT ( 'NONE',  ( 9.077851480992151457E-15, -3.184081677783119670E-16, 2.600000000000000977 ) ) ;
#295 = APPROVAL_ROLE ( '' ) ;
#296 = FACE_OUTER_BOUND ( 'NONE', #54, .T. ) ;
#297 = DIRECTION ( 'NONE',  ( 0.0000000000000000000, -1.000000000000000000, 0.0000000000000000000 ) ) ;
#298 = CIRCLE ( 'NONE', #30, 0.3255554613557761767 ) ;
#299 = CYLINDRICAL_SURFACE ( 'NONE', #281, 0.3255554613557761212 ) ;
#300 = COORDINATED_UNIVERSAL_TIME_OFFSET ( 1, 0, .AHEAD. ) ;
#301 = DIRECTION ( 'NONE',  ( -4.275831445896958607E-31, -1.000000000000000000, -1.224646799147353207E-16 ) ) ;
ENDSEC;
END-ISO-10303-21;
