ISO-10303-21;
HEADER;
FILE_DESCRIPTION (( 'STEP AP203' ),
    '1' );
FILE_NAME ('997960.step',
    '2021-12-03T14:05:26',
    ( '' ),
    ( '' ),
    'SwSTEP 2.0',
    'SolidWorks 2019',
    '' );
FILE_SCHEMA (( 'CONFIG_CONTROL_DESIGN' ));
ENDSEC;

DATA;
#1 = APPROVAL_DATE_TIME ( #118, #155 ) ;
#2 = AXIS2_PLACEMENT_3D ( 'NONE', #207, #208, #296 ) ;
#3 = FACE_BOUND ( 'NONE', #30, .T. ) ;
#4 = APPLICATION_PROTOCOL_DEFINITION ( 'international standard', 'config_control_design', 1994, #147 ) ;
#5 = ADVANCED_BREP_SHAPE_REPRESENTATION ( '997960', ( #114, #14, #32 ), #300 ) ;
#6 = AXIS2_PLACEMENT_3D ( 'NONE', #273, #158, #255 ) ;
#7 = ORIENTED_EDGE ( 'NONE', *, *, #241, .T. ) ;
#8 = DIRECTION ( 'NONE',  ( 1.000000000000000000, 0.0000000000000000000, -3.491481338843133355E-15 ) ) ;
#9 = EDGE_LOOP ( 'NONE', ( #150 ) ) ;
#10 = PERSON_AND_ORGANIZATION ( #127, #110 ) ;
#11 = AXIS2_PLACEMENT_3D ( 'NONE', #274, #65, #159 ) ;
#12 = CC_DESIGN_DATE_AND_TIME_ASSIGNMENT ( #221, #36, ( #238 ) ) ;
#13 = FACE_OUTER_BOUND ( 'NONE', #99, .T. ) ;
#14 = MANIFOLD_SOLID_BREP ( 'Corps-Déplacer/Copier1[2]', #44 ) ;
#15 = ADVANCED_FACE ( 'NONE', ( #79 ), #176, .T. ) ;
#16 = CONICAL_SURFACE ( 'NONE', #101, 0.3499999999999999778, 0.03490658503988718769 ) ;
#17 = DIRECTION ( 'NONE',  ( -3.489354422748178188E-15, 0.03489949670250169084, -0.9993908270190956511 ) ) ;
#18 = APPROVAL_DATE_TIME ( #231, #232 ) ;
#19 = DIRECTION ( 'NONE',  ( -4.275831445896958607E-31, -1.000000000000000000, -1.224646799147353207E-16 ) ) ;
#20 = CALENDAR_DATE ( 2021, 3, 12 ) ;
#21 = DIRECTION ( 'NONE',  ( -3.491481338843133355E-15, 1.224646799147353207E-16, -1.000000000000000000 ) ) ;
#22 = AXIS2_PLACEMENT_3D ( 'NONE', #230, #250, #37 ) ;
#23 =( NAMED_UNIT ( * ) SI_UNIT ( $, .STERADIAN. ) SOLID_ANGLE_UNIT ( ) );
#24 = DATE_AND_TIME ( #140, #242 ) ;
#25 = PERSON_AND_ORGANIZATION_ROLE ( 'creator' ) ;
#26 = DIRECTION ( 'NONE',  ( 0.0000000000000000000, 0.0000000000000000000, 1.000000000000000000 ) ) ;
#27 = EDGE_CURVE ( 'NONE', #60, #60, #120, .T. ) ;
#28 = CIRCLE ( 'NONE', #246, 0.3499999999999999778 ) ;
#29 = DIRECTION ( 'NONE',  ( 1.000000000000000000, 0.0000000000000000000, 0.0000000000000000000 ) ) ;
#30 = EDGE_LOOP ( 'NONE', ( #171 ) ) ;
#31 = EDGE_LOOP ( 'NONE', ( #265 ) ) ;
#32 = AXIS2_PLACEMENT_3D ( 'NONE', #73, #26, #29 ) ;
#33 = CYLINDRICAL_SURFACE ( 'NONE', #291, 0.3255554613557761212 ) ;
#34 = CC_DESIGN_PERSON_AND_ORGANIZATION_ASSIGNMENT ( #96, #94, ( #295 ) ) ;
#35 = CARTESIAN_POINT ( 'NONE',  ( 3.499403038308923720E-14, -1.227425357287320887E-15, 10.02268864902029044 ) ) ;
#36 = DATE_TIME_ROLE ( 'creation_date' ) ;
#37 = DIRECTION ( 'NONE',  ( 4.275831445896959482E-31, 1.000000000000000000, 1.224646799147353207E-16 ) ) ;
#38 = CARTESIAN_POINT ( 'NONE',  ( 2.444036937190193349E-15, 2.441274939836596638E-33, 0.6999999999999999556 ) ) ;
#39 = VERTEX_POINT ( 'NONE', #234 ) ;
#40 = FACE_OUTER_BOUND ( 'NONE', #9, .T. ) ;
#41 = CARTESIAN_POINT ( 'NONE',  ( 1.606081415867841091E-13, 8.998558695971099120E-33, 46.00000000000000000 ) ) ;
#42 = APPROVAL_ROLE ( '' ) ;
#43 = CARTESIAN_POINT ( 'NONE',  ( -2.993082012127870937E-31, -0.3499999999999999778, -8.572527594031471957E-17 ) ) ;
#44 = CLOSED_SHELL ( 'NONE', ( #194, #50, #15, #165 ) ) ;
#45 = LOCAL_TIME ( 15, 5, 26.00000000000000000, #64 ) ;
#46 = LOCAL_TIME ( 15, 5, 26.00000000000000000, #261 ) ;
#47 = DIRECTION ( 'NONE',  ( 4.275831445896958607E-31, 1.000000000000000000, 1.224646799147353207E-16 ) ) ;
#48 = DIRECTION ( 'NONE',  ( 0.0000000000000000000, 1.000000000000000000, 0.0000000000000000000 ) ) ;
#49 = DIRECTION ( 'NONE',  ( -3.491481338843133355E-15, 1.224646799147353207E-16, -1.000000000000000000 ) ) ;
#50 = ADVANCED_FACE ( 'NONE', ( #13 ), #16, .T. ) ;
#51 = COORDINATED_UNIVERSAL_TIME_OFFSET ( 1, 0, .AHEAD. ) ;
#52 = PLANE ( 'NONE',  #105 ) ;
#53 = AXIS2_PLACEMENT_3D ( 'NONE', #236, #71, #168 ) ;
#54 = LOCAL_TIME ( 15, 5, 26.00000000000000000, #92 ) ;
#55 = EDGE_LOOP ( 'NONE', ( #82, #148 ) ) ;
#56 = ORIENTED_EDGE ( 'NONE', *, *, #241, .F. ) ;
#57 = AXIS2_PLACEMENT_3D ( 'NONE', #256, #21, #67 ) ;
#58 = CC_DESIGN_APPROVAL ( #155, ( #285 ) ) ;
#59 = ORIENTED_EDGE ( 'NONE', *, *, #81, .F. ) ;
#60 = VERTEX_POINT ( 'NONE', #182 ) ;
#61 = FACE_OUTER_BOUND ( 'NONE', #149, .T. ) ;
#62 = CARTESIAN_POINT ( 'NONE',  ( 0.0000000000000000000, 0.0000000000000000000, 0.0000000000000000000 ) ) ;
#63 = AXIS2_PLACEMENT_3D ( 'NONE', #112, #235, #115 ) ;
#64 = COORDINATED_UNIVERSAL_TIME_OFFSET ( 1, 0, .AHEAD. ) ;
#65 = DIRECTION ( 'NONE',  ( -3.491481338843133355E-15, 1.224646799147353207E-16, -1.000000000000000000 ) ) ;
#66 = VERTEX_POINT ( 'NONE', #229 ) ;
#67 = DIRECTION ( 'NONE',  ( 0.0000000000000000000, 1.000000000000000000, 0.0000000000000000000 ) ) ;
#68 = ADVANCED_FACE ( 'NONE', ( #109, #61 ), #33, .T. ) ;
#69 = CIRCLE ( 'NONE', #57, 0.3255554613557760657 ) ;
#70 = PERSON_AND_ORGANIZATION_ROLE ( 'classification_officer' ) ;
#71 = DIRECTION ( 'NONE',  ( -3.491481338843133355E-15, 1.224646799147353207E-16, -1.000000000000000000 ) ) ;
#72 = APPROVAL_STATUS ( 'not_yet_approved' ) ;
#73 = CARTESIAN_POINT ( 'NONE',  ( 0.0000000000000000000, 0.0000000000000000000, 0.0000000000000000000 ) ) ;
#74 = CLOSED_SHELL ( 'NONE', ( #224, #68, #116, #144, #90, #103, #135 ) ) ;
#75 = FACE_OUTER_BOUND ( 'NONE', #286, .T. ) ;
#76 = ORIENTED_EDGE ( 'NONE', *, *, #111, .T. ) ;
#77 = ORIENTED_EDGE ( 'NONE', *, *, #219, .F. ) ;
#78 = VECTOR ( 'NONE', #87, 1000.000000000000000 ) ;
#79 = FACE_OUTER_BOUND ( 'NONE', #55, .T. ) ;
#80 = ORIENTED_EDGE ( 'NONE', *, *, #292, .F. ) ;
#81 = EDGE_CURVE ( 'NONE', #204, #125, #156, .T. ) ;
#82 = ORIENTED_EDGE ( 'NONE', *, *, #111, .F. ) ;
#83 = FACE_OUTER_BOUND ( 'NONE', #243, .T. ) ;
#84 = CARTESIAN_POINT ( 'NONE',  ( 1.292597647994488396E-14, 1.499999999999994449, 3.702146804034694760 ) ) ;
#85 = DIRECTION ( 'NONE',  ( -3.491481338843133355E-15, 1.224646799147353207E-16, -1.000000000000000000 ) ) ;
#86 = CARTESIAN_POINT ( 'NONE',  ( 0.0000000000000000000, 0.3499999999999999778, 0.0000000000000000000 ) ) ;
#87 = DIRECTION ( 'NONE',  ( -4.275831445896958607E-31, -1.000000000000000000, -1.224646799147353207E-16 ) ) ;
#88 = APPROVAL_PERSON_ORGANIZATION ( #258, #170, #42 ) ;
#89 = FACE_BOUND ( 'NONE', #244, .T. ) ;
#90 = ADVANCED_FACE ( 'NONE', ( #183, #211 ), #180, .T. ) ;
#91 = DESIGN_CONTEXT ( 'detailed design', #237, 'design' ) ;
#92 = COORDINATED_UNIVERSAL_TIME_OFFSET ( 1, 0, .AHEAD. ) ;
#93 = CONICAL_SURFACE ( 'NONE', #210, 0.4595300575713386904, 0.5235987755982995928 ) ;
#94 = PERSON_AND_ORGANIZATION_ROLE ( 'design_owner' ) ;
#95 = EDGE_LOOP ( 'NONE', ( #287 ) ) ;
#96 = PERSON_AND_ORGANIZATION ( #127, #110 ) ;
#97 = CC_DESIGN_PERSON_AND_ORGANIZATION_ASSIGNMENT ( #233, #282, ( #285 ) ) ;
#98 = ORIENTED_EDGE ( 'NONE', *, *, #219, .T. ) ;
#99 = EDGE_LOOP ( 'NONE', ( #123, #174, #76, #153 ) ) ;
#100 = APPROVAL_ROLE ( '' ) ;
#101 = AXIS2_PLACEMENT_3D ( 'NONE', #136, #249, #161 ) ;
#102 = ORIENTED_EDGE ( 'NONE', *, *, #227, .T. ) ;
#103 = ADVANCED_FACE ( 'NONE', ( #294, #89 ), #151, .T. ) ;
#104 = DIRECTION ( 'NONE',  ( 0.0000000000000000000, 1.000000000000000000, 0.0000000000000000000 ) ) ;
#105 = AXIS2_PLACEMENT_3D ( 'NONE', #218, #8, #222 ) ;
#106 = DIRECTION ( 'NONE',  ( 0.0000000000000000000, 1.000000000000000000, 0.0000000000000000000 ) ) ;
#107 = VERTEX_POINT ( 'NONE', #271 ) ;
#108 = PERSON_AND_ORGANIZATION_ROLE ( 'creator' ) ;
#109 = FACE_OUTER_BOUND ( 'NONE', #145, .T. ) ;
#110 = ORGANIZATION ( 'UNSPECIFIED', 'UNSPECIFIED', '' ) ;
#111 = EDGE_CURVE ( 'NONE', #267, #204, #240, .T. ) ;
#112 = CARTESIAN_POINT ( 'NONE',  ( -7.482705030319677343E-32, 2.624579619658250814E-33, -2.143131898507867989E-17 ) ) ;
#113 = PERSON_AND_ORGANIZATION ( #127, #110 ) ;
#114 = MANIFOLD_SOLID_BREP ( 'Corps-Déplacer/Copier1[1]', #74 ) ;
#115 = DIRECTION ( 'NONE',  ( 4.275831445896958607E-31, 1.000000000000000000, 1.224646799147353207E-16 ) ) ;
#116 = ADVANCED_FACE ( 'NONE', ( #228, #83 ), #132, .F. ) ;
#117 = APPROVAL_DATE_TIME ( #142, #170 ) ;
#118 = DATE_AND_TIME ( #196, #54 ) ;
#119 = EDGE_LOOP ( 'NONE', ( #263 ) ) ;
#120 = CIRCLE ( 'NONE', #2, 0.3255554613557761767 ) ;
#121 = CC_DESIGN_PERSON_AND_ORGANIZATION_ASSIGNMENT ( #201, #108, ( #238 ) ) ;
#122 = CARTESIAN_POINT ( 'NONE',  ( -1.496541006063935469E-31, 5.249159239316501627E-33, -4.286263797015735979E-17 ) ) ;
#123 = ORIENTED_EDGE ( 'NONE', *, *, #154, .F. ) ;
#124 = CC_DESIGN_APPROVAL ( #170, ( #216 ) ) ;
#125 = VERTEX_POINT ( 'NONE', #86 ) ;
#126 = CC_DESIGN_DATE_AND_TIME_ASSIGNMENT ( #24, #167, ( #216 ) ) ;
#127 = PERSON ( 'UNSPECIFIED', 'UNSPECIFIED', 'UNSPECIFIED', ('UNSPECIFIED'), ('UNSPECIFIED'), ('UNSPECIFIED') ) ;
#128 = DIRECTION ( 'NONE',  ( 0.0000000000000000000, 1.000000000000000000, 0.0000000000000000000 ) ) ;
#129 = CARTESIAN_POINT ( 'NONE',  ( 1.292597647994488396E-14, -4.533822233534692813E-16, 3.702146804034694760 ) ) ;
#130 = VERTEX_POINT ( 'NONE', #84 ) ;
#131 = DIRECTION ( 'NONE',  ( -3.491481338843133355E-15, 1.224646799147353207E-16, -1.000000000000000000 ) ) ;
#132 = TOROIDAL_SURFACE ( 'NONE', #6, 1.325555461355776288, 0.9999999999999995559 ) ;
#133 = CALENDAR_DATE ( 2021, 3, 12 ) ;
#134 = DIRECTION ( 'NONE',  ( 3.491481338843133355E-15, -1.224646799147353207E-16, 1.000000000000000000 ) ) ;
#135 = ADVANCED_FACE ( 'NONE', ( #40 ), #187, .F. ) ;
#136 = CARTESIAN_POINT ( 'NONE',  ( -1.496541006063935469E-31, 5.249159239316501627E-33, -4.286263797015735979E-17 ) ) ;
#137 = AXIS2_PLACEMENT_3D ( 'NONE', #272, #185, #106 ) ;
#138 = VERTEX_POINT ( 'NONE', #275 ) ;
#139 = DIRECTION ( 'NONE',  ( -3.491481338843133355E-15, 1.224646799147353207E-16, -1.000000000000000000 ) ) ;
#140 = CALENDAR_DATE ( 2021, 3, 12 ) ;
#141 = FACE_OUTER_BOUND ( 'NONE', #217, .T. ) ;
#142 = DATE_AND_TIME ( #213, #46 ) ;
#143 = LINE ( 'NONE', #192, #184 ) ;
#144 = ADVANCED_FACE ( 'NONE', ( #214, #3 ), #93, .T. ) ;
#145 = EDGE_LOOP ( 'NONE', ( #7 ) ) ;
#146 = CIRCLE ( 'NONE', #53, 0.4595300575713386904 ) ;
#147 = APPLICATION_CONTEXT ( 'configuration controlled 3d designs of mechanical parts and assemblies' ) ;
#148 = ORIENTED_EDGE ( 'NONE', *, *, #292, .T. ) ;
#149 = EDGE_LOOP ( 'NONE', ( #178 ) ) ;
#150 = ORIENTED_EDGE ( 'NONE', *, *, #227, .F. ) ;
#151 = CONICAL_SURFACE ( 'NONE', #175, 1.200000000000005063, 0.7853981633974453924 ) ;
#152 = APPROVAL_PERSON_ORGANIZATION ( #10, #155, #100 ) ;
#153 = ORIENTED_EDGE ( 'NONE', *, *, #81, .T. ) ;
#154 = EDGE_CURVE ( 'NONE', #264, #125, #28, .T. ) ;
#155 = APPROVAL ( #225, 'UNSPECIFIED' ) ;
#156 = LINE ( 'NONE', #35, #284 ) ;
#157 = FACE_OUTER_BOUND ( 'NONE', #288, .T. ) ;
#158 = DIRECTION ( 'NONE',  ( -3.491481338843133355E-15, 1.224646799147353207E-16, -1.000000000000000000 ) ) ;
#159 = DIRECTION ( 'NONE',  ( 0.0000000000000000000, 1.000000000000000000, 0.0000000000000000000 ) ) ;
#160 =( LENGTH_UNIT ( ) NAMED_UNIT ( * ) SI_UNIT ( .MILLI., .METRE. ) );
#161 = DIRECTION ( 'NONE',  ( 4.275831445896958607E-31, 1.000000000000000000, 1.224646799147353207E-16 ) ) ;
#162 = LINE ( 'NONE', #298, #78 ) ;
#163 = PERSON_AND_ORGANIZATION ( #127, #110 ) ;
#164 = CC_DESIGN_APPROVAL ( #232, ( #238 ) ) ;
#165 = ADVANCED_FACE ( 'NONE', ( #75 ), #52, .T. ) ;
#166 = DIRECTION ( 'NONE',  ( -3.491481338843133355E-15, 1.224646799147353207E-16, -1.000000000000000000 ) ) ;
#167 = DATE_TIME_ROLE ( 'classification_date' ) ;
#168 = DIRECTION ( 'NONE',  ( 0.0000000000000000000, 1.000000000000000000, 0.0000000000000000000 ) ) ;
#169 = EDGE_CURVE ( 'NONE', #130, #130, #197, .T. ) ;
#170 = APPROVAL ( #72, 'UNSPECIFIED' ) ;
#171 = ORIENTED_EDGE ( 'NONE', *, *, #276, .F. ) ;
#172 = PERSON_AND_ORGANIZATION ( #127, #110 ) ;
#173 = DIRECTION ( 'NONE',  ( 0.0000000000000000000, -1.000000000000000000, 0.0000000000000000000 ) ) ;
#174 = ORIENTED_EDGE ( 'NONE', *, *, #270, .T. ) ;
#175 = AXIS2_PLACEMENT_3D ( 'NONE', #290, #131, #128 ) ;
#176 = PLANE ( 'NONE',  #260 ) ;
#177 = EDGE_LOOP ( 'NONE', ( #220 ) ) ;
#178 = ORIENTED_EDGE ( 'NONE', *, *, #27, .F. ) ;
#179 = LINE ( 'NONE', #247, #223 ) ;
#180 = CYLINDRICAL_SURFACE ( 'NONE', #22, 1.500000000000000000 ) ;
#181 = CC_DESIGN_PERSON_AND_ORGANIZATION_ASSIGNMENT ( #113, #70, ( #216 ) ) ;
#182 = CARTESIAN_POINT ( 'NONE',  ( 2.444036937190193349E-15, 0.3255554613557760657, 0.6999999999999999556 ) ) ;
#183 = FACE_OUTER_BOUND ( 'NONE', #119, .T. ) ;
#184 = VECTOR ( 'NONE', #281, 1000.000000000000114 ) ;
#185 = DIRECTION ( 'NONE',  ( -3.491481338843133355E-15, 1.224646799147353207E-16, -1.000000000000000000 ) ) ;
#186 = PLANE ( 'NONE',  #206 ) ;
#187 = PLANE ( 'NONE',  #299 ) ;
#188 =( NAMED_UNIT ( * ) PLANE_ANGLE_UNIT ( ) SI_UNIT ( $, .RADIAN. ) );
#189 = PLANE ( 'NONE',  #63 ) ;
#190 = LOCAL_TIME ( 15, 5, 26.00000000000000000, #297 ) ;
#191 = UNCERTAINTY_MEASURE_WITH_UNIT (LENGTH_MEASURE( 1.000000000000000082E-05 ), #160, 'distance_accuracy_value', 'NONE');
#192 = CARTESIAN_POINT ( 'NONE',  ( 3.499403038308923720E-14, -1.227425357287320887E-15, 10.02268864902029044 ) ) ;
#193 = APPLICATION_PROTOCOL_DEFINITION ( 'international standard', 'config_control_design', 1994, #237 ) ;
#194 = ADVANCED_FACE ( 'NONE', ( #141 ), #189, .T. ) ;
#195 = DIRECTION ( 'NONE',  ( 3.491481338843133355E-15, -1.224646799147353207E-16, 1.000000000000000000 ) ) ;
#196 = CALENDAR_DATE ( 2021, 3, 12 ) ;
#197 = CIRCLE ( 'NONE', #245, 1.499999999999994893 ) ;
#198 = EDGE_LOOP ( 'NONE', ( #289 ) ) ;
#199 = ORIENTED_EDGE ( 'NONE', *, *, #270, .F. ) ;
#200 = ORIENTED_EDGE ( 'NONE', *, *, #154, .T. ) ;
#201 = PERSON_AND_ORGANIZATION ( #127, #110 ) ;
#202 = CARTESIAN_POINT ( 'NONE',  ( 6.633814543801956530E-15, -2.326828918379972351E-16, 1.900000000000000799 ) ) ;
#203 = ORIENTED_EDGE ( 'NONE', *, *, #27, .T. ) ;
#204 = VERTEX_POINT ( 'NONE', #209 ) ;
#205 = DIRECTION ( 'NONE',  ( 4.275831445896958607E-31, 1.000000000000000000, 1.224646799147353207E-16 ) ) ;
#206 = AXIS2_PLACEMENT_3D ( 'NONE', #38, #134, #19 ) ;
#207 = CARTESIAN_POINT ( 'NONE',  ( 2.444036937190193349E-15, -8.572527594031471957E-17, 0.6999999999999999556 ) ) ;
#208 = DIRECTION ( 'NONE',  ( -3.491481338843133355E-15, 1.224646799147353207E-16, -1.000000000000000000 ) ) ;
#209 = CARTESIAN_POINT ( 'NONE',  ( 2.444036937190193349E-15, 0.3255554613557760657, 0.6999999999999999556 ) ) ;
#210 = AXIS2_PLACEMENT_3D ( 'NONE', #202, #195, #173 ) ;
#211 = FACE_OUTER_BOUND ( 'NONE', #177, .T. ) ;
#212 = PRODUCT_DEFINITION_SHAPE ( 'NONE', 'NONE',  #238 ) ;
#213 = CALENDAR_DATE ( 2021, 3, 12 ) ;
#214 = FACE_OUTER_BOUND ( 'NONE', #198, .T. ) ;
#215 = CARTESIAN_POINT ( 'NONE',  ( 2.444036937190192954E-15, -0.3255554613557762877, 0.6999999999999998446 ) ) ;
#216 = SECURITY_CLASSIFICATION ( '', '', #279 ) ;
#217 = EDGE_LOOP ( 'NONE', ( #200, #98 ) ) ;
#218 = CARTESIAN_POINT ( 'NONE',  ( 0.0000000000000000000, 0.0000000000000000000, 0.0000000000000000000 ) ) ;
#219 = EDGE_CURVE ( 'NONE', #125, #264, #162, .T. ) ;
#220 = ORIENTED_EDGE ( 'NONE', *, *, #280, .T. ) ;
#221 = DATE_AND_TIME ( #20, #190 ) ;
#222 = DIRECTION ( 'NONE',  ( -3.491481338843133355E-15, 0.0000000000000000000, -1.000000000000000000 ) ) ;
#223 = VECTOR ( 'NONE', #268, 1000.000000000000000 ) ;
#224 = ADVANCED_FACE ( 'NONE', ( #157 ), #186, .F. ) ;
#225 = APPROVAL_STATUS ( 'not_yet_approved' ) ;
#226 = CIRCLE ( 'NONE', #252, 1.500000000000005107 ) ;
#227 = EDGE_CURVE ( 'NONE', #107, #107, #277, .T. ) ;
#228 = FACE_OUTER_BOUND ( 'NONE', #31, .T. ) ;
#229 = CARTESIAN_POINT ( 'NONE',  ( 1.595606971851311880E-13, 1.499999999999999334, 45.69999999999999574 ) ) ;
#230 = CARTESIAN_POINT ( 'NONE',  ( 0.0000000000000000000, 0.0000000000000000000, 0.0000000000000000000 ) ) ;
#231 = DATE_AND_TIME ( #133, #45 ) ;
#232 = APPROVAL ( #251, 'UNSPECIFIED' ) ;
#233 = PERSON_AND_ORGANIZATION ( #127, #110 ) ;
#234 = CARTESIAN_POINT ( 'NONE',  ( 4.888073874380386697E-15, 0.3255554613557758992, 1.399999999999999911 ) ) ;
#235 = DIRECTION ( 'NONE',  ( -3.491481338843133355E-15, 1.224646799147353207E-16, -1.000000000000000000 ) ) ;
#236 = CARTESIAN_POINT ( 'NONE',  ( 6.633814543801956530E-15, -2.326828918379972351E-16, 1.900000000000000799 ) ) ;
#237 = APPLICATION_CONTEXT ( 'configuration controlled 3d designs of mechanical parts and assemblies' ) ;
#238 = PRODUCT_DEFINITION ( 'UNKNOWN', '', #285, #91 ) ;
#239 = DIRECTION ( 'NONE',  ( 4.275831445896958607E-31, 1.000000000000000000, 1.224646799147353207E-16 ) ) ;
#240 = CIRCLE ( 'NONE', #137, 0.3255554613557761767 ) ;
#241 = EDGE_CURVE ( 'NONE', #39, #39, #69, .T. ) ;
#242 = LOCAL_TIME ( 15, 5, 26.00000000000000000, #51 ) ;
#243 = EDGE_LOOP ( 'NONE', ( #56 ) ) ;
#244 = EDGE_LOOP ( 'NONE', ( #102 ) ) ;
#245 = AXIS2_PLACEMENT_3D ( 'NONE', #129, #166, #48 ) ;
#246 = AXIS2_PLACEMENT_3D ( 'NONE', #122, #283, #239 ) ;
#247 = CARTESIAN_POINT ( 'NONE',  ( 2.444036937190193349E-15, 2.441274939836596638E-33, 0.6999999999999999556 ) ) ;
#248 = CARTESIAN_POINT ( 'NONE',  ( 2.444036937190193349E-15, 2.441274939836596638E-33, 0.6999999999999999556 ) ) ;
#249 = DIRECTION ( 'NONE',  ( -3.491481338843133355E-15, 1.224646799147353207E-16, -1.000000000000000000 ) ) ;
#250 = DIRECTION ( 'NONE',  ( -3.491481338843133355E-15, 1.224646799147353207E-16, -1.000000000000000000 ) ) ;
#251 = APPROVAL_STATUS ( 'not_yet_approved' ) ;
#252 = AXIS2_PLACEMENT_3D ( 'NONE', #259, #49, #104 ) ;
#253 = DIRECTION ( 'NONE',  ( -4.275831445896958607E-31, -1.000000000000000000, -1.224646799147353207E-16 ) ) ;
#254 = APPROVAL_ROLE ( '' ) ;
#255 = DIRECTION ( 'NONE',  ( 4.332925965560183299E-31, 1.000000000000000000, 1.224646799147353207E-16 ) ) ;
#256 = CARTESIAN_POINT ( 'NONE',  ( 4.888073874380386697E-15, -1.714505518806294391E-16, 1.399999999999999911 ) ) ;
#257 = APPROVAL_PERSON_ORGANIZATION ( #172, #232, #254 ) ;
#258 = PERSON_AND_ORGANIZATION ( #127, #110 ) ;
#259 = CARTESIAN_POINT ( 'NONE',  ( 1.595606971851311880E-13, -5.596635872103403844E-15, 45.69999999999999574 ) ) ;
#260 = AXIS2_PLACEMENT_3D ( 'NONE', #248, #269, #253 ) ;
#261 = COORDINATED_UNIVERSAL_TIME_OFFSET ( 1, 0, .AHEAD. ) ;
#262 = MECHANICAL_CONTEXT ( 'NONE', #147, 'mechanical' ) ;
#263 = ORIENTED_EDGE ( 'NONE', *, *, #169, .F. ) ;
#264 = VERTEX_POINT ( 'NONE', #43 ) ;
#265 = ORIENTED_EDGE ( 'NONE', *, *, #276, .T. ) ;
#266 = CC_DESIGN_PERSON_AND_ORGANIZATION_ASSIGNMENT ( #163, #25, ( #285 ) ) ;
#267 = VERTEX_POINT ( 'NONE', #215 ) ;
#268 = DIRECTION ( 'NONE',  ( 4.275831445896958607E-31, 1.000000000000000000, 1.224646799147353207E-16 ) ) ;
#269 = DIRECTION ( 'NONE',  ( 3.491481338843133355E-15, -1.224646799147353207E-16, 1.000000000000000000 ) ) ;
#270 = EDGE_CURVE ( 'NONE', #264, #267, #143, .T. ) ;
#271 = CARTESIAN_POINT ( 'NONE',  ( 1.606081415867841091E-13, 1.199999999999999512, 46.00000000000000000 ) ) ;
#272 = CARTESIAN_POINT ( 'NONE',  ( 2.444036937190193349E-15, -8.572527594031471957E-17, 0.6999999999999999556 ) ) ;
#273 = CARTESIAN_POINT ( 'NONE',  ( 4.888073874380386697E-15, -2.168404344971008868E-16, 1.399999999999999911 ) ) ;
#274 = CARTESIAN_POINT ( 'NONE',  ( 1.606081415867841091E-13, -5.633375276077824704E-15, 46.00000000000000000 ) ) ;
#275 = CARTESIAN_POINT ( 'NONE',  ( 6.633814543801956530E-15, 0.4595300575713384683, 1.900000000000000799 ) ) ;
#276 = EDGE_CURVE ( 'NONE', #138, #138, #146, .T. ) ;
#277 = CIRCLE ( 'NONE', #11, 1.200000000000005063 ) ;
#278 = SHAPE_DEFINITION_REPRESENTATION ( #212, #5 ) ;
#279 = SECURITY_CLASSIFICATION_LEVEL ( 'unclassified' ) ;
#280 = EDGE_CURVE ( 'NONE', #66, #66, #226, .T. ) ;
#281 = DIRECTION ( 'NONE',  ( 3.489354422748178188E-15, 0.03489949670250143410, 0.9993908270190956511 ) ) ;
#282 = PERSON_AND_ORGANIZATION_ROLE ( 'design_supplier' ) ;
#283 = DIRECTION ( 'NONE',  ( -3.491481338843133355E-15, 1.224646799147353207E-16, -1.000000000000000000 ) ) ;
#284 = VECTOR ( 'NONE', #17, 1000.000000000000114 ) ;
#285 = PRODUCT_DEFINITION_FORMATION_WITH_SPECIFIED_SOURCE ( 'ANY', '', #295, .NOT_KNOWN. ) ;
#286 = EDGE_LOOP ( 'NONE', ( #77, #59, #80, #199 ) ) ;
#287 = ORIENTED_EDGE ( 'NONE', *, *, #280, .F. ) ;
#288 = EDGE_LOOP ( 'NONE', ( #203 ) ) ;
#289 = ORIENTED_EDGE ( 'NONE', *, *, #169, .T. ) ;
#290 = CARTESIAN_POINT ( 'NONE',  ( 1.606081415867841091E-13, -5.633375276077824704E-15, 46.00000000000000000 ) ) ;
#291 = AXIS2_PLACEMENT_3D ( 'NONE', #62, #85, #205 ) ;
#292 = EDGE_CURVE ( 'NONE', #267, #204, #179, .T. ) ;
#293 = PRODUCT_RELATED_PRODUCT_CATEGORY ( 'detail', '', ( #295 ) ) ;
#294 = FACE_OUTER_BOUND ( 'NONE', #95, .T. ) ;
#295 = PRODUCT ( '997960', '997960', '', ( #262 ) ) ;
#296 = DIRECTION ( 'NONE',  ( 0.0000000000000000000, 1.000000000000000000, 0.0000000000000000000 ) ) ;
#297 = COORDINATED_UNIVERSAL_TIME_OFFSET ( 1, 0, .AHEAD. ) ;
#298 = CARTESIAN_POINT ( 'NONE',  ( 0.0000000000000000000, 0.3499999999999999778, 0.0000000000000000000 ) ) ;
#299 = AXIS2_PLACEMENT_3D ( 'NONE', #41, #139, #47 ) ;
#300 =( GEOMETRIC_REPRESENTATION_CONTEXT ( 3 ) GLOBAL_UNCERTAINTY_ASSIGNED_CONTEXT ( ( #191 ) ) GLOBAL_UNIT_ASSIGNED_CONTEXT ( ( #160, #188, #23 ) ) REPRESENTATION_CONTEXT ( 'NONE', 'WORKASPACE' ) );
#301 = CC_DESIGN_SECURITY_CLASSIFICATION ( #216, ( #285 ) ) ;
ENDSEC;
END-ISO-10303-21;
