ISO-10303-21;
HEADER;
FILE_DESCRIPTION (( 'STEP AP203' ),
    '1' );
FILE_NAME ('997959.step',
    '2021-12-03T14:05:25',
    ( '' ),
    ( '' ),
    'SwSTEP 2.0',
    'SolidWorks 2019',
    '' );
FILE_SCHEMA (( 'CONFIG_CONTROL_DESIGN' ));
ENDSEC;

DATA;
#1 = COORDINATED_UNIVERSAL_TIME_OFFSET ( 1, 0, .AHEAD. ) ;
#2 = ADVANCED_FACE ( 'NONE', ( #214 ), #190, .F. ) ;
#3 = VERTEX_POINT ( 'NONE', #85 ) ;
#4 = PERSON_AND_ORGANIZATION ( #71, #84 ) ;
#5 = APPROVAL_PERSON_ORGANIZATION ( #21, #282, #150 ) ;
#6 = APPROVAL_PERSON_ORGANIZATION ( #159, #92, #68 ) ;
#7 = CIRCLE ( 'NONE', #264, 0.4130221345205130068 ) ;
#8 = EDGE_CURVE ( 'NONE', #93, #239, #95, .T. ) ;
#9 = CARTESIAN_POINT ( 'NONE',  ( 0.0000000000000000000, 0.0000000000000000000, 0.0000000000000000000 ) ) ;
#10 = DIRECTION ( 'NONE',  ( 4.275831445896959482E-31, 1.000000000000000000, 1.224646799147353207E-16 ) ) ;
#11 = PERSON_AND_ORGANIZATION ( #71, #84 ) ;
#12 = EDGE_LOOP ( 'NONE', ( #116 ) ) ;
#13 = LINE ( 'NONE', #195, #120 ) ;
#14 = CARTESIAN_POINT ( 'NONE',  ( 1.606081415867841091E-13, 8.998558695971099120E-33, 46.00000000000000000 ) ) ;
#15 = DIRECTION ( 'NONE',  ( 1.000000000000000000, 0.0000000000000000000, 0.0000000000000000000 ) ) ;
#16 = FACE_OUTER_BOUND ( 'NONE', #136, .T. ) ;
#17 = DIRECTION ( 'NONE',  ( 0.0000000000000000000, 1.000000000000000000, 0.0000000000000000000 ) ) ;
#18 = DIRECTION ( 'NONE',  ( -4.275831445896958607E-31, -1.000000000000000000, -1.224646799147353207E-16 ) ) ;
#19 = PERSON_AND_ORGANIZATION ( #71, #84 ) ;
#20 = TOROIDAL_SURFACE ( 'NONE', #268, 1.279047538304950882, 0.9999999999999995559 ) ;
#21 = PERSON_AND_ORGANIZATION ( #71, #84 ) ;
#22 = APPROVAL_STATUS ( 'not_yet_approved' ) ;
#23 = PRODUCT ( '997959', '997959', '', ( #288 ) ) ;
#24 = PLANE ( 'NONE',  #47 ) ;
#25 = AXIS2_PLACEMENT_3D ( 'NONE', #81, #65, #79 ) ;
#26 = AXIS2_PLACEMENT_3D ( 'NONE', #114, #243, #15 ) ;
#27 = ORIENTED_EDGE ( 'NONE', *, *, #221, .T. ) ;
#28 = VECTOR ( 'NONE', #30, 1000.000000000000000 ) ;
#29 = CC_DESIGN_PERSON_AND_ORGANIZATION_ASSIGNMENT ( #248, #137, ( #261 ) ) ;
#30 = DIRECTION ( 'NONE',  ( -4.275831445896958607E-31, -1.000000000000000000, -1.224646799147353207E-16 ) ) ;
#31 = EDGE_LOOP ( 'NONE', ( #210 ) ) ;
#32 = EDGE_LOOP ( 'NONE', ( #234 ) ) ;
#33 = EDGE_LOOP ( 'NONE', ( #187 ) ) ;
#34 = COORDINATED_UNIVERSAL_TIME_OFFSET ( 1, 0, .AHEAD. ) ;
#35 = CARTESIAN_POINT ( 'NONE',  ( 2.094888803305879619E-15, -7.347880794884117764E-17, 0.5999999999999999778 ) ) ;
#36 = ORIENTED_EDGE ( 'NONE', *, *, #294, .F. ) ;
#37 = PERSON_AND_ORGANIZATION ( #71, #84 ) ;
#38 = DIRECTION ( 'NONE',  ( -3.491481338843133355E-15, 1.224646799147353207E-16, -1.000000000000000000 ) ) ;
#39 = DIRECTION ( 'NONE',  ( 4.275831445896959482E-31, 1.000000000000000000, 1.224646799147353207E-16 ) ) ;
#40 = CARTESIAN_POINT ( 'NONE',  ( 1.012529588264508515E-14, -3.551475717527323832E-16, 2.899999999999999911 ) ) ;
#41 = ADVANCED_FACE ( 'NONE', ( #165, #270 ), #122, .T. ) ;
#42 = DIRECTION ( 'NONE',  ( -3.491481338843133355E-15, 1.224646799147353207E-16, -1.000000000000000000 ) ) ;
#43 = EDGE_CURVE ( 'NONE', #259, #259, #7, .T. ) ;
#44 =( GEOMETRIC_REPRESENTATION_CONTEXT ( 3 ) GLOBAL_UNCERTAINTY_ASSIGNED_CONTEXT ( ( #69 ) ) GLOBAL_UNIT_ASSIGNED_CONTEXT ( ( #164, #148, #99 ) ) REPRESENTATION_CONTEXT ( 'NONE', 'WORKASPACE' ) );
#45 = COORDINATED_UNIVERSAL_TIME_OFFSET ( 1, 0, .AHEAD. ) ;
#46 = DATE_AND_TIME ( #262, #193 ) ;
#47 = AXIS2_PLACEMENT_3D ( 'NONE', #181, #280, #155 ) ;
#48 = CC_DESIGN_DATE_AND_TIME_ASSIGNMENT ( #231, #72, ( #152 ) ) ;
#49 = AXIS2_PLACEMENT_3D ( 'NONE', #9, #50, #10 ) ;
#50 = DIRECTION ( 'NONE',  ( -3.491481338843133355E-15, 1.224646799147353207E-16, -1.000000000000000000 ) ) ;
#51 = ORIENTED_EDGE ( 'NONE', *, *, #228, .F. ) ;
#52 = DATE_AND_TIME ( #296, #78 ) ;
#53 = DIRECTION ( 'NONE',  ( -3.491481338843133355E-15, 1.224646799147353207E-16, -1.000000000000000000 ) ) ;
#54 = AXIS2_PLACEMENT_3D ( 'NONE', #223, #298, #274 ) ;
#55 = VERTEX_POINT ( 'NONE', #113 ) ;
#56 = EDGE_LOOP ( 'NONE', ( #194 ) ) ;
#57 = EDGE_LOOP ( 'NONE', ( #211, #241 ) ) ;
#58 = CARTESIAN_POINT ( 'NONE',  ( -2.565498867538174901E-31, -0.2999999999999999889, -7.347880794884117764E-17 ) ) ;
#59 = DIRECTION ( 'NONE',  ( 4.275831445896958607E-31, 1.000000000000000000, 1.224646799147353207E-16 ) ) ;
#60 = DIRECTION ( 'NONE',  ( 4.275831445896958607E-31, 1.000000000000000000, 1.224646799147352961E-16 ) ) ;
#61 = DIRECTION ( 'NONE',  ( -3.491481338843133355E-15, 1.224646799147353207E-16, -1.000000000000000000 ) ) ;
#62 = CC_DESIGN_PERSON_AND_ORGANIZATION_ASSIGNMENT ( #19, #101, ( #157 ) ) ;
#63 = FACE_BOUND ( 'NONE', #56, .T. ) ;
#64 = CARTESIAN_POINT ( 'NONE',  ( 8.379555213223518475E-15, 0.2790475383049506042, 2.399999999999999911 ) ) ;
#65 = DIRECTION ( 'NONE',  ( -3.491481338843133355E-15, 1.224646799147353207E-16, -1.000000000000000000 ) ) ;
#66 = DIRECTION ( 'NONE',  ( 4.392350710883463712E-31, 1.000000000000000000, 1.224646799147353207E-16 ) ) ;
#67 = CARTESIAN_POINT ( 'NONE',  ( 2.094888803305879619E-15, 2.092521377002796727E-33, 0.5999999999999999778 ) ) ;
#68 = APPROVAL_ROLE ( '' ) ;
#69 = UNCERTAINTY_MEASURE_WITH_UNIT (LENGTH_MEASURE( 1.000000000000000082E-05 ), #164, 'distance_accuracy_value', 'NONE');
#70 = ADVANCED_FACE ( 'NONE', ( #144, #189 ), #246, .T. ) ;
#71 = PERSON ( 'UNSPECIFIED', 'UNSPECIFIED', 'UNSPECIFIED', ('UNSPECIFIED'), ('UNSPECIFIED'), ('UNSPECIFIED') ) ;
#72 = DATE_TIME_ROLE ( 'classification_date' ) ;
#73 = VERTEX_POINT ( 'NONE', #287 ) ;
#74 = APPLICATION_PROTOCOL_DEFINITION ( 'international standard', 'config_control_design', 1994, #89 ) ;
#75 = DIRECTION ( 'NONE',  ( 3.491481338843133355E-15, -1.224646799147353207E-16, 1.000000000000000000 ) ) ;
#76 = APPROVAL_DATE_TIME ( #52, #97 ) ;
#77 = CYLINDRICAL_SURFACE ( 'NONE', #205, 1.500000000000000000 ) ;
#78 = LOCAL_TIME ( 15, 5, 25.00000000000000000, #34 ) ;
#79 = DIRECTION ( 'NONE',  ( 0.0000000000000000000, 1.000000000000000000, 0.0000000000000000000 ) ) ;
#80 = CARTESIAN_POINT ( 'NONE',  ( 8.379555213223516897E-15, -2.168404344971008868E-16, 2.399999999999999467 ) ) ;
#81 = CARTESIAN_POINT ( 'NONE',  ( 8.379555213223518475E-15, -2.939152317953647106E-16, 2.399999999999999911 ) ) ;
#82 = CARTESIAN_POINT ( 'NONE',  ( 2.094888803305879619E-15, 2.092521377002796727E-33, 0.5999999999999999778 ) ) ;
#83 = CARTESIAN_POINT ( 'NONE',  ( -6.413747168845437253E-32, 2.249639673992786070E-33, -1.836970198721029441E-17 ) ) ;
#84 = ORGANIZATION ( 'UNSPECIFIED', 'UNSPECIFIED', '' ) ;
#85 = CARTESIAN_POINT ( 'NONE',  ( 1.669871090570218261E-14, 1.499999999999994449, 4.782700889713226822 ) ) ;
#86 = COORDINATED_UNIVERSAL_TIME_OFFSET ( 1, 0, .AHEAD. ) ;
#87 = AXIS2_PLACEMENT_3D ( 'NONE', #35, #129, #124 ) ;
#88 = EDGE_CURVE ( 'NONE', #239, #55, #237, .T. ) ;
#89 = APPLICATION_CONTEXT ( 'configuration controlled 3d designs of mechanical parts and assemblies' ) ;
#90 = ORIENTED_EDGE ( 'NONE', *, *, #88, .T. ) ;
#91 = MANIFOLD_SOLID_BREP ( 'Corps-Déplacer/Copier1[1]', #285 ) ;
#92 = APPROVAL ( #230, 'UNSPECIFIED' ) ;
#93 = VERTEX_POINT ( 'NONE', #299 ) ;
#94 = CONICAL_SURFACE ( 'NONE', #273, 0.2999999999999999889, 0.03490658503988723627 ) ;
#95 = LINE ( 'NONE', #286, #28 ) ;
#96 = EDGE_LOOP ( 'NONE', ( #167 ) ) ;
#97 = APPROVAL ( #293, 'UNSPECIFIED' ) ;
#98 = CARTESIAN_POINT ( 'NONE',  ( 1.012529588264508515E-14, -3.551475717527323832E-16, 2.899999999999999911 ) ) ;
#99 =( NAMED_UNIT ( * ) SI_UNIT ( $, .STERADIAN. ) SOLID_ANGLE_UNIT ( ) );
#100 = FACE_OUTER_BOUND ( 'NONE', #96, .T. ) ;
#101 = PERSON_AND_ORGANIZATION_ROLE ( 'design_supplier' ) ;
#102 = FACE_OUTER_BOUND ( 'NONE', #141, .T. ) ;
#103 = FACE_OUTER_BOUND ( 'NONE', #31, .T. ) ;
#104 = ADVANCED_BREP_SHAPE_REPRESENTATION ( '997959', ( #91, #198, #26 ), #44 ) ;
#105 = PRODUCT_DEFINITION_SHAPE ( 'NONE', 'NONE',  #261 ) ;
#106 = SECURITY_CLASSIFICATION_LEVEL ( 'unclassified' ) ;
#107 = VERTEX_POINT ( 'NONE', #158 ) ;
#108 = APPROVAL_PERSON_ORGANIZATION ( #212, #97, #197 ) ;
#109 = EDGE_CURVE ( 'NONE', #239, #93, #133, .T. ) ;
#110 = VERTEX_POINT ( 'NONE', #64 ) ;
#111 = PRODUCT_RELATED_PRODUCT_CATEGORY ( 'detail', '', ( #23 ) ) ;
#112 = LOCAL_TIME ( 15, 5, 25.00000000000000000, #178 ) ;
#113 = CARTESIAN_POINT ( 'NONE',  ( 2.094888803305879224E-15, -0.2790475383049510483, 0.5999999999999998668 ) ) ;
#114 = CARTESIAN_POINT ( 'NONE',  ( 0.0000000000000000000, 0.0000000000000000000, 0.0000000000000000000 ) ) ;
#115 = ORIENTED_EDGE ( 'NONE', *, *, #180, .F. ) ;
#116 = ORIENTED_EDGE ( 'NONE', *, *, #180, .T. ) ;
#117 = ORIENTED_EDGE ( 'NONE', *, *, #224, .T. ) ;
#118 = APPLICATION_PROTOCOL_DEFINITION ( 'international standard', 'config_control_design', 1994, #160 ) ;
#119 = FACE_OUTER_BOUND ( 'NONE', #12, .T. ) ;
#120 = VECTOR ( 'NONE', #272, 1000.000000000000114 ) ;
#121 = ORIENTED_EDGE ( 'NONE', *, *, #224, .F. ) ;
#122 = CONICAL_SURFACE ( 'NONE', #202, 1.200000000000005063, 0.7853981633974453924 ) ;
#123 = VECTOR ( 'NONE', #199, 1000.000000000000114 ) ;
#124 = DIRECTION ( 'NONE',  ( 0.0000000000000000000, 1.000000000000000000, 0.0000000000000000000 ) ) ;
#125 = ORIENTED_EDGE ( 'NONE', *, *, #228, .T. ) ;
#126 = PERSON_AND_ORGANIZATION_ROLE ( 'creator' ) ;
#127 = DIRECTION ( 'NONE',  ( -3.491481338843133355E-15, 1.224646799147353207E-16, -1.000000000000000000 ) ) ;
#128 = DATE_AND_TIME ( #174, #207 ) ;
#129 = DIRECTION ( 'NONE',  ( -3.491481338843133355E-15, 1.224646799147353207E-16, -1.000000000000000000 ) ) ;
#130 = PLANE ( 'NONE',  #245 ) ;
#131 = VERTEX_POINT ( 'NONE', #200 ) ;
#132 = LINE ( 'NONE', #67, #169 ) ;
#133 = CIRCLE ( 'NONE', #143, 0.2999999999999999889 ) ;
#134 = PERSON_AND_ORGANIZATION_ROLE ( 'classification_officer' ) ;
#135 = ADVANCED_FACE ( 'NONE', ( #301 ), #225, .T. ) ;
#136 = EDGE_LOOP ( 'NONE', ( #27 ) ) ;
#137 = PERSON_AND_ORGANIZATION_ROLE ( 'creator' ) ;
#138 = CIRCLE ( 'NONE', #255, 1.200000000000005063 ) ;
#139 = ORIENTED_EDGE ( 'NONE', *, *, #221, .F. ) ;
#140 = DIRECTION ( 'NONE',  ( -3.491481338843133355E-15, 1.224646799147353207E-16, -1.000000000000000000 ) ) ;
#141 = EDGE_LOOP ( 'NONE', ( #279, #121, #36, #266 ) ) ;
#142 = CARTESIAN_POINT ( 'NONE',  ( 1.606081415867841091E-13, -5.633375276077824704E-15, 46.00000000000000000 ) ) ;
#143 = AXIS2_PLACEMENT_3D ( 'NONE', #149, #42, #60 ) ;
#144 = FACE_OUTER_BOUND ( 'NONE', #163, .T. ) ;
#145 = CC_DESIGN_APPROVAL ( #92, ( #152 ) ) ;
#146 = ORIENTED_EDGE ( 'NONE', *, *, #269, .F. ) ;
#147 = CLOSED_SHELL ( 'NONE', ( #135, #240, #161, #277 ) ) ;
#148 =( NAMED_UNIT ( * ) PLANE_ANGLE_UNIT ( ) SI_UNIT ( $, .RADIAN. ) );
#149 = CARTESIAN_POINT ( 'NONE',  ( -1.282749433769087451E-31, 4.499279347985572139E-33, -3.673940397442058882E-17 ) ) ;
#150 = APPROVAL_ROLE ( '' ) ;
#151 = DIRECTION ( 'NONE',  ( 0.0000000000000000000, 1.000000000000000000, 0.0000000000000000000 ) ) ;
#152 = SECURITY_CLASSIFICATION ( '', '', #106 ) ;
#153 = VERTEX_POINT ( 'NONE', #256 ) ;
#154 = EDGE_CURVE ( 'NONE', #110, #110, #233, .T. ) ;
#155 = DIRECTION ( 'NONE',  ( -3.491481338843133355E-15, 0.0000000000000000000, -1.000000000000000000 ) ) ;
#156 = DIRECTION ( 'NONE',  ( 4.275831445896958607E-31, 1.000000000000000000, 1.224646799147353207E-16 ) ) ;
#157 = PRODUCT_DEFINITION_FORMATION_WITH_SPECIFIED_SOURCE ( 'ANY', '', #23, .NOT_KNOWN. ) ;
#158 = CARTESIAN_POINT ( 'NONE',  ( 1.606081415867841091E-13, 1.199999999999999512, 46.00000000000000000 ) ) ;
#159 = PERSON_AND_ORGANIZATION ( #71, #84 ) ;
#160 = APPLICATION_CONTEXT ( 'configuration controlled 3d designs of mechanical parts and assemblies' ) ;
#161 = ADVANCED_FACE ( 'NONE', ( #173 ), #130, .T. ) ;
#162 = CIRCLE ( 'NONE', #213, 0.2790475383049509372 ) ;
#163 = EDGE_LOOP ( 'NONE', ( #249 ) ) ;
#164 =( LENGTH_UNIT ( ) NAMED_UNIT ( * ) SI_UNIT ( .MILLI., .METRE. ) );
#165 = FACE_OUTER_BOUND ( 'NONE', #267, .T. ) ;
#166 = DIRECTION ( 'NONE',  ( 3.491481338843133355E-15, -1.224646799147353207E-16, 1.000000000000000000 ) ) ;
#167 = ORIENTED_EDGE ( 'NONE', *, *, #43, .T. ) ;
#168 = EDGE_LOOP ( 'NONE', ( #51, #208 ) ) ;
#169 = VECTOR ( 'NONE', #156, 1000.000000000000000 ) ;
#170 = ADVANCED_FACE ( 'NONE', ( #276, #16 ), #77, .T. ) ;
#171 = DATE_TIME_ROLE ( 'creation_date' ) ;
#172 = DIRECTION ( 'NONE',  ( 4.275831445896958607E-31, 1.000000000000000000, 1.224646799147352961E-16 ) ) ;
#173 = FACE_OUTER_BOUND ( 'NONE', #168, .T. ) ;
#174 = CALENDAR_DATE ( 2021, 3, 12 ) ;
#175 = DIRECTION ( 'NONE',  ( -3.491481338843133355E-15, 1.224646799147353207E-16, -1.000000000000000000 ) ) ;
#176 = DIRECTION ( 'NONE',  ( -3.491481338843133355E-15, 1.224646799147353207E-16, -1.000000000000000000 ) ) ;
#177 = CONICAL_SURFACE ( 'NONE', #284, 0.4130221345205130068, 0.5235987755982998149 ) ;
#178 = COORDINATED_UNIVERSAL_TIME_OFFSET ( 1, 0, .AHEAD. ) ;
#179 = DIRECTION ( 'NONE',  ( -3.491481338843133355E-15, 1.224646799147353207E-16, -1.000000000000000000 ) ) ;
#180 = EDGE_CURVE ( 'NONE', #3, #3, #281, .T. ) ;
#181 = CARTESIAN_POINT ( 'NONE',  ( 0.0000000000000000000, 0.0000000000000000000, 0.0000000000000000000 ) ) ;
#182 = SHAPE_DEFINITION_REPRESENTATION ( #105, #104 ) ;
#183 = AXIS2_PLACEMENT_3D ( 'NONE', #82, #75, #215 ) ;
#184 = CALENDAR_DATE ( 2021, 3, 12 ) ;
#185 = CC_DESIGN_DATE_AND_TIME_ASSIGNMENT ( #226, #171, ( #261 ) ) ;
#186 = CIRCLE ( 'NONE', #87, 0.2790475383049509372 ) ;
#187 = ORIENTED_EDGE ( 'NONE', *, *, #254, .T. ) ;
#188 = ADVANCED_FACE ( 'NONE', ( #103 ), #204, .F. ) ;
#189 = FACE_OUTER_BOUND ( 'NONE', #209, .T. ) ;
#190 = PLANE ( 'NONE',  #292 ) ;
#191 = ADVANCED_FACE ( 'NONE', ( #119, #63 ), #177, .T. ) ;
#192 = AXIS2_PLACEMENT_3D ( 'NONE', #203, #175, #151 ) ;
#193 = LOCAL_TIME ( 15, 5, 25.00000000000000000, #45 ) ;
#194 = ORIENTED_EDGE ( 'NONE', *, *, #43, .F. ) ;
#195 = CARTESIAN_POINT ( 'NONE',  ( 2.999488318550501989E-14, -1.052078877674844841E-15, 8.590875984874521976 ) ) ;
#196 = DIRECTION ( 'NONE',  ( -3.491481338843133355E-15, 1.224646799147353207E-16, -1.000000000000000000 ) ) ;
#197 = APPROVAL_ROLE ( '' ) ;
#198 = MANIFOLD_SOLID_BREP ( 'Corps-Déplacer/Copier1[2]', #147 ) ;
#199 = DIRECTION ( 'NONE',  ( 3.489354422748178188E-15, 0.03489949670250148267, 0.9993908270190956511 ) ) ;
#200 = CARTESIAN_POINT ( 'NONE',  ( 2.094888803305879619E-15, 0.2790475383049508817, 0.5999999999999999778 ) ) ;
#201 = CARTESIAN_POINT ( 'NONE',  ( 0.0000000000000000000, 0.0000000000000000000, 0.0000000000000000000 ) ) ;
#202 = AXIS2_PLACEMENT_3D ( 'NONE', #238, #140, #265 ) ;
#203 = CARTESIAN_POINT ( 'NONE',  ( 1.595606971851311880E-13, -5.596635872103403844E-15, 45.69999999999999574 ) ) ;
#204 = PLANE ( 'NONE',  #183 ) ;
#205 = AXIS2_PLACEMENT_3D ( 'NONE', #201, #61, #39 ) ;
#206 = APPROVAL_DATE_TIME ( #46, #92 ) ;
#207 = LOCAL_TIME ( 15, 5, 25.00000000000000000, #1 ) ;
#208 = ORIENTED_EDGE ( 'NONE', *, *, #294, .T. ) ;
#209 = EDGE_LOOP ( 'NONE', ( #146 ) ) ;
#210 = ORIENTED_EDGE ( 'NONE', *, *, #269, .T. ) ;
#211 = ORIENTED_EDGE ( 'NONE', *, *, #109, .T. ) ;
#212 = PERSON_AND_ORGANIZATION ( #71, #84 ) ;
#213 = AXIS2_PLACEMENT_3D ( 'NONE', #244, #38, #17 ) ;
#214 = FACE_OUTER_BOUND ( 'NONE', #258, .T. ) ;
#215 = DIRECTION ( 'NONE',  ( -4.275831445896958607E-31, -1.000000000000000000, -1.224646799147353207E-16 ) ) ;
#216 = DIRECTION ( 'NONE',  ( 3.491481338843133355E-15, -1.224646799147353207E-16, 1.000000000000000000 ) ) ;
#217 = FACE_OUTER_BOUND ( 'NONE', #219, .T. ) ;
#218 = CARTESIAN_POINT ( 'NONE',  ( 2.094888803305879619E-15, 2.092521377002796727E-33, 0.5999999999999999778 ) ) ;
#219 = EDGE_LOOP ( 'NONE', ( #247, #90, #125, #117 ) ) ;
#220 = FACE_OUTER_BOUND ( 'NONE', #32, .T. ) ;
#221 = EDGE_CURVE ( 'NONE', #153, #153, #222, .T. ) ;
#222 = CIRCLE ( 'NONE', #192, 1.500000000000005107 ) ;
#223 = CARTESIAN_POINT ( 'NONE',  ( 1.669871090570218261E-14, -5.857119335866501313E-16, 4.782700889713226822 ) ) ;
#224 = EDGE_CURVE ( 'NONE', #73, #93, #13, .T. ) ;
#225 = PLANE ( 'NONE',  #227 ) ;
#226 = DATE_AND_TIME ( #257, #112 ) ;
#227 = AXIS2_PLACEMENT_3D ( 'NONE', #83, #176, #278 ) ;
#228 = EDGE_CURVE ( 'NONE', #55, #73, #186, .T. ) ;
#229 = CARTESIAN_POINT ( 'NONE',  ( 1.012529588264508515E-14, 0.4130221345205126737, 2.899999999999999911 ) ) ;
#230 = APPROVAL_STATUS ( 'not_yet_approved' ) ;
#231 = DATE_AND_TIME ( #184, #236 ) ;
#232 = CC_DESIGN_PERSON_AND_ORGANIZATION_ASSIGNMENT ( #4, #134, ( #152 ) ) ;
#233 = CIRCLE ( 'NONE', #25, 0.2790475383049508817 ) ;
#234 = ORIENTED_EDGE ( 'NONE', *, *, #154, .F. ) ;
#235 = PERSON_AND_ORGANIZATION_ROLE ( 'design_owner' ) ;
#236 = LOCAL_TIME ( 15, 5, 25.00000000000000000, #86 ) ;
#237 = LINE ( 'NONE', #253, #123 ) ;
#238 = CARTESIAN_POINT ( 'NONE',  ( 1.606081415867841091E-13, -5.633375276077824704E-15, 46.00000000000000000 ) ) ;
#239 = VERTEX_POINT ( 'NONE', #58 ) ;
#240 = ADVANCED_FACE ( 'NONE', ( #217 ), #94, .T. ) ;
#241 = ORIENTED_EDGE ( 'NONE', *, *, #8, .T. ) ;
#242 = EDGE_LOOP ( 'NONE', ( #115 ) ) ;
#243 = DIRECTION ( 'NONE',  ( 0.0000000000000000000, 0.0000000000000000000, 1.000000000000000000 ) ) ;
#244 = CARTESIAN_POINT ( 'NONE',  ( 2.094888803305879619E-15, -7.347880794884117764E-17, 0.5999999999999999778 ) ) ;
#245 = AXIS2_PLACEMENT_3D ( 'NONE', #218, #216, #18 ) ;
#246 = CYLINDRICAL_SURFACE ( 'NONE', #49, 0.2790475383049508817 ) ;
#247 = ORIENTED_EDGE ( 'NONE', *, *, #109, .F. ) ;
#248 = PERSON_AND_ORGANIZATION ( #71, #84 ) ;
#249 = ORIENTED_EDGE ( 'NONE', *, *, #154, .T. ) ;
#250 = APPROVAL_DATE_TIME ( #128, #282 ) ;
#251 = CC_DESIGN_PERSON_AND_ORGANIZATION_ASSIGNMENT ( #37, #126, ( #157 ) ) ;
#252 = CARTESIAN_POINT ( 'NONE',  ( -1.282749433769087451E-31, 4.499279347985572139E-33, -3.673940397442058882E-17 ) ) ;
#253 = CARTESIAN_POINT ( 'NONE',  ( 2.999488318550501989E-14, -1.052078877674844841E-15, 8.590875984874521976 ) ) ;
#254 = EDGE_CURVE ( 'NONE', #107, #107, #138, .T. ) ;
#255 = AXIS2_PLACEMENT_3D ( 'NONE', #142, #275, #300 ) ;
#256 = CARTESIAN_POINT ( 'NONE',  ( 1.595606971851311880E-13, 1.499999999999999334, 45.69999999999999574 ) ) ;
#257 = CALENDAR_DATE ( 2021, 3, 12 ) ;
#258 = EDGE_LOOP ( 'NONE', ( #289 ) ) ;
#259 = VERTEX_POINT ( 'NONE', #229 ) ;
#260 = CC_DESIGN_APPROVAL ( #97, ( #261 ) ) ;
#261 = PRODUCT_DEFINITION ( 'UNKNOWN', '', #157, #283 ) ;
#262 = CALENDAR_DATE ( 2021, 3, 12 ) ;
#263 = CC_DESIGN_SECURITY_CLASSIFICATION ( #152, ( #157 ) ) ;
#264 = AXIS2_PLACEMENT_3D ( 'NONE', #98, #196, #295 ) ;
#265 = DIRECTION ( 'NONE',  ( 0.0000000000000000000, 1.000000000000000000, 0.0000000000000000000 ) ) ;
#266 = ORIENTED_EDGE ( 'NONE', *, *, #88, .F. ) ;
#267 = EDGE_LOOP ( 'NONE', ( #139 ) ) ;
#268 = AXIS2_PLACEMENT_3D ( 'NONE', #80, #179, #66 ) ;
#269 = EDGE_CURVE ( 'NONE', #131, #131, #162, .T. ) ;
#270 = FACE_BOUND ( 'NONE', #33, .T. ) ;
#271 = ADVANCED_FACE ( 'NONE', ( #100, #220 ), #20, .F. ) ;
#272 = DIRECTION ( 'NONE',  ( -3.489354422748178188E-15, 0.03489949670250173247, -0.9993908270190956511 ) ) ;
#273 = AXIS2_PLACEMENT_3D ( 'NONE', #252, #127, #172 ) ;
#274 = DIRECTION ( 'NONE',  ( 0.0000000000000000000, 1.000000000000000000, 0.0000000000000000000 ) ) ;
#275 = DIRECTION ( 'NONE',  ( -3.491481338843133355E-15, 1.224646799147353207E-16, -1.000000000000000000 ) ) ;
#276 = FACE_OUTER_BOUND ( 'NONE', #242, .T. ) ;
#277 = ADVANCED_FACE ( 'NONE', ( #102 ), #24, .T. ) ;
#278 = DIRECTION ( 'NONE',  ( 4.275831445896958607E-31, 1.000000000000000000, 1.224646799147353207E-16 ) ) ;
#279 = ORIENTED_EDGE ( 'NONE', *, *, #8, .F. ) ;
#280 = DIRECTION ( 'NONE',  ( 1.000000000000000000, 0.0000000000000000000, -3.491481338843133355E-15 ) ) ;
#281 = CIRCLE ( 'NONE', #54, 1.499999999999995115 ) ;
#282 = APPROVAL ( #22, 'UNSPECIFIED' ) ;
#283 = DESIGN_CONTEXT ( 'detailed design', #89, 'design' ) ;
#284 = AXIS2_PLACEMENT_3D ( 'NONE', #40, #166, #297 ) ;
#285 = CLOSED_SHELL ( 'NONE', ( #188, #70, #271, #191, #170, #41, #2 ) ) ;
#286 = CARTESIAN_POINT ( 'NONE',  ( 0.0000000000000000000, 0.2999999999999999889, 0.0000000000000000000 ) ) ;
#287 = CARTESIAN_POINT ( 'NONE',  ( 2.094888803305879619E-15, 0.2790475383049508817, 0.5999999999999999778 ) ) ;
#288 = MECHANICAL_CONTEXT ( 'NONE', #160, 'mechanical' ) ;
#289 = ORIENTED_EDGE ( 'NONE', *, *, #254, .F. ) ;
#290 = CC_DESIGN_PERSON_AND_ORGANIZATION_ASSIGNMENT ( #11, #235, ( #23 ) ) ;
#291 = CC_DESIGN_APPROVAL ( #282, ( #157 ) ) ;
#292 = AXIS2_PLACEMENT_3D ( 'NONE', #14, #53, #59 ) ;
#293 = APPROVAL_STATUS ( 'not_yet_approved' ) ;
#294 = EDGE_CURVE ( 'NONE', #55, #73, #132, .T. ) ;
#295 = DIRECTION ( 'NONE',  ( 0.0000000000000000000, 1.000000000000000000, 0.0000000000000000000 ) ) ;
#296 = CALENDAR_DATE ( 2021, 3, 12 ) ;
#297 = DIRECTION ( 'NONE',  ( 0.0000000000000000000, -1.000000000000000000, 0.0000000000000000000 ) ) ;
#298 = DIRECTION ( 'NONE',  ( -3.491481338843133355E-15, 1.224646799147353207E-16, -1.000000000000000000 ) ) ;
#299 = CARTESIAN_POINT ( 'NONE',  ( 0.0000000000000000000, 0.2999999999999999889, 0.0000000000000000000 ) ) ;
#300 = DIRECTION ( 'NONE',  ( 0.0000000000000000000, 1.000000000000000000, 0.0000000000000000000 ) ) ;
#301 = FACE_OUTER_BOUND ( 'NONE', #57, .T. ) ;
ENDSEC;
END-ISO-10303-21;
