ISO-10303-21;
HEADER;
FILE_DESCRIPTION (( 'STEP AP203' ),
    '1' );
FILE_NAME ('997958.step',
    '2021-12-03T14:05:25',
    ( '' ),
    ( '' ),
    'SwSTEP 2.0',
    'SolidWorks 2019',
    '' );
FILE_SCHEMA (( 'CONFIG_CONTROL_DESIGN' ));
ENDSEC;

DATA;
#1 = VECTOR ( 'NONE', #172, 1000.000000000000114 ) ;
#2 = FACE_OUTER_BOUND ( 'NONE', #194, .T. ) ;
#3 = ORIENTED_EDGE ( 'NONE', *, *, #283, .T. ) ;
#4 = AXIS2_PLACEMENT_3D ( 'NONE', #296, #127, #69 ) ;
#5 = EDGE_CURVE ( 'NONE', #232, #232, #254, .T. ) ;
#6 = DIRECTION ( 'NONE',  ( -3.491481338843133355E-15, 1.224646799147353207E-16, -1.000000000000000000 ) ) ;
#7 = DIRECTION ( 'NONE',  ( 4.275831445896959482E-31, 1.000000000000000000, 1.224646799147353207E-16 ) ) ;
#8 = DIRECTION ( 'NONE',  ( -3.491481338843133355E-15, 1.224646799147353207E-16, -1.000000000000000000 ) ) ;
#9 = FACE_BOUND ( 'NONE', #262, .T. ) ;
#10 = CLOSED_SHELL ( 'NONE', ( #136, #231, #213, #83 ) ) ;
#11 =( GEOMETRIC_REPRESENTATION_CONTEXT ( 3 ) GLOBAL_UNCERTAINTY_ASSIGNED_CONTEXT ( ( #164 ) ) GLOBAL_UNIT_ASSIGNED_CONTEXT ( ( #14, #197, #144 ) ) REPRESENTATION_CONTEXT ( 'NONE', 'WORKASPACE' ) );
#12 = EDGE_LOOP ( 'NONE', ( #217, #293, #123, #237 ) ) ;
#13 = ADVANCED_BREP_SHAPE_REPRESENTATION ( '997958', ( #167, #165, #47 ), #11 ) ;
#14 =( LENGTH_UNIT ( ) NAMED_UNIT ( * ) SI_UNIT ( .MILLI., .METRE. ) );
#15 = EDGE_LOOP ( 'NONE', ( #177 ) ) ;
#16 = EDGE_CURVE ( 'NONE', #102, #21, #205, .T. ) ;
#17 = APPROVAL_ROLE ( '' ) ;
#18 = DIRECTION ( 'NONE',  ( -3.491481338843133355E-15, 1.224646799147353207E-16, -1.000000000000000000 ) ) ;
#19 = EDGE_LOOP ( 'NONE', ( #264 ) ) ;
#20 = AXIS2_PLACEMENT_3D ( 'NONE', #118, #6, #288 ) ;
#21 = VERTEX_POINT ( 'NONE', #179 ) ;
#22 = CALENDAR_DATE ( 2021, 3, 12 ) ;
#23 = FACE_OUTER_BOUND ( 'NONE', #19, .T. ) ;
#24 = COORDINATED_UNIVERSAL_TIME_OFFSET ( 1, 0, .AHEAD. ) ;
#25 = AXIS2_PLACEMENT_3D ( 'NONE', #186, #18, #211 ) ;
#26 = CONICAL_SURFACE ( 'NONE', #4, 0.4130221345205127292, 0.5235987755983003700 ) ;
#27 = FACE_OUTER_BOUND ( 'NONE', #38, .T. ) ;
#28 = AXIS2_PLACEMENT_3D ( 'NONE', #229, #223, #138 ) ;
#29 = CC_DESIGN_PERSON_AND_ORGANIZATION_ASSIGNMENT ( #42, #50, ( #281 ) ) ;
#30 = FACE_OUTER_BOUND ( 'NONE', #55, .T. ) ;
#31 = DIRECTION ( 'NONE',  ( -3.491481338843133355E-15, 0.0000000000000000000, -1.000000000000000000 ) ) ;
#32 = CARTESIAN_POINT ( 'NONE',  ( 1.595606971851311880E-13, -5.596635872103403844E-15, 45.69999999999999574 ) ) ;
#33 = VERTEX_POINT ( 'NONE', #155 ) ;
#34 = DIRECTION ( 'NONE',  ( -3.491481338843133355E-15, 1.224646799147353207E-16, -1.000000000000000000 ) ) ;
#35 = EDGE_CURVE ( 'NONE', #153, #33, #287, .T. ) ;
#36 = LOCAL_TIME ( 15, 5, 25.00000000000000000, #126 ) ;
#37 = CC_DESIGN_APPROVAL ( #84, ( #99 ) ) ;
#38 = EDGE_LOOP ( 'NONE', ( #242 ) ) ;
#39 = DATE_TIME_ROLE ( 'classification_date' ) ;
#40 = FACE_OUTER_BOUND ( 'NONE', #105, .T. ) ;
#41 = ORIENTED_EDGE ( 'NONE', *, *, #210, .T. ) ;
#42 = PERSON_AND_ORGANIZATION ( #189, #255 ) ;
#43 = DIRECTION ( 'NONE',  ( 3.491481338843133355E-15, -1.224646799147353207E-16, 1.000000000000000000 ) ) ;
#44 = CARTESIAN_POINT ( 'NONE',  ( 2.094888803305879619E-15, 2.092521377002796727E-33, 0.5999999999999999778 ) ) ;
#45 = CYLINDRICAL_SURFACE ( 'NONE', #212, 0.2790475383049508817 ) ;
#46 = APPLICATION_PROTOCOL_DEFINITION ( 'international standard', 'config_control_design', 1994, #120 ) ;
#47 = AXIS2_PLACEMENT_3D ( 'NONE', #109, #249, #67 ) ;
#48 = DATE_TIME_ROLE ( 'creation_date' ) ;
#49 = DIRECTION ( 'NONE',  ( 4.275831445896959482E-31, 1.000000000000000000, 1.224646799147353207E-16 ) ) ;
#50 = PERSON_AND_ORGANIZATION_ROLE ( 'design_supplier' ) ;
#51 = PLANE ( 'NONE',  #28 ) ;
#52 = DIRECTION ( 'NONE',  ( -3.491481338843133355E-15, 1.224646799147353207E-16, -1.000000000000000000 ) ) ;
#53 = DIRECTION ( 'NONE',  ( 0.0000000000000000000, 1.000000000000000000, 0.0000000000000000000 ) ) ;
#54 = CARTESIAN_POINT ( 'NONE',  ( 1.606081415867841091E-13, 1.199999999999999512, 46.00000000000000000 ) ) ;
#55 = EDGE_LOOP ( 'NONE', ( #88 ) ) ;
#56 = CIRCLE ( 'NONE', #145, 1.500000000000005107 ) ;
#57 = DIRECTION ( 'NONE',  ( -3.491481338843133355E-15, 1.224646799147353207E-16, -1.000000000000000000 ) ) ;
#58 = ORIENTED_EDGE ( 'NONE', *, *, #185, .T. ) ;
#59 = VERTEX_POINT ( 'NONE', #54 ) ;
#60 = EDGE_LOOP ( 'NONE', ( #175, #289, #196, #3 ) ) ;
#61 = AXIS2_PLACEMENT_3D ( 'NONE', #132, #224, #171 ) ;
#62 = LOCAL_TIME ( 15, 5, 25.00000000000000000, #156 ) ;
#63 = ORIENTED_EDGE ( 'NONE', *, *, #256, .F. ) ;
#64 = PERSON_AND_ORGANIZATION ( #189, #255 ) ;
#65 = APPROVAL ( #271, 'UNSPECIFIED' ) ;
#66 = DIRECTION ( 'NONE',  ( 4.275831445896958607E-31, 1.000000000000000000, 1.224646799147352961E-16 ) ) ;
#67 = DIRECTION ( 'NONE',  ( 1.000000000000000000, 0.0000000000000000000, 0.0000000000000000000 ) ) ;
#68 = PLANE ( 'NONE',  #119 ) ;
#69 = DIRECTION ( 'NONE',  ( 0.0000000000000000000, -1.000000000000000000, 0.0000000000000000000 ) ) ;
#70 = CIRCLE ( 'NONE', #276, 0.2790475383049509372 ) ;
#71 = VECTOR ( 'NONE', #159, 1000.000000000000000 ) ;
#72 = ORIENTED_EDGE ( 'NONE', *, *, #106, .T. ) ;
#73 = DESIGN_CONTEXT ( 'detailed design', #120, 'design' ) ;
#74 = LOCAL_TIME ( 15, 5, 25.00000000000000000, #183 ) ;
#75 = EDGE_CURVE ( 'NONE', #174, #174, #191, .T. ) ;
#76 = ORIENTED_EDGE ( 'NONE', *, *, #5, .F. ) ;
#77 = APPLICATION_PROTOCOL_DEFINITION ( 'international standard', 'config_control_design', 1994, #277 ) ;
#78 = CARTESIAN_POINT ( 'NONE',  ( 0.0000000000000000000, 0.0000000000000000000, 0.0000000000000000000 ) ) ;
#79 = DIRECTION ( 'NONE',  ( 4.275831445896958607E-31, 1.000000000000000000, 1.224646799147353207E-16 ) ) ;
#80 = AXIS2_PLACEMENT_3D ( 'NONE', #298, #93, #111 ) ;
#81 = VERTEX_POINT ( 'NONE', #261 ) ;
#82 = EDGE_LOOP ( 'NONE', ( #220 ) ) ;
#83 = ADVANCED_FACE ( 'NONE', ( #260 ), #146, .T. ) ;
#84 = APPROVAL ( #221, 'UNSPECIFIED' ) ;
#85 = DIRECTION ( 'NONE',  ( 0.0000000000000000000, 1.000000000000000000, 0.0000000000000000000 ) ) ;
#86 = ORIENTED_EDGE ( 'NONE', *, *, #16, .T. ) ;
#87 = PERSON_AND_ORGANIZATION_ROLE ( 'design_owner' ) ;
#88 = ORIENTED_EDGE ( 'NONE', *, *, #273, .T. ) ;
#89 = APPROVAL ( #95, 'UNSPECIFIED' ) ;
#90 = DIRECTION ( 'NONE',  ( 4.275831445896958607E-31, 1.000000000000000000, 1.224646799147353207E-16 ) ) ;
#91 = CARTESIAN_POINT ( 'NONE',  ( -1.282749433769087451E-31, 4.499279347985572139E-33, -3.673940397442058882E-17 ) ) ;
#92 = CC_DESIGN_PERSON_AND_ORGANIZATION_ASSIGNMENT ( #64, #158, ( #281 ) ) ;
#93 = DIRECTION ( 'NONE',  ( -3.491481338843133355E-15, 1.224646799147353207E-16, -1.000000000000000000 ) ) ;
#94 = DATE_AND_TIME ( #22, #74 ) ;
#95 = APPROVAL_STATUS ( 'not_yet_approved' ) ;
#96 = LINE ( 'NONE', #203, #71 ) ;
#97 = APPROVAL_PERSON_ORGANIZATION ( #265, #84, #17 ) ;
#98 = DIRECTION ( 'NONE',  ( 3.489354422748178188E-15, 0.03489949670250148267, 0.9993908270190956511 ) ) ;
#99 = SECURITY_CLASSIFICATION ( '', '', #154 ) ;
#100 = CARTESIAN_POINT ( 'NONE',  ( 1.606081415867841091E-13, -5.633375276077824704E-15, 46.00000000000000000 ) ) ;
#101 = VERTEX_POINT ( 'NONE', #285 ) ;
#102 = VERTEX_POINT ( 'NONE', #216 ) ;
#103 = AXIS2_PLACEMENT_3D ( 'NONE', #248, #43, #227 ) ;
#104 = EDGE_LOOP ( 'NONE', ( #112 ) ) ;
#105 = EDGE_LOOP ( 'NONE', ( #86, #41 ) ) ;
#106 = EDGE_CURVE ( 'NONE', #101, #101, #139, .T. ) ;
#107 = COORDINATED_UNIVERSAL_TIME_OFFSET ( 1, 0, .AHEAD. ) ;
#108 = CARTESIAN_POINT ( 'NONE',  ( 1.460382210239629944E-14, -5.122331256378088058E-16, 4.182700889713226289 ) ) ;
#109 = CARTESIAN_POINT ( 'NONE',  ( 0.0000000000000000000, 0.0000000000000000000, 0.0000000000000000000 ) ) ;
#110 = AXIS2_PLACEMENT_3D ( 'NONE', #141, #52, #53 ) ;
#111 = DIRECTION ( 'NONE',  ( 4.275831445896958607E-31, 1.000000000000000000, 1.224646799147353207E-16 ) ) ;
#112 = ORIENTED_EDGE ( 'NONE', *, *, #5, .T. ) ;
#113 = ADVANCED_FACE ( 'NONE', ( #190, #27 ), #45, .T. ) ;
#114 = CARTESIAN_POINT ( 'NONE',  ( 8.030407079339209873E-15, -2.816687638038913042E-16, 2.300000000000000711 ) ) ;
#115 = DIRECTION ( 'NONE',  ( 0.0000000000000000000, 1.000000000000000000, 0.0000000000000000000 ) ) ;
#116 = CC_DESIGN_DATE_AND_TIME_ASSIGNMENT ( #94, #48, ( #301 ) ) ;
#117 = AXIS2_PLACEMENT_3D ( 'NONE', #100, #236, #195 ) ;
#118 = CARTESIAN_POINT ( 'NONE',  ( 6.284666409917640040E-15, -2.168404344971008868E-16, 1.800000000000000044 ) ) ;
#119 = AXIS2_PLACEMENT_3D ( 'NONE', #182, #270, #90 ) ;
#120 = APPLICATION_CONTEXT ( 'configuration controlled 3d designs of mechanical parts and assemblies' ) ;
#121 = ORIENTED_EDGE ( 'NONE', *, *, #235, .T. ) ;
#122 = VERTEX_POINT ( 'NONE', #263 ) ;
#123 = ORIENTED_EDGE ( 'NONE', *, *, #35, .F. ) ;
#124 = CC_DESIGN_PERSON_AND_ORGANIZATION_ASSIGNMENT ( #152, #87, ( #222 ) ) ;
#125 = EDGE_LOOP ( 'NONE', ( #63, #198 ) ) ;
#126 = COORDINATED_UNIVERSAL_TIME_OFFSET ( 1, 0, .AHEAD. ) ;
#127 = DIRECTION ( 'NONE',  ( 3.491481338843133355E-15, -1.224646799147353207E-16, 1.000000000000000000 ) ) ;
#128 = EDGE_LOOP ( 'NONE', ( #149 ) ) ;
#129 = CC_DESIGN_DATE_AND_TIME_ASSIGNMENT ( #240, #39, ( #99 ) ) ;
#130 = DATE_AND_TIME ( #243, #300 ) ;
#131 = CARTESIAN_POINT ( 'NONE',  ( 2.999488318550501989E-14, -1.052078877674844841E-15, 8.590875984874521976 ) ) ;
#132 = CARTESIAN_POINT ( 'NONE',  ( 6.284666409917640040E-15, -2.204364238465235576E-16, 1.800000000000000044 ) ) ;
#133 = DATE_AND_TIME ( #226, #36 ) ;
#134 = AXIS2_PLACEMENT_3D ( 'NONE', #78, #34, #7 ) ;
#135 = APPROVAL_DATE_TIME ( #274, #65 ) ;
#136 = ADVANCED_FACE ( 'NONE', ( #40 ), #68, .T. ) ;
#137 = PERSON_AND_ORGANIZATION ( #189, #255 ) ;
#138 = DIRECTION ( 'NONE',  ( -4.275831445896958607E-31, -1.000000000000000000, -1.224646799147353207E-16 ) ) ;
#139 = CIRCLE ( 'NONE', #218, 0.2790475383049509372 ) ;
#140 = ADVANCED_FACE ( 'NONE', ( #23 ), #204, .F. ) ;
#141 = CARTESIAN_POINT ( 'NONE',  ( 1.606081415867841091E-13, -5.633375276077824704E-15, 46.00000000000000000 ) ) ;
#142 = PRODUCT_DEFINITION_SHAPE ( 'NONE', 'NONE',  #301 ) ;
#143 = CLOSED_SHELL ( 'NONE', ( #188, #113, #241, #166, #278, #252, #140 ) ) ;
#144 =( NAMED_UNIT ( * ) SI_UNIT ( $, .STERADIAN. ) SOLID_ANGLE_UNIT ( ) );
#145 = AXIS2_PLACEMENT_3D ( 'NONE', #32, #57, #85 ) ;
#146 = PLANE ( 'NONE',  #286 ) ;
#147 = DIRECTION ( 'NONE',  ( 0.0000000000000000000, 1.000000000000000000, 0.0000000000000000000 ) ) ;
#148 = EDGE_LOOP ( 'NONE', ( #72 ) ) ;
#149 = ORIENTED_EDGE ( 'NONE', *, *, #185, .F. ) ;
#150 = VECTOR ( 'NONE', #79, 1000.000000000000000 ) ;
#151 = APPROVAL_PERSON_ORGANIZATION ( #181, #65, #206 ) ;
#152 = PERSON_AND_ORGANIZATION ( #189, #255 ) ;
#153 = VERTEX_POINT ( 'NONE', #161 ) ;
#154 = SECURITY_CLASSIFICATION_LEVEL ( 'unclassified' ) ;
#155 = CARTESIAN_POINT ( 'NONE',  ( 2.094888803305879619E-15, 0.2790475383049508817, 0.5999999999999999778 ) ) ;
#156 = COORDINATED_UNIVERSAL_TIME_OFFSET ( 1, 0, .AHEAD. ) ;
#157 = PLANE ( 'NONE',  #103 ) ;
#158 = PERSON_AND_ORGANIZATION_ROLE ( 'creator' ) ;
#159 = DIRECTION ( 'NONE',  ( -4.275831445896958607E-31, -1.000000000000000000, -1.224646799147353207E-16 ) ) ;
#160 = CARTESIAN_POINT ( 'NONE',  ( 2.094888803305879619E-15, -7.347880794884117764E-17, 0.5999999999999999778 ) ) ;
#161 = CARTESIAN_POINT ( 'NONE',  ( 2.094888803305879224E-15, -0.2790475383049510483, 0.5999999999999998668 ) ) ;
#162 = AXIS2_PLACEMENT_3D ( 'NONE', #114, #178, #244 ) ;
#163 = CC_DESIGN_SECURITY_CLASSIFICATION ( #99, ( #281 ) ) ;
#164 = UNCERTAINTY_MEASURE_WITH_UNIT (LENGTH_MEASURE( 1.000000000000000082E-05 ), #14, 'distance_accuracy_value', 'NONE');
#165 = MANIFOLD_SOLID_BREP ( 'Corps-Déplacer/Copier1[2]', #10 ) ;
#166 = ADVANCED_FACE ( 'NONE', ( #199, #272 ), #26, .T. ) ;
#167 = MANIFOLD_SOLID_BREP ( 'Corps-Déplacer/Copier1[1]', #143 ) ;
#168 = AXIS2_PLACEMENT_3D ( 'NONE', #108, #284, #200 ) ;
#169 = CARTESIAN_POINT ( 'NONE',  ( 1.460382210239629944E-14, 1.499999999999994449, 4.182700889713226289 ) ) ;
#170 = CC_DESIGN_PERSON_AND_ORGANIZATION_ASSIGNMENT ( #180, #225, ( #301 ) ) ;
#171 = DIRECTION ( 'NONE',  ( 0.0000000000000000000, 1.000000000000000000, 0.0000000000000000000 ) ) ;
#172 = DIRECTION ( 'NONE',  ( -3.489354422748178188E-15, 0.03489949670250173247, -0.9993908270190956511 ) ) ;
#173 = CARTESIAN_POINT ( 'NONE',  ( 0.0000000000000000000, 0.0000000000000000000, 0.0000000000000000000 ) ) ;
#174 = VERTEX_POINT ( 'NONE', #257 ) ;
#175 = ORIENTED_EDGE ( 'NONE', *, *, #16, .F. ) ;
#176 = CALENDAR_DATE ( 2021, 3, 12 ) ;
#177 = ORIENTED_EDGE ( 'NONE', *, *, #75, .T. ) ;
#178 = DIRECTION ( 'NONE',  ( -3.491481338843133355E-15, 1.224646799147353207E-16, -1.000000000000000000 ) ) ;
#179 = CARTESIAN_POINT ( 'NONE',  ( 0.0000000000000000000, 0.2999999999999999889, 0.0000000000000000000 ) ) ;
#180 = PERSON_AND_ORGANIZATION ( #189, #255 ) ;
#181 = PERSON_AND_ORGANIZATION ( #189, #255 ) ;
#182 = CARTESIAN_POINT ( 'NONE',  ( -6.413747168845437253E-32, 2.249639673992786070E-33, -1.836970198721029441E-17 ) ) ;
#183 = COORDINATED_UNIVERSAL_TIME_OFFSET ( 1, 0, .AHEAD. ) ;
#184 = LINE ( 'NONE', #131, #238 ) ;
#185 = EDGE_CURVE ( 'NONE', #81, #81, #239, .T. ) ;
#186 = CARTESIAN_POINT ( 'NONE',  ( -1.282749433769087451E-31, 4.499279347985572139E-33, -3.673940397442058882E-17 ) ) ;
#187 = CONICAL_SURFACE ( 'NONE', #117, 1.200000000000005063, 0.7853981633974453924 ) ;
#188 = ADVANCED_FACE ( 'NONE', ( #275 ), #157, .F. ) ;
#189 = PERSON ( 'UNSPECIFIED', 'UNSPECIFIED', 'UNSPECIFIED', ('UNSPECIFIED'), ('UNSPECIFIED'), ('UNSPECIFIED') ) ;
#190 = FACE_OUTER_BOUND ( 'NONE', #15, .T. ) ;
#191 = CIRCLE ( 'NONE', #61, 0.2790475383049508817 ) ;
#192 = CONICAL_SURFACE ( 'NONE', #25, 0.2999999999999999889, 0.03490658503988723627 ) ;
#193 = FACE_OUTER_BOUND ( 'NONE', #82, .T. ) ;
#194 = EDGE_LOOP ( 'NONE', ( #58 ) ) ;
#195 = DIRECTION ( 'NONE',  ( 0.0000000000000000000, 1.000000000000000000, 0.0000000000000000000 ) ) ;
#196 = ORIENTED_EDGE ( 'NONE', *, *, #256, .T. ) ;
#197 =( NAMED_UNIT ( * ) PLANE_ANGLE_UNIT ( ) SI_UNIT ( $, .RADIAN. ) );
#198 = ORIENTED_EDGE ( 'NONE', *, *, #35, .T. ) ;
#199 = FACE_OUTER_BOUND ( 'NONE', #104, .T. ) ;
#200 = DIRECTION ( 'NONE',  ( 0.0000000000000000000, 1.000000000000000000, 0.0000000000000000000 ) ) ;
#201 = TOROIDAL_SURFACE ( 'NONE', #20, 1.279047538304950882, 1.000000000000000000 ) ;
#202 = EDGE_CURVE ( 'NONE', #102, #153, #184, .T. ) ;
#203 = CARTESIAN_POINT ( 'NONE',  ( 0.0000000000000000000, 0.2999999999999999889, 0.0000000000000000000 ) ) ;
#204 = PLANE ( 'NONE',  #80 ) ;
#205 = CIRCLE ( 'NONE', #279, 0.2999999999999999889 ) ;
#206 = APPROVAL_ROLE ( '' ) ;
#207 = CC_DESIGN_APPROVAL ( #89, ( #301 ) ) ;
#208 = FACE_OUTER_BOUND ( 'NONE', #60, .T. ) ;
#209 = SHAPE_DEFINITION_REPRESENTATION ( #142, #13 ) ;
#210 = EDGE_CURVE ( 'NONE', #21, #102, #96, .T. ) ;
#211 = DIRECTION ( 'NONE',  ( 4.275831445896958607E-31, 1.000000000000000000, 1.224646799147352961E-16 ) ) ;
#212 = AXIS2_PLACEMENT_3D ( 'NONE', #292, #245, #49 ) ;
#213 = ADVANCED_FACE ( 'NONE', ( #250 ), #51, .T. ) ;
#214 = CARTESIAN_POINT ( 'NONE',  ( 2.094888803305879619E-15, -7.347880794884117764E-17, 0.5999999999999999778 ) ) ;
#215 = FACE_OUTER_BOUND ( 'NONE', #268, .T. ) ;
#216 = CARTESIAN_POINT ( 'NONE',  ( -2.565498867538174901E-31, -0.2999999999999999889, -7.347880794884117764E-17 ) ) ;
#217 = ORIENTED_EDGE ( 'NONE', *, *, #210, .F. ) ;
#218 = AXIS2_PLACEMENT_3D ( 'NONE', #160, #297, #115 ) ;
#219 = DIRECTION ( 'NONE',  ( -3.491481338843133355E-15, 1.224646799147353207E-16, -1.000000000000000000 ) ) ;
#220 = ORIENTED_EDGE ( 'NONE', *, *, #75, .F. ) ;
#221 = APPROVAL_STATUS ( 'not_yet_approved' ) ;
#222 = PRODUCT ( '997958', '997958', '', ( #294 ) ) ;
#223 = DIRECTION ( 'NONE',  ( 3.491481338843133355E-15, -1.224646799147353207E-16, 1.000000000000000000 ) ) ;
#224 = DIRECTION ( 'NONE',  ( -3.491481338843133355E-15, 1.224646799147353207E-16, -1.000000000000000000 ) ) ;
#225 = PERSON_AND_ORGANIZATION_ROLE ( 'creator' ) ;
#226 = CALENDAR_DATE ( 2021, 3, 12 ) ;
#227 = DIRECTION ( 'NONE',  ( -4.275831445896958607E-31, -1.000000000000000000, -1.224646799147353207E-16 ) ) ;
#228 = PERSON_AND_ORGANIZATION_ROLE ( 'classification_officer' ) ;
#229 = CARTESIAN_POINT ( 'NONE',  ( 2.094888803305879619E-15, 2.092521377002796727E-33, 0.5999999999999999778 ) ) ;
#230 = CC_DESIGN_APPROVAL ( #65, ( #281 ) ) ;
#231 = ADVANCED_FACE ( 'NONE', ( #208 ), #192, .T. ) ;
#232 = VERTEX_POINT ( 'NONE', #169 ) ;
#233 = LINE ( 'NONE', #258, #1 ) ;
#234 = DIRECTION ( 'NONE',  ( 1.000000000000000000, 0.0000000000000000000, -3.491481338843133355E-15 ) ) ;
#235 = EDGE_CURVE ( 'NONE', #59, #59, #246, .T. ) ;
#236 = DIRECTION ( 'NONE',  ( -3.491481338843133355E-15, 1.224646799147353207E-16, -1.000000000000000000 ) ) ;
#237 = ORIENTED_EDGE ( 'NONE', *, *, #202, .F. ) ;
#238 = VECTOR ( 'NONE', #98, 1000.000000000000114 ) ;
#239 = CIRCLE ( 'NONE', #162, 0.4130221345205127292 ) ;
#240 = DATE_AND_TIME ( #176, #266 ) ;
#241 = ADVANCED_FACE ( 'NONE', ( #2, #193 ), #201, .F. ) ;
#242 = ORIENTED_EDGE ( 'NONE', *, *, #106, .F. ) ;
#243 = CALENDAR_DATE ( 2021, 3, 12 ) ;
#244 = DIRECTION ( 'NONE',  ( 0.0000000000000000000, 1.000000000000000000, 0.0000000000000000000 ) ) ;
#245 = DIRECTION ( 'NONE',  ( -3.491481338843133355E-15, 1.224646799147353207E-16, -1.000000000000000000 ) ) ;
#246 = CIRCLE ( 'NONE', #110, 1.200000000000005063 ) ;
#247 = CALENDAR_DATE ( 2021, 3, 12 ) ;
#248 = CARTESIAN_POINT ( 'NONE',  ( 2.094888803305879619E-15, 2.092521377002796727E-33, 0.5999999999999999778 ) ) ;
#249 = DIRECTION ( 'NONE',  ( 0.0000000000000000000, 0.0000000000000000000, 1.000000000000000000 ) ) ;
#250 = FACE_OUTER_BOUND ( 'NONE', #125, .T. ) ;
#251 = APPROVAL_DATE_TIME ( #130, #84 ) ;
#252 = ADVANCED_FACE ( 'NONE', ( #215, #9 ), #187, .T. ) ;
#253 = CC_DESIGN_PERSON_AND_ORGANIZATION_ASSIGNMENT ( #137, #228, ( #99 ) ) ;
#254 = CIRCLE ( 'NONE', #168, 1.499999999999994893 ) ;
#255 = ORGANIZATION ( 'UNSPECIFIED', 'UNSPECIFIED', '' ) ;
#256 = EDGE_CURVE ( 'NONE', #153, #33, #70, .T. ) ;
#257 = CARTESIAN_POINT ( 'NONE',  ( 6.284666409917640040E-15, 0.2790475383049506597, 1.800000000000000044 ) ) ;
#258 = CARTESIAN_POINT ( 'NONE',  ( 2.999488318550501989E-14, -1.052078877674844841E-15, 8.590875984874521976 ) ) ;
#259 = FACE_OUTER_BOUND ( 'NONE', #267, .T. ) ;
#260 = FACE_OUTER_BOUND ( 'NONE', #12, .T. ) ;
#261 = CARTESIAN_POINT ( 'NONE',  ( 8.030407079339209873E-15, 0.4130221345205124517, 2.300000000000000711 ) ) ;
#262 = EDGE_LOOP ( 'NONE', ( #121 ) ) ;
#263 = CARTESIAN_POINT ( 'NONE',  ( 1.595606971851311880E-13, 1.499999999999999334, 45.69999999999999574 ) ) ;
#264 = ORIENTED_EDGE ( 'NONE', *, *, #235, .F. ) ;
#265 = PERSON_AND_ORGANIZATION ( #189, #255 ) ;
#266 = LOCAL_TIME ( 15, 5, 25.00000000000000000, #24 ) ;
#267 = EDGE_LOOP ( 'NONE', ( #76 ) ) ;
#268 = EDGE_LOOP ( 'NONE', ( #290 ) ) ;
#269 = APPROVAL_ROLE ( '' ) ;
#270 = DIRECTION ( 'NONE',  ( -3.491481338843133355E-15, 1.224646799147353207E-16, -1.000000000000000000 ) ) ;
#271 = APPROVAL_STATUS ( 'not_yet_approved' ) ;
#272 = FACE_BOUND ( 'NONE', #128, .T. ) ;
#273 = EDGE_CURVE ( 'NONE', #122, #122, #56, .T. ) ;
#274 = DATE_AND_TIME ( #247, #62 ) ;
#275 = FACE_OUTER_BOUND ( 'NONE', #148, .T. ) ;
#276 = AXIS2_PLACEMENT_3D ( 'NONE', #214, #219, #147 ) ;
#277 = APPLICATION_CONTEXT ( 'configuration controlled 3d designs of mechanical parts and assemblies' ) ;
#278 = ADVANCED_FACE ( 'NONE', ( #259, #30 ), #282, .T. ) ;
#279 = AXIS2_PLACEMENT_3D ( 'NONE', #91, #8, #66 ) ;
#280 = PRODUCT_RELATED_PRODUCT_CATEGORY ( 'detail', '', ( #222 ) ) ;
#281 = PRODUCT_DEFINITION_FORMATION_WITH_SPECIFIED_SOURCE ( 'ANY', '', #222, .NOT_KNOWN. ) ;
#282 = CYLINDRICAL_SURFACE ( 'NONE', #134, 1.500000000000000000 ) ;
#283 = EDGE_CURVE ( 'NONE', #33, #21, #233, .T. ) ;
#284 = DIRECTION ( 'NONE',  ( -3.491481338843133355E-15, 1.224646799147353207E-16, -1.000000000000000000 ) ) ;
#285 = CARTESIAN_POINT ( 'NONE',  ( 2.094888803305879619E-15, 0.2790475383049508817, 0.5999999999999999778 ) ) ;
#286 = AXIS2_PLACEMENT_3D ( 'NONE', #173, #234, #31 ) ;
#287 = LINE ( 'NONE', #44, #150 ) ;
#288 = DIRECTION ( 'NONE',  ( 4.334091078390210722E-31, 1.000000000000000000, 1.224646799147353207E-16 ) ) ;
#289 = ORIENTED_EDGE ( 'NONE', *, *, #202, .T. ) ;
#290 = ORIENTED_EDGE ( 'NONE', *, *, #273, .F. ) ;
#291 = PERSON_AND_ORGANIZATION ( #189, #255 ) ;
#292 = CARTESIAN_POINT ( 'NONE',  ( 0.0000000000000000000, 0.0000000000000000000, 0.0000000000000000000 ) ) ;
#293 = ORIENTED_EDGE ( 'NONE', *, *, #283, .F. ) ;
#294 = MECHANICAL_CONTEXT ( 'NONE', #277, 'mechanical' ) ;
#295 = APPROVAL_DATE_TIME ( #133, #89 ) ;
#296 = CARTESIAN_POINT ( 'NONE',  ( 8.030407079339209873E-15, -2.816687638038913042E-16, 2.300000000000000711 ) ) ;
#297 = DIRECTION ( 'NONE',  ( -3.491481338843133355E-15, 1.224646799147353207E-16, -1.000000000000000000 ) ) ;
#298 = CARTESIAN_POINT ( 'NONE',  ( 1.606081415867841091E-13, 8.998558695971099120E-33, 46.00000000000000000 ) ) ;
#299 = APPROVAL_PERSON_ORGANIZATION ( #291, #89, #269 ) ;
#300 = LOCAL_TIME ( 15, 5, 25.00000000000000000, #107 ) ;
#301 = PRODUCT_DEFINITION ( 'UNKNOWN', '', #281, #73 ) ;
ENDSEC;
END-ISO-10303-21;
