ISO-10303-21;
HEADER;
FILE_DESCRIPTION (( 'STEP AP203' ),
    '1' );
FILE_NAME ('997957.step',
    '2021-12-03T14:05:24',
    ( '' ),
    ( '' ),
    'SwSTEP 2.0',
    'SolidWorks 2019',
    '' );
FILE_SCHEMA (( 'CONFIG_CONTROL_DESIGN' ));
ENDSEC;

DATA;
#1 = ORIENTED_EDGE ( 'NONE', *, *, #126, .F. ) ;
#2 = APPLICATION_PROTOCOL_DEFINITION ( 'international standard', 'config_control_design', 1994, #67 ) ;
#3 = EDGE_LOOP ( 'NONE', ( #86 ) ) ;
#4 = PERSON_AND_ORGANIZATION ( #298, #123 ) ;
#5 = CARTESIAN_POINT ( 'NONE',  ( 1.595606971851311880E-13, -5.596635872103403844E-15, 45.69999999999999574 ) ) ;
#6 = EDGE_LOOP ( 'NONE', ( #90 ) ) ;
#7 = COORDINATED_UNIVERSAL_TIME_OFFSET ( 1, 0, .AHEAD. ) ;
#8 = PERSON_AND_ORGANIZATION ( #298, #123 ) ;
#9 = ORIENTED_EDGE ( 'NONE', *, *, #159, .F. ) ;
#10 = SHAPE_DEFINITION_REPRESENTATION ( #222, #248 ) ;
#11 = AXIS2_PLACEMENT_3D ( 'NONE', #183, #276, #72 ) ;
#12 = EDGE_CURVE ( 'NONE', #218, #218, #185, .T. ) ;
#13 = CARTESIAN_POINT ( 'NONE',  ( -1.282749433769087451E-31, 4.499279347985572139E-33, -3.673940397442058882E-17 ) ) ;
#14 = DATE_AND_TIME ( #225, #73 ) ;
#15 = CIRCLE ( 'NONE', #184, 0.4130221345205133399 ) ;
#16 = SECURITY_CLASSIFICATION ( '', '', #266 ) ;
#17 = ADVANCED_FACE ( 'NONE', ( #60, #162 ), #82, .T. ) ;
#18 = DIRECTION ( 'NONE',  ( -4.275831445896958607E-31, -1.000000000000000000, -1.224646799147353207E-16 ) ) ;
#19 = ORIENTED_EDGE ( 'NONE', *, *, #126, .T. ) ;
#20 = AXIS2_PLACEMENT_3D ( 'NONE', #138, #213, #240 ) ;
#21 = VERTEX_POINT ( 'NONE', #221 ) ;
#22 = CARTESIAN_POINT ( 'NONE',  ( 0.0000000000000000000, 0.2999999999999999889, 0.0000000000000000000 ) ) ;
#23 = EDGE_CURVE ( 'NONE', #141, #141, #33, .T. ) ;
#24 = CYLINDRICAL_SURFACE ( 'NONE', #11, 1.500000000000000000 ) ;
#25 = FACE_OUTER_BOUND ( 'NONE', #299, .T. ) ;
#26 = ORIENTED_EDGE ( 'NONE', *, *, #230, .F. ) ;
#27 = CIRCLE ( 'NONE', #199, 0.2790475383049509372 ) ;
#28 = CARTESIAN_POINT ( 'NONE',  ( 1.250893329909042258E-14, 1.499999999999994449, 3.582700889713227088 ) ) ;
#29 = DIRECTION ( 'NONE',  ( 4.275831445896958607E-31, 1.000000000000000000, 1.224646799147352961E-16 ) ) ;
#30 = PLANE ( 'NONE',  #233 ) ;
#31 = PERSON_AND_ORGANIZATION_ROLE ( 'design_supplier' ) ;
#32 = DIRECTION ( 'NONE',  ( 0.0000000000000000000, 1.000000000000000000, 0.0000000000000000000 ) ) ;
#33 = CIRCLE ( 'NONE', #20, 0.2790475383049509372 ) ;
#34 = CALENDAR_DATE ( 2021, 3, 12 ) ;
#35 = LOCAL_TIME ( 15, 5, 24.00000000000000000, #194 ) ;
#36 = APPROVAL ( #81, 'UNSPECIFIED' ) ;
#37 = PERSON_AND_ORGANIZATION_ROLE ( 'design_owner' ) ;
#38 = VERTEX_POINT ( 'NONE', #143 ) ;
#39 = ADVANCED_FACE ( 'NONE', ( #246 ), #30, .T. ) ;
#40 = AXIS2_PLACEMENT_3D ( 'NONE', #129, #229, #202 ) ;
#41 = AXIS2_PLACEMENT_3D ( 'NONE', #166, #122, #32 ) ;
#42 = EDGE_LOOP ( 'NONE', ( #270, #196 ) ) ;
#43 = CARTESIAN_POINT ( 'NONE',  ( 2.999488318550501989E-14, -1.052078877674844841E-15, 8.590875984874521976 ) ) ;
#44 = ORIENTED_EDGE ( 'NONE', *, *, #87, .F. ) ;
#45 = DIRECTION ( 'NONE',  ( 0.0000000000000000000, 1.000000000000000000, 0.0000000000000000000 ) ) ;
#46 = CIRCLE ( 'NONE', #217, 1.499999999999994893 ) ;
#47 = FACE_OUTER_BOUND ( 'NONE', #234, .T. ) ;
#48 = LOCAL_TIME ( 15, 5, 24.00000000000000000, #7 ) ;
#49 = VERTEX_POINT ( 'NONE', #192 ) ;
#50 = CARTESIAN_POINT ( 'NONE',  ( 1.250893329909042258E-14, -4.387543176889677267E-16, 3.582700889713227088 ) ) ;
#51 = DIRECTION ( 'NONE',  ( 1.000000000000000000, 0.0000000000000000000, -3.491481338843133355E-15 ) ) ;
#52 = CONICAL_SURFACE ( 'NONE', #40, 0.4130221345205133399, 0.5235987755982998149 ) ;
#53 = VECTOR ( 'NONE', #294, 1000.000000000000114 ) ;
#54 = EDGE_LOOP ( 'NONE', ( #109, #26, #160, #251 ) ) ;
#55 = DIRECTION ( 'NONE',  ( 4.275831445896958607E-31, 1.000000000000000000, 1.224646799147353207E-16 ) ) ;
#56 = EDGE_CURVE ( 'NONE', #228, #21, #285, .T. ) ;
#57 = PERSON_AND_ORGANIZATION ( #298, #123 ) ;
#58 = VECTOR ( 'NONE', #18, 1000.000000000000000 ) ;
#59 = APPROVAL_PERSON_ORGANIZATION ( #142, #205, #223 ) ;
#60 = FACE_OUTER_BOUND ( 'NONE', #262, .T. ) ;
#61 = MANIFOLD_SOLID_BREP ( 'Corps-Déplacer/Copier1[2]', #245 ) ;
#62 = DATE_AND_TIME ( #101, #48 ) ;
#63 = LOCAL_TIME ( 15, 5, 24.00000000000000000, #168 ) ;
#64 = AXIS2_PLACEMENT_3D ( 'NONE', #239, #212, #215 ) ;
#65 = DIRECTION ( 'NONE',  ( 3.491481338843133355E-15, -1.224646799147353207E-16, 1.000000000000000000 ) ) ;
#66 = EDGE_CURVE ( 'NONE', #49, #38, #149, .T. ) ;
#67 = APPLICATION_CONTEXT ( 'configuration controlled 3d designs of mechanical parts and assemblies' ) ;
#68 = ORIENTED_EDGE ( 'NONE', *, *, #181, .F. ) ;
#69 = FACE_OUTER_BOUND ( 'NONE', #3, .T. ) ;
#70 = FACE_OUTER_BOUND ( 'NONE', #209, .T. ) ;
#71 = AXIS2_PLACEMENT_3D ( 'NONE', #148, #65, #301 ) ;
#72 = DIRECTION ( 'NONE',  ( 4.275831445896959482E-31, 1.000000000000000000, 1.224646799147353207E-16 ) ) ;
#73 = LOCAL_TIME ( 15, 5, 24.00000000000000000, #224 ) ;
#74 = VERTEX_POINT ( 'NONE', #158 ) ;
#75 = CC_DESIGN_PERSON_AND_ORGANIZATION_ASSIGNMENT ( #57, #211, ( #16 ) ) ;
#76 = VERTEX_POINT ( 'NONE', #119 ) ;
#77 = DIRECTION ( 'NONE',  ( -3.491481338843133355E-15, 1.224646799147353207E-16, -1.000000000000000000 ) ) ;
#78 = DATE_AND_TIME ( #34, #197 ) ;
#79 = CARTESIAN_POINT ( 'NONE',  ( 2.094888803305879619E-15, 2.092521377002796727E-33, 0.5999999999999999778 ) ) ;
#80 = CARTESIAN_POINT ( 'NONE',  ( 1.595606971851311880E-13, 1.499999999999999334, 45.69999999999999574 ) ) ;
#81 = APPROVAL_STATUS ( 'not_yet_approved' ) ;
#82 = CYLINDRICAL_SURFACE ( 'NONE', #144, 0.2790475383049509372 ) ;
#83 = FACE_OUTER_BOUND ( 'NONE', #150, .T. ) ;
#84 = AXIS2_PLACEMENT_3D ( 'NONE', #235, #92, #110 ) ;
#85 = AXIS2_PLACEMENT_3D ( 'NONE', #214, #247, #135 ) ;
#86 = ORIENTED_EDGE ( 'NONE', *, *, #292, .F. ) ;
#87 = EDGE_CURVE ( 'NONE', #279, #279, #46, .T. ) ;
#88 = PRODUCT_DEFINITION ( 'UNKNOWN', '', #104, #157 ) ;
#89 = FACE_BOUND ( 'NONE', #169, .T. ) ;
#90 = ORIENTED_EDGE ( 'NONE', *, *, #87, .T. ) ;
#91 = CARTESIAN_POINT ( 'NONE',  ( 4.189777606611759237E-15, -2.168404344971008868E-16, 1.199999999999999956 ) ) ;
#92 = DIRECTION ( 'NONE',  ( 3.491481338843133355E-15, -1.224646799147353207E-16, 1.000000000000000000 ) ) ;
#93 = CARTESIAN_POINT ( 'NONE',  ( 2.094888803305879619E-15, 0.2790475383049508817, 0.5999999999999999778 ) ) ;
#94 = ORIENTED_EDGE ( 'NONE', *, *, #23, .F. ) ;
#95 = CARTESIAN_POINT ( 'NONE',  ( -1.282749433769087451E-31, 4.499279347985572139E-33, -3.673940397442058882E-17 ) ) ;
#96 = APPROVAL_STATUS ( 'not_yet_approved' ) ;
#97 = EDGE_LOOP ( 'NONE', ( #258 ) ) ;
#98 = APPLICATION_PROTOCOL_DEFINITION ( 'international standard', 'config_control_design', 1994, #241 ) ;
#99 = DIRECTION ( 'NONE',  ( -3.491481338843133355E-15, 1.224646799147353207E-16, -1.000000000000000000 ) ) ;
#100 = DATE_AND_TIME ( #219, #35 ) ;
#101 = CALENDAR_DATE ( 2021, 3, 12 ) ;
#102 = EDGE_LOOP ( 'NONE', ( #115 ) ) ;
#103 = ADVANCED_FACE ( 'NONE', ( #25 ), #244, .T. ) ;
#104 = PRODUCT_DEFINITION_FORMATION_WITH_SPECIFIED_SOURCE ( 'ANY', '', #280, .NOT_KNOWN. ) ;
#105 = CC_DESIGN_PERSON_AND_ORGANIZATION_ASSIGNMENT ( #4, #37, ( #280 ) ) ;
#106 = VECTOR ( 'NONE', #274, 1000.000000000000114 ) ;
#107 = ORIENTED_EDGE ( 'NONE', *, *, #159, .T. ) ;
#108 = APPROVAL_PERSON_ORGANIZATION ( #286, #36, #163 ) ;
#109 = ORIENTED_EDGE ( 'NONE', *, *, #167, .F. ) ;
#110 = DIRECTION ( 'NONE',  ( -4.275831445896958607E-31, -1.000000000000000000, -1.224646799147353207E-16 ) ) ;
#111 = PLANE ( 'NONE',  #293 ) ;
#112 = FACE_OUTER_BOUND ( 'NONE', #97, .T. ) ;
#113 = DIRECTION ( 'NONE',  ( -3.491481338843133355E-15, 1.224646799147353207E-16, -1.000000000000000000 ) ) ;
#114 = ADVANCED_FACE ( 'NONE', ( #69 ), #111, .F. ) ;
#115 = ORIENTED_EDGE ( 'NONE', *, *, #23, .T. ) ;
#116 = CARTESIAN_POINT ( 'NONE',  ( 1.606081415867841091E-13, 8.998558695971099120E-33, 46.00000000000000000 ) ) ;
#117 = PERSON_AND_ORGANIZATION ( #298, #123 ) ;
#118 = ORIENTED_EDGE ( 'NONE', *, *, #181, .T. ) ;
#119 = CARTESIAN_POINT ( 'NONE',  ( 1.606081415867841091E-13, 1.199999999999999512, 46.00000000000000000 ) ) ;
#120 = ADVANCED_FACE ( 'NONE', ( #282 ), #161, .T. ) ;
#121 = CARTESIAN_POINT ( 'NONE',  ( -6.413747168845437253E-32, 2.249639673992786070E-33, -1.836970198721029441E-17 ) ) ;
#122 = DIRECTION ( 'NONE',  ( -3.491481338843133355E-15, 1.224646799147353207E-16, -1.000000000000000000 ) ) ;
#123 = ORGANIZATION ( 'UNSPECIFIED', 'UNSPECIFIED', '' ) ;
#124 = COORDINATED_UNIVERSAL_TIME_OFFSET ( 1, 0, .AHEAD. ) ;
#125 = DIRECTION ( 'NONE',  ( 4.275831445896958607E-31, 1.000000000000000000, 1.224646799147353207E-16 ) ) ;
#126 = EDGE_CURVE ( 'NONE', #74, #74, #27, .T. ) ;
#127 = CC_DESIGN_DATE_AND_TIME_ASSIGNMENT ( #62, #147, ( #16 ) ) ;
#128 = ADVANCED_FACE ( 'NONE', ( #152 ), #179, .F. ) ;
#129 = CARTESIAN_POINT ( 'NONE',  ( 5.935518276033328282E-15, -2.081899558550501019E-16, 1.700000000000000622 ) ) ;
#130 = ORIENTED_EDGE ( 'NONE', *, *, #292, .T. ) ;
#131 = LINE ( 'NONE', #22, #58 ) ;
#132 = EDGE_CURVE ( 'NONE', #49, #228, #295, .T. ) ;
#133 = LINE ( 'NONE', #201, #53 ) ;
#134 = ORIENTED_EDGE ( 'NONE', *, *, #12, .F. ) ;
#135 = DIRECTION ( 'NONE',  ( 0.0000000000000000000, 1.000000000000000000, 0.0000000000000000000 ) ) ;
#136 = DIRECTION ( 'NONE',  ( -3.491481338843133355E-15, 0.0000000000000000000, -1.000000000000000000 ) ) ;
#137 =( NAMED_UNIT ( * ) PLANE_ANGLE_UNIT ( ) SI_UNIT ( $, .RADIAN. ) );
#138 = CARTESIAN_POINT ( 'NONE',  ( 2.094888803305879619E-15, -7.347880794884117764E-17, 0.5999999999999999778 ) ) ;
#139 = APPROVAL_DATE_TIME ( #78, #210 ) ;
#140 = EDGE_LOOP ( 'NONE', ( #107 ) ) ;
#141 = VERTEX_POINT ( 'NONE', #93 ) ;
#142 = PERSON_AND_ORGANIZATION ( #298, #123 ) ;
#143 = CARTESIAN_POINT ( 'NONE',  ( 0.0000000000000000000, 0.2999999999999999889, 0.0000000000000000000 ) ) ;
#144 = AXIS2_PLACEMENT_3D ( 'NONE', #146, #165, #125 ) ;
#145 = MECHANICAL_CONTEXT ( 'NONE', #67, 'mechanical' ) ;
#146 = CARTESIAN_POINT ( 'NONE',  ( 0.0000000000000000000, 0.0000000000000000000, 0.0000000000000000000 ) ) ;
#147 = DATE_TIME_ROLE ( 'classification_date' ) ;
#148 = CARTESIAN_POINT ( 'NONE',  ( 2.094888803305879619E-15, 2.092521377002796727E-33, 0.5999999999999999778 ) ) ;
#149 = CIRCLE ( 'NONE', #177, 0.2999999999999999889 ) ;
#150 = EDGE_LOOP ( 'NONE', ( #134 ) ) ;
#151 = DIRECTION ( 'NONE',  ( -3.491481338843133355E-15, 1.224646799147353207E-16, -1.000000000000000000 ) ) ;
#152 = FACE_OUTER_BOUND ( 'NONE', #102, .T. ) ;
#153 = AXIS2_PLACEMENT_3D ( 'NONE', #259, #51, #136 ) ;
#154 = CARTESIAN_POINT ( 'NONE',  ( 2.094888803305879224E-15, -0.2790475383049510483, 0.5999999999999998668 ) ) ;
#155 = DIRECTION ( 'NONE',  ( 4.275831445896958607E-31, 1.000000000000000000, 1.224646799147352961E-16 ) ) ;
#156 = PRODUCT_RELATED_PRODUCT_CATEGORY ( 'detail', '', ( #280 ) ) ;
#157 = DESIGN_CONTEXT ( 'detailed design', #241, 'design' ) ;
#158 = CARTESIAN_POINT ( 'NONE',  ( 4.189777606611759237E-15, 0.2790475383049507707, 1.199999999999999956 ) ) ;
#159 = EDGE_CURVE ( 'NONE', #188, #188, #15, .T. ) ;
#160 = ORIENTED_EDGE ( 'NONE', *, *, #56, .F. ) ;
#161 = PLANE ( 'NONE',  #153 ) ;
#162 = FACE_OUTER_BOUND ( 'NONE', #231, .T. ) ;
#163 = APPROVAL_ROLE ( '' ) ;
#164 = PERSON_AND_ORGANIZATION ( #298, #123 ) ;
#165 = DIRECTION ( 'NONE',  ( -3.491481338843133355E-15, 1.224646799147353207E-16, -1.000000000000000000 ) ) ;
#166 = CARTESIAN_POINT ( 'NONE',  ( 1.606081415867841091E-13, -5.633375276077824704E-15, 46.00000000000000000 ) ) ;
#167 = EDGE_CURVE ( 'NONE', #38, #49, #131, .T. ) ;
#168 = COORDINATED_UNIVERSAL_TIME_OFFSET ( 1, 0, .AHEAD. ) ;
#169 = EDGE_LOOP ( 'NONE', ( #9 ) ) ;
#170 = CIRCLE ( 'NONE', #208, 0.2790475383049509372 ) ;
#171 = CC_DESIGN_APPROVAL ( #205, ( #16 ) ) ;
#172 = ADVANCED_FACE ( 'NONE', ( #47 ), #174, .T. ) ;
#173 = CIRCLE ( 'NONE', #85, 1.200000000000005063 ) ;
#174 = PLANE ( 'NONE',  #84 ) ;
#175 = ADVANCED_FACE ( 'NONE', ( #204, #89 ), #52, .T. ) ;
#176 = DIRECTION ( 'NONE',  ( -3.491481338843133355E-15, 1.224646799147353207E-16, -1.000000000000000000 ) ) ;
#177 = AXIS2_PLACEMENT_3D ( 'NONE', #13, #113, #155 ) ;
#178 = EDGE_LOOP ( 'NONE', ( #44 ) ) ;
#179 = PLANE ( 'NONE',  #71 ) ;
#180 = DIRECTION ( 'NONE',  ( -3.491481338843133355E-15, 1.224646799147353207E-16, -1.000000000000000000 ) ) ;
#181 = EDGE_CURVE ( 'NONE', #228, #21, #170, .T. ) ;
#182 = DIRECTION ( 'NONE',  ( -3.491481338843133355E-15, 1.224646799147353207E-16, -1.000000000000000000 ) ) ;
#183 = CARTESIAN_POINT ( 'NONE',  ( 0.0000000000000000000, 0.0000000000000000000, 0.0000000000000000000 ) ) ;
#184 = AXIS2_PLACEMENT_3D ( 'NONE', #232, #151, #249 ) ;
#185 = CIRCLE ( 'NONE', #260, 1.500000000000005107 ) ;
#186 =( GEOMETRIC_REPRESENTATION_CONTEXT ( 3 ) GLOBAL_UNCERTAINTY_ASSIGNED_CONTEXT ( ( #237 ) ) GLOBAL_UNIT_ASSIGNED_CONTEXT ( ( #288, #137, #267 ) ) REPRESENTATION_CONTEXT ( 'NONE', 'WORKASPACE' ) );
#187 = DIRECTION ( 'NONE',  ( -3.491481338843133355E-15, 1.224646799147353207E-16, -1.000000000000000000 ) ) ;
#188 = VERTEX_POINT ( 'NONE', #281 ) ;
#189 = DIRECTION ( 'NONE',  ( 4.275831445896958607E-31, 1.000000000000000000, 1.224646799147353207E-16 ) ) ;
#190 = EDGE_LOOP ( 'NONE', ( #130 ) ) ;
#191 = APPROVAL_ROLE ( '' ) ;
#192 = CARTESIAN_POINT ( 'NONE',  ( -2.565498867538174901E-31, -0.2999999999999999889, -7.347880794884117764E-17 ) ) ;
#193 = CC_DESIGN_APPROVAL ( #210, ( #88 ) ) ;
#194 = COORDINATED_UNIVERSAL_TIME_OFFSET ( 1, 0, .AHEAD. ) ;
#195 = DATE_TIME_ROLE ( 'creation_date' ) ;
#196 = ORIENTED_EDGE ( 'NONE', *, *, #167, .T. ) ;
#197 = LOCAL_TIME ( 15, 5, 24.00000000000000000, #124 ) ;
#198 = ADVANCED_FACE ( 'NONE', ( #255, #70 ), #291, .F. ) ;
#199 = AXIS2_PLACEMENT_3D ( 'NONE', #238, #275, #45 ) ;
#200 = APPROVAL_DATE_TIME ( #14, #205 ) ;
#201 = CARTESIAN_POINT ( 'NONE',  ( 2.999488318550501989E-14, -1.052078877674844841E-15, 8.590875984874521976 ) ) ;
#202 = DIRECTION ( 'NONE',  ( 0.0000000000000000000, -1.000000000000000000, 0.0000000000000000000 ) ) ;
#203 = CC_DESIGN_SECURITY_CLASSIFICATION ( #16, ( #104 ) ) ;
#204 = FACE_OUTER_BOUND ( 'NONE', #6, .T. ) ;
#205 = APPROVAL ( #96, 'UNSPECIFIED' ) ;
#206 = ORIENTED_EDGE ( 'NONE', *, *, #66, .F. ) ;
#207 = DIRECTION ( 'NONE',  ( 0.0000000000000000000, 1.000000000000000000, 0.0000000000000000000 ) ) ;
#208 = AXIS2_PLACEMENT_3D ( 'NONE', #227, #176, #300 ) ;
#209 = EDGE_LOOP ( 'NONE', ( #1 ) ) ;
#210 = APPROVAL ( #243, 'UNSPECIFIED' ) ;
#211 = PERSON_AND_ORGANIZATION_ROLE ( 'classification_officer' ) ;
#212 = DIRECTION ( 'NONE',  ( 0.0000000000000000000, 0.0000000000000000000, 1.000000000000000000 ) ) ;
#213 = DIRECTION ( 'NONE',  ( -3.491481338843133355E-15, 1.224646799147353207E-16, -1.000000000000000000 ) ) ;
#214 = CARTESIAN_POINT ( 'NONE',  ( 1.606081415867841091E-13, -5.633375276077824704E-15, 46.00000000000000000 ) ) ;
#215 = DIRECTION ( 'NONE',  ( 1.000000000000000000, 0.0000000000000000000, 0.0000000000000000000 ) ) ;
#216 = ADVANCED_FACE ( 'NONE', ( #297, #112 ), #24, .T. ) ;
#217 = AXIS2_PLACEMENT_3D ( 'NONE', #50, #236, #207 ) ;
#218 = VERTEX_POINT ( 'NONE', #80 ) ;
#219 = CALENDAR_DATE ( 2021, 3, 12 ) ;
#220 = PERSON_AND_ORGANIZATION ( #298, #123 ) ;
#221 = CARTESIAN_POINT ( 'NONE',  ( 2.094888803305879619E-15, 0.2790475383049508817, 0.5999999999999999778 ) ) ;
#222 = PRODUCT_DEFINITION_SHAPE ( 'NONE', 'NONE',  #88 ) ;
#223 = APPROVAL_ROLE ( '' ) ;
#224 = COORDINATED_UNIVERSAL_TIME_OFFSET ( 1, 0, .AHEAD. ) ;
#225 = CALENDAR_DATE ( 2021, 3, 12 ) ;
#226 = CC_DESIGN_DATE_AND_TIME_ASSIGNMENT ( #100, #195, ( #88 ) ) ;
#227 = CARTESIAN_POINT ( 'NONE',  ( 2.094888803305879619E-15, -7.347880794884117764E-17, 0.5999999999999999778 ) ) ;
#228 = VERTEX_POINT ( 'NONE', #154 ) ;
#229 = DIRECTION ( 'NONE',  ( 3.491481338843133355E-15, -1.224646799147353207E-16, 1.000000000000000000 ) ) ;
#230 = EDGE_CURVE ( 'NONE', #21, #38, #133, .T. ) ;
#231 = EDGE_LOOP ( 'NONE', ( #94 ) ) ;
#232 = CARTESIAN_POINT ( 'NONE',  ( 5.935518276033328282E-15, -2.081899558550501019E-16, 1.700000000000000622 ) ) ;
#233 = AXIS2_PLACEMENT_3D ( 'NONE', #121, #99, #55 ) ;
#234 = EDGE_LOOP ( 'NONE', ( #68, #283 ) ) ;
#235 = CARTESIAN_POINT ( 'NONE',  ( 2.094888803305879619E-15, 2.092521377002796727E-33, 0.5999999999999999778 ) ) ;
#236 = DIRECTION ( 'NONE',  ( -3.491481338843133355E-15, 1.224646799147353207E-16, -1.000000000000000000 ) ) ;
#237 = UNCERTAINTY_MEASURE_WITH_UNIT (LENGTH_MEASURE( 1.000000000000000082E-05 ), #288, 'distance_accuracy_value', 'NONE');
#238 = CARTESIAN_POINT ( 'NONE',  ( 4.189777606611759237E-15, -1.469576158976823553E-16, 1.199999999999999956 ) ) ;
#239 = CARTESIAN_POINT ( 'NONE',  ( 0.0000000000000000000, 0.0000000000000000000, 0.0000000000000000000 ) ) ;
#240 = DIRECTION ( 'NONE',  ( 0.0000000000000000000, 1.000000000000000000, 0.0000000000000000000 ) ) ;
#241 = APPLICATION_CONTEXT ( 'configuration controlled 3d designs of mechanical parts and assemblies' ) ;
#242 = PERSON_AND_ORGANIZATION_ROLE ( 'creator' ) ;
#243 = APPROVAL_STATUS ( 'not_yet_approved' ) ;
#244 = CONICAL_SURFACE ( 'NONE', #253, 0.2999999999999999889, 0.03490658503988723627 ) ;
#245 = CLOSED_SHELL ( 'NONE', ( #39, #103, #172, #120 ) ) ;
#246 = FACE_OUTER_BOUND ( 'NONE', #42, .T. ) ;
#247 = DIRECTION ( 'NONE',  ( -3.491481338843133355E-15, 1.224646799147353207E-16, -1.000000000000000000 ) ) ;
#248 = ADVANCED_BREP_SHAPE_REPRESENTATION ( '997957', ( #257, #61, #64 ), #186 ) ;
#249 = DIRECTION ( 'NONE',  ( 0.0000000000000000000, 1.000000000000000000, 0.0000000000000000000 ) ) ;
#250 = APPROVAL_PERSON_ORGANIZATION ( #117, #210, #191 ) ;
#251 = ORIENTED_EDGE ( 'NONE', *, *, #132, .F. ) ;
#252 = DIRECTION ( 'NONE',  ( 4.334091078390211597E-31, 1.000000000000000000, 1.224646799147353207E-16 ) ) ;
#253 = AXIS2_PLACEMENT_3D ( 'NONE', #95, #180, #29 ) ;
#254 = ORIENTED_EDGE ( 'NONE', *, *, #132, .T. ) ;
#255 = FACE_OUTER_BOUND ( 'NONE', #140, .T. ) ;
#256 = CC_DESIGN_PERSON_AND_ORGANIZATION_ASSIGNMENT ( #8, #31, ( #104 ) ) ;
#257 = MANIFOLD_SOLID_BREP ( 'Corps-Déplacer/Copier1[1]', #278 ) ;
#258 = ORIENTED_EDGE ( 'NONE', *, *, #12, .T. ) ;
#259 = CARTESIAN_POINT ( 'NONE',  ( 0.0000000000000000000, 0.0000000000000000000, 0.0000000000000000000 ) ) ;
#260 = AXIS2_PLACEMENT_3D ( 'NONE', #5, #77, #287 ) ;
#261 = CALENDAR_DATE ( 2021, 3, 12 ) ;
#262 = EDGE_LOOP ( 'NONE', ( #19 ) ) ;
#263 = FACE_BOUND ( 'NONE', #190, .T. ) ;
#264 = DATE_AND_TIME ( #261, #63 ) ;
#265 = DIRECTION ( 'NONE',  ( 4.275831445896958607E-31, 1.000000000000000000, 1.224646799147353207E-16 ) ) ;
#266 = SECURITY_CLASSIFICATION_LEVEL ( 'unclassified' ) ;
#267 =( NAMED_UNIT ( * ) SI_UNIT ( $, .STERADIAN. ) SOLID_ANGLE_UNIT ( ) );
#268 = VECTOR ( 'NONE', #265, 1000.000000000000000 ) ;
#269 = AXIS2_PLACEMENT_3D ( 'NONE', #91, #182, #252 ) ;
#270 = ORIENTED_EDGE ( 'NONE', *, *, #66, .T. ) ;
#271 = APPROVAL_DATE_TIME ( #264, #36 ) ;
#272 = CC_DESIGN_PERSON_AND_ORGANIZATION_ASSIGNMENT ( #220, #290, ( #88 ) ) ;
#273 = CC_DESIGN_APPROVAL ( #36, ( #104 ) ) ;
#274 = DIRECTION ( 'NONE',  ( 3.489354422748178188E-15, 0.03489949670250148267, 0.9993908270190956511 ) ) ;
#275 = DIRECTION ( 'NONE',  ( -3.491481338843133355E-15, 1.224646799147353207E-16, -1.000000000000000000 ) ) ;
#276 = DIRECTION ( 'NONE',  ( -3.491481338843133355E-15, 1.224646799147353207E-16, -1.000000000000000000 ) ) ;
#277 = CC_DESIGN_PERSON_AND_ORGANIZATION_ASSIGNMENT ( #164, #242, ( #104 ) ) ;
#278 = CLOSED_SHELL ( 'NONE', ( #128, #17, #198, #175, #216, #289, #114 ) ) ;
#279 = VERTEX_POINT ( 'NONE', #28 ) ;
#280 = PRODUCT ( '997957', '997957', '', ( #145 ) ) ;
#281 = CARTESIAN_POINT ( 'NONE',  ( 5.935518276033328282E-15, 0.4130221345205131178, 1.700000000000000622 ) ) ;
#282 = FACE_OUTER_BOUND ( 'NONE', #54, .T. ) ;
#283 = ORIENTED_EDGE ( 'NONE', *, *, #56, .T. ) ;
#284 = CONICAL_SURFACE ( 'NONE', #41, 1.200000000000005063, 0.7853981633974453924 ) ;
#285 = LINE ( 'NONE', #79, #268 ) ;
#286 = PERSON_AND_ORGANIZATION ( #298, #123 ) ;
#287 = DIRECTION ( 'NONE',  ( 0.0000000000000000000, 1.000000000000000000, 0.0000000000000000000 ) ) ;
#288 =( LENGTH_UNIT ( ) NAMED_UNIT ( * ) SI_UNIT ( .MILLI., .METRE. ) );
#289 = ADVANCED_FACE ( 'NONE', ( #83, #263 ), #284, .T. ) ;
#290 = PERSON_AND_ORGANIZATION_ROLE ( 'creator' ) ;
#291 = TOROIDAL_SURFACE ( 'NONE', #269, 1.279047538304950882, 0.9999999999999995559 ) ;
#292 = EDGE_CURVE ( 'NONE', #76, #76, #173, .T. ) ;
#293 = AXIS2_PLACEMENT_3D ( 'NONE', #116, #187, #189 ) ;
#294 = DIRECTION ( 'NONE',  ( -3.489354422748178188E-15, 0.03489949670250173247, -0.9993908270190956511 ) ) ;
#295 = LINE ( 'NONE', #43, #106 ) ;
#296 = ORIENTED_EDGE ( 'NONE', *, *, #230, .T. ) ;
#297 = FACE_OUTER_BOUND ( 'NONE', #178, .T. ) ;
#298 = PERSON ( 'UNSPECIFIED', 'UNSPECIFIED', 'UNSPECIFIED', ('UNSPECIFIED'), ('UNSPECIFIED'), ('UNSPECIFIED') ) ;
#299 = EDGE_LOOP ( 'NONE', ( #206, #254, #118, #296 ) ) ;
#300 = DIRECTION ( 'NONE',  ( 0.0000000000000000000, 1.000000000000000000, 0.0000000000000000000 ) ) ;
#301 = DIRECTION ( 'NONE',  ( -4.275831445896958607E-31, -1.000000000000000000, -1.224646799147353207E-16 ) ) ;
ENDSEC;
END-ISO-10303-21;
