ISO-10303-21;
HEADER;
FILE_DESCRIPTION (( 'STEP AP203' ),
    '1' );
FILE_NAME ('997956.step',
    '2021-12-03T14:05:24',
    ( '' ),
    ( '' ),
    'SwSTEP 2.0',
    'SolidWorks 2019',
    '' );
FILE_SCHEMA (( 'CONFIG_CONTROL_DESIGN' ));
ENDSEC;

DATA;
#1 = CARTESIAN_POINT ( 'NONE',  ( -5.344789307371197163E-32, 1.874699728327322010E-33, -1.530808498934191509E-17 ) ) ;
#2 = ADVANCED_FACE ( 'NONE', ( #57, #297 ), #243, .T. ) ;
#3 = PLANE ( 'NONE',  #78 ) ;
#4 = UNCERTAINTY_MEASURE_WITH_UNIT (LENGTH_MEASURE( 1.000000000000000082E-05 ), #242, 'distance_accuracy_value', 'NONE');
#5 = APPROVAL_DATE_TIME ( #218, #261 ) ;
#6 = CARTESIAN_POINT ( 'NONE',  ( 0.0000000000000000000, 0.0000000000000000000, 0.0000000000000000000 ) ) ;
#7 = VECTOR ( 'NONE', #260, 1000.000000000000000 ) ;
#8 = CARTESIAN_POINT ( 'NONE',  ( 6.982962677686266711E-15, 0.2325396152541255035, 2.000000000000000000 ) ) ;
#9 = PRODUCT ( '997956', '997956', '', ( #127 ) ) ;
#10 = DATE_TIME_ROLE ( 'classification_date' ) ;
#11 = ADVANCED_FACE ( 'NONE', ( #24, #80 ), #59, .F. ) ;
#12 = EDGE_CURVE ( 'NONE', #154, #154, #50, .T. ) ;
#13 = ORIENTED_EDGE ( 'NONE', *, *, #220, .F. ) ;
#14 = VERTEX_POINT ( 'NONE', #276 ) ;
#15 = AXIS2_PLACEMENT_3D ( 'NONE', #129, #234, #212 ) ;
#16 = ORIENTED_EDGE ( 'NONE', *, *, #12, .T. ) ;
#17 = EDGE_LOOP ( 'NONE', ( #289, #182 ) ) ;
#18 = PERSON_AND_ORGANIZATION_ROLE ( 'creator' ) ;
#19 = EDGE_CURVE ( 'NONE', #155, #155, #231, .T. ) ;
#20 = DIRECTION ( 'NONE',  ( 1.000000000000000000, 0.0000000000000000000, -3.491481338843133355E-15 ) ) ;
#21 = AXIS2_PLACEMENT_3D ( 'NONE', #189, #77, #95 ) ;
#22 = CALENDAR_DATE ( 2021, 3, 12 ) ;
#23 = FACE_OUTER_BOUND ( 'NONE', #249, .T. ) ;
#24 = FACE_OUTER_BOUND ( 'NONE', #204, .T. ) ;
#25 = DIRECTION ( 'NONE',  ( 0.0000000000000000000, -1.000000000000000000, 0.0000000000000000000 ) ) ;
#26 = DIRECTION ( 'NONE',  ( -3.491481338843133355E-15, 1.224646799147353207E-16, -1.000000000000000000 ) ) ;
#27 = DIRECTION ( 'NONE',  ( 1.000000000000000000, 0.0000000000000000000, 0.0000000000000000000 ) ) ;
#28 = AXIS2_PLACEMENT_3D ( 'NONE', #256, #29, #151 ) ;
#29 = DIRECTION ( 'NONE',  ( -3.491481338843133355E-15, 1.224646799147353207E-16, -1.000000000000000000 ) ) ;
#30 = CARTESIAN_POINT ( 'NONE',  ( 1.745740669421566678E-15, -0.2325396152541257810, 0.5000000000000000000 ) ) ;
#31 = PERSON_AND_ORGANIZATION ( #167, #284 ) ;
#32 = VECTOR ( 'NONE', #194, 1000.000000000000227 ) ;
#33 = VERTEX_POINT ( 'NONE', #60 ) ;
#34 = EDGE_CURVE ( 'NONE', #270, #203, #173, .T. ) ;
#35 = CARTESIAN_POINT ( 'NONE',  ( 1.595606971851311880E-13, 1.499999999999999334, 45.69999999999999574 ) ) ;
#36 = ORIENTED_EDGE ( 'NONE', *, *, #181, .F. ) ;
#37 = CONICAL_SURFACE ( 'NONE', #192, 0.2500000000000000000, 0.03490658503988741668 ) ;
#38 = EDGE_LOOP ( 'NONE', ( #141 ) ) ;
#39 = ADVANCED_FACE ( 'NONE', ( #81, #121 ), #100, .T. ) ;
#40 = EDGE_LOOP ( 'NONE', ( #72 ) ) ;
#41 = APPLICATION_CONTEXT ( 'configuration controlled 3d designs of mechanical parts and assemblies' ) ;
#42 = CIRCLE ( 'NONE', #216, 0.2500000000000000000 ) ;
#43 = CC_DESIGN_APPROVAL ( #261, ( #244 ) ) ;
#44 = EDGE_LOOP ( 'NONE', ( #36, #292, #224, #226 ) ) ;
#45 = ADVANCED_FACE ( 'NONE', ( #55, #23 ), #229, .T. ) ;
#46 = PERSON_AND_ORGANIZATION ( #167, #284 ) ;
#47 = DIRECTION ( 'NONE',  ( -3.491481338843133355E-15, 1.224646799147353207E-16, -1.000000000000000000 ) ) ;
#48 = COORDINATED_UNIVERSAL_TIME_OFFSET ( 1, 0, .AHEAD. ) ;
#49 = DIRECTION ( 'NONE',  ( -3.491481338843133355E-15, 1.224646799147353207E-16, -1.000000000000000000 ) ) ;
#50 = CIRCLE ( 'NONE', #267, 1.500000000000005107 ) ;
#51 = AXIS2_PLACEMENT_3D ( 'NONE', #188, #64, #200 ) ;
#52 = PLANE ( 'NONE',  #255 ) ;
#53 = DATE_TIME_ROLE ( 'creation_date' ) ;
#54 = FACE_BOUND ( 'NONE', #116, .T. ) ;
#55 = FACE_OUTER_BOUND ( 'NONE', #157, .T. ) ;
#56 = COORDINATED_UNIVERSAL_TIME_OFFSET ( 1, 0, .AHEAD. ) ;
#57 = FACE_OUTER_BOUND ( 'NONE', #137, .T. ) ;
#58 = DIRECTION ( 'NONE',  ( -3.491481338843133355E-15, 1.224646799147353207E-16, -1.000000000000000000 ) ) ;
#59 = TOROIDAL_SURFACE ( 'NONE', #162, 1.232539615254125698, 0.9999999999999995559 ) ;
#60 = CARTESIAN_POINT ( 'NONE',  ( 1.745740669421566678E-15, 0.2325396152541256700, 0.5000000000000000000 ) ) ;
#61 = APPLICATION_PROTOCOL_DEFINITION ( 'international standard', 'config_control_design', 1994, #217 ) ;
#62 = ADVANCED_FACE ( 'NONE', ( #107 ), #52, .F. ) ;
#63 = AXIS2_PLACEMENT_3D ( 'NONE', #272, #68, #140 ) ;
#64 = DIRECTION ( 'NONE',  ( -3.491481338843133355E-15, 1.224646799147353207E-16, -1.000000000000000000 ) ) ;
#65 = CARTESIAN_POINT ( 'NONE',  ( 0.0000000000000000000, 0.0000000000000000000, 0.0000000000000000000 ) ) ;
#66 = EDGE_CURVE ( 'NONE', #245, #245, #185, .T. ) ;
#67 = LOCAL_TIME ( 15, 5, 24.00000000000000000, #174 ) ;
#68 = DIRECTION ( 'NONE',  ( 3.491481338843133355E-15, -1.224646799147353207E-16, 1.000000000000000000 ) ) ;
#69 = EDGE_LOOP ( 'NONE', ( #294 ) ) ;
#70 = EDGE_LOOP ( 'NONE', ( #290 ) ) ;
#71 = SECURITY_CLASSIFICATION ( '', '', #165 ) ;
#72 = ORIENTED_EDGE ( 'NONE', *, *, #66, .F. ) ;
#73 = APPROVAL_STATUS ( 'not_yet_approved' ) ;
#74 = CARTESIAN_POINT ( 'NONE',  ( 1.745740669421566678E-15, -6.123233995736766036E-17, 0.5000000000000000000 ) ) ;
#75 = DIRECTION ( 'NONE',  ( 3.491481338843133355E-15, -1.224646799147353207E-16, 1.000000000000000000 ) ) ;
#76 = CARTESIAN_POINT ( 'NONE',  ( 1.606081415867841091E-13, 8.998558695971099120E-33, 46.00000000000000000 ) ) ;
#77 = DIRECTION ( 'NONE',  ( -3.491481338843133355E-15, 1.224646799147353207E-16, -1.000000000000000000 ) ) ;
#78 = AXIS2_PLACEMENT_3D ( 'NONE', #6, #20, #147 ) ;
#79 = APPROVAL ( #73, 'UNSPECIFIED' ) ;
#80 = FACE_OUTER_BOUND ( 'NONE', #40, .T. ) ;
#81 = FACE_OUTER_BOUND ( 'NONE', #248, .T. ) ;
#82 = CC_DESIGN_APPROVAL ( #79, ( #288 ) ) ;
#83 = VERTEX_POINT ( 'NONE', #112 ) ;
#84 = ADVANCED_BREP_SHAPE_REPRESENTATION ( '997956', ( #105, #96, #123 ), #171 ) ;
#85 = DATE_AND_TIME ( #221, #298 ) ;
#86 = VECTOR ( 'NONE', #296, 1000.000000000000000 ) ;
#87 = EDGE_LOOP ( 'NONE', ( #250 ) ) ;
#88 = AXIS2_PLACEMENT_3D ( 'NONE', #277, #26, #197 ) ;
#89 = ORIENTED_EDGE ( 'NONE', *, *, #275, .F. ) ;
#90 = CARTESIAN_POINT ( 'NONE',  ( -1.068957861474239433E-31, 3.749399456654644020E-33, -3.061616997868383018E-17 ) ) ;
#91 = ORIENTED_EDGE ( 'NONE', *, *, #12, .F. ) ;
#92 = ORIENTED_EDGE ( 'NONE', *, *, #19, .F. ) ;
#93 = PERSON_AND_ORGANIZATION_ROLE ( 'classification_officer' ) ;
#94 = LOCAL_TIME ( 15, 5, 24.00000000000000000, #122 ) ;
#95 = DIRECTION ( 'NONE',  ( 0.0000000000000000000, 1.000000000000000000, 0.0000000000000000000 ) ) ;
#96 = MANIFOLD_SOLID_BREP ( 'Corps-Déplacer/Copier1[2]', #263 ) ;
#97 = CARTESIAN_POINT ( 'NONE',  ( 1.595606971851311880E-13, -5.596635872103403844E-15, 45.69999999999999574 ) ) ;
#98 = PERSON_AND_ORGANIZATION_ROLE ( 'creator' ) ;
#99 = DIRECTION ( 'NONE',  ( 4.275831445896958607E-31, 1.000000000000000000, 1.224646799147353207E-16 ) ) ;
#100 = CYLINDRICAL_SURFACE ( 'NONE', #88, 1.500000000000000000 ) ;
#101 = CC_DESIGN_APPROVAL ( #146, ( #71 ) ) ;
#102 = PERSON_AND_ORGANIZATION ( #167, #284 ) ;
#103 = PLANE ( 'NONE',  #109 ) ;
#104 = CC_DESIGN_PERSON_AND_ORGANIZATION_ASSIGNMENT ( #295, #93, ( #71 ) ) ;
#105 = MANIFOLD_SOLID_BREP ( 'Corps-Déplacer/Copier1[1]', #287 ) ;
#106 = DIRECTION ( 'NONE',  ( -3.491481338843133355E-15, 1.224646799147353207E-16, -1.000000000000000000 ) ) ;
#107 = FACE_OUTER_BOUND ( 'NONE', #87, .T. ) ;
#108 = DATE_AND_TIME ( #145, #202 ) ;
#109 = AXIS2_PLACEMENT_3D ( 'NONE', #131, #75, #214 ) ;
#110 = CARTESIAN_POINT ( 'NONE',  ( 0.0000000000000000000, 0.2500000000000000000, 0.0000000000000000000 ) ) ;
#111 = ADVANCED_FACE ( 'NONE', ( #210 ), #278, .T. ) ;
#112 = CARTESIAN_POINT ( 'NONE',  ( 1.606081415867841091E-13, 1.199999999999999512, 46.00000000000000000 ) ) ;
#113 = CARTESIAN_POINT ( 'NONE',  ( 8.728703347107834966E-15, 0.3665142114696877673, 2.500000000000000444 ) ) ;
#114 = EDGE_CURVE ( 'NONE', #83, #83, #142, .T. ) ;
#115 = ADVANCED_FACE ( 'NONE', ( #253 ), #3, .T. ) ;
#116 = EDGE_LOOP ( 'NONE', ( #92 ) ) ;
#117 = ORIENTED_EDGE ( 'NONE', *, *, #223, .F. ) ;
#118 = EDGE_CURVE ( 'NONE', #203, #14, #280, .T. ) ;
#119 = ORIENTED_EDGE ( 'NONE', *, *, #19, .T. ) ;
#120 = PERSON_AND_ORGANIZATION_ROLE ( 'design_supplier' ) ;
#121 = FACE_OUTER_BOUND ( 'NONE', #164, .T. ) ;
#122 = COORDINATED_UNIVERSAL_TIME_OFFSET ( 1, 0, .AHEAD. ) ;
#123 = AXIS2_PLACEMENT_3D ( 'NONE', #65, #130, #27 ) ;
#124 = DIRECTION ( 'NONE',  ( 0.0000000000000000000, 1.000000000000000000, 0.0000000000000000000 ) ) ;
#125 = EDGE_CURVE ( 'NONE', #33, #33, #207, .T. ) ;
#126 = CARTESIAN_POINT ( 'NONE',  ( -2.137915722948478865E-31, -0.2500000000000000000, -6.123233995736766036E-17 ) ) ;
#127 = MECHANICAL_CONTEXT ( 'NONE', #217, 'mechanical' ) ;
#128 = CARTESIAN_POINT ( 'NONE',  ( 2.499573598792072369E-14, -8.767323980623664277E-16, 7.159063320728732194 ) ) ;
#129 = CARTESIAN_POINT ( 'NONE',  ( 6.982962677686266711E-15, -2.449293598294706414E-16, 2.000000000000000000 ) ) ;
#130 = DIRECTION ( 'NONE',  ( 0.0000000000000000000, 0.0000000000000000000, 1.000000000000000000 ) ) ;
#131 = CARTESIAN_POINT ( 'NONE',  ( 1.745740669421566678E-15, 1.743767814168997500E-33, 0.5000000000000000000 ) ) ;
#132 = DIRECTION ( 'NONE',  ( -3.491481338843133355E-15, 1.224646799147353207E-16, -1.000000000000000000 ) ) ;
#133 = DESIGN_CONTEXT ( 'detailed design', #41, 'design' ) ;
#134 = DIRECTION ( 'NONE',  ( 4.275831445896958607E-31, 1.000000000000000000, 1.224646799147353207E-16 ) ) ;
#135 =( NAMED_UNIT ( * ) PLANE_ANGLE_UNIT ( ) SI_UNIT ( $, .RADIAN. ) );
#136 =( NAMED_UNIT ( * ) SI_UNIT ( $, .STERADIAN. ) SOLID_ANGLE_UNIT ( ) );
#137 = EDGE_LOOP ( 'NONE', ( #91 ) ) ;
#138 = APPROVAL_PERSON_ORGANIZATION ( #31, #146, #285 ) ;
#139 = VERTEX_POINT ( 'NONE', #126 ) ;
#140 = DIRECTION ( 'NONE',  ( -4.275831445896958607E-31, -1.000000000000000000, -1.224646799147353207E-16 ) ) ;
#141 = ORIENTED_EDGE ( 'NONE', *, *, #114, .T. ) ;
#142 = CIRCLE ( 'NONE', #169, 1.200000000000005063 ) ;
#143 = ORIENTED_EDGE ( 'NONE', *, *, #34, .F. ) ;
#144 = DIRECTION ( 'NONE',  ( 0.0000000000000000000, 1.000000000000000000, 0.0000000000000000000 ) ) ;
#145 = CALENDAR_DATE ( 2021, 3, 12 ) ;
#146 = APPROVAL ( #201, 'UNSPECIFIED' ) ;
#147 = DIRECTION ( 'NONE',  ( -3.491481338843133355E-15, 0.0000000000000000000, -1.000000000000000000 ) ) ;
#148 = AXIS2_PLACEMENT_3D ( 'NONE', #195, #262, #25 ) ;
#149 = CARTESIAN_POINT ( 'NONE',  ( 6.982962677686266711E-15, -2.168404344971008868E-16, 2.000000000000000000 ) ) ;
#150 = DATE_AND_TIME ( #22, #67 ) ;
#151 = DIRECTION ( 'NONE',  ( 4.275831445896958607E-31, 1.000000000000000000, 1.224646799147353207E-16 ) ) ;
#152 = CALENDAR_DATE ( 2021, 3, 12 ) ;
#153 = DIRECTION ( 'NONE',  ( 4.275831445896958607E-31, 1.000000000000000000, 1.224646799147353207E-16 ) ) ;
#154 = VERTEX_POINT ( 'NONE', #35 ) ;
#155 = VERTEX_POINT ( 'NONE', #113 ) ;
#156 = VECTOR ( 'NONE', #172, 1000.000000000000227 ) ;
#157 = EDGE_LOOP ( 'NONE', ( #184 ) ) ;
#158 = APPROVAL_PERSON_ORGANIZATION ( #301, #79, #228 ) ;
#159 = ADVANCED_FACE ( 'NONE', ( #211 ), #183, .F. ) ;
#160 = ORIENTED_EDGE ( 'NONE', *, *, #34, .T. ) ;
#161 = ORIENTED_EDGE ( 'NONE', *, *, #206, .F. ) ;
#162 = AXIS2_PLACEMENT_3D ( 'NONE', #149, #175, #238 ) ;
#163 = LOCAL_TIME ( 15, 5, 24.00000000000000000, #56 ) ;
#164 = EDGE_LOOP ( 'NONE', ( #16 ) ) ;
#165 = SECURITY_CLASSIFICATION_LEVEL ( 'unclassified' ) ;
#166 = DIRECTION ( 'NONE',  ( 0.0000000000000000000, 1.000000000000000000, 0.0000000000000000000 ) ) ;
#167 = PERSON ( 'UNSPECIFIED', 'UNSPECIFIED', 'UNSPECIFIED', ('UNSPECIFIED'), ('UNSPECIFIED'), ('UNSPECIFIED') ) ;
#168 = CARTESIAN_POINT ( 'NONE',  ( 1.745740669421566678E-15, 1.743767814168997500E-33, 0.5000000000000000000 ) ) ;
#169 = AXIS2_PLACEMENT_3D ( 'NONE', #190, #219, #166 ) ;
#170 = DATE_AND_TIME ( #176, #163 ) ;
#171 =( GEOMETRIC_REPRESENTATION_CONTEXT ( 3 ) GLOBAL_UNCERTAINTY_ASSIGNED_CONTEXT ( ( #4 ) ) GLOBAL_UNIT_ASSIGNED_CONTEXT ( ( #242, #135, #136 ) ) REPRESENTATION_CONTEXT ( 'NONE', 'WORKASPACE' ) );
#172 = DIRECTION ( 'NONE',  ( 3.489354422748178188E-15, 0.03489949670250167002, 0.9993908270190956511 ) ) ;
#173 = LINE ( 'NONE', #168, #7 ) ;
#174 = COORDINATED_UNIVERSAL_TIME_OFFSET ( 1, 0, .AHEAD. ) ;
#175 = DIRECTION ( 'NONE',  ( -3.491481338843133355E-15, 1.224646799147353207E-16, -1.000000000000000000 ) ) ;
#176 = CALENDAR_DATE ( 2021, 3, 12 ) ;
#177 = CARTESIAN_POINT ( 'NONE',  ( -1.068957861474239433E-31, 3.749399456654644020E-33, -3.061616997868383018E-17 ) ) ;
#178 = CARTESIAN_POINT ( 'NONE',  ( 1.558337145707909771E-14, 1.499999999999994449, 4.463254975391760304 ) ) ;
#179 = SHAPE_DEFINITION_REPRESENTATION ( #241, #84 ) ;
#180 = AXIS2_PLACEMENT_3D ( 'NONE', #237, #49, #259 ) ;
#181 = EDGE_CURVE ( 'NONE', #139, #14, #42, .T. ) ;
#182 = ORIENTED_EDGE ( 'NONE', *, *, #206, .T. ) ;
#183 = PLANE ( 'NONE',  #63 ) ;
#184 = ORIENTED_EDGE ( 'NONE', *, *, #66, .T. ) ;
#185 = CIRCLE ( 'NONE', #15, 0.2325396152541257533 ) ;
#186 = EDGE_LOOP ( 'NONE', ( #13, #160 ) ) ;
#187 = APPROVAL_STATUS ( 'not_yet_approved' ) ;
#188 = CARTESIAN_POINT ( 'NONE',  ( 1.558337145707909771E-14, -5.465910919392018134E-16, 4.463254975391760304 ) ) ;
#189 = CARTESIAN_POINT ( 'NONE',  ( 1.606081415867841091E-13, -5.633375276077824704E-15, 46.00000000000000000 ) ) ;
#190 = CARTESIAN_POINT ( 'NONE',  ( 1.606081415867841091E-13, -5.633375276077824704E-15, 46.00000000000000000 ) ) ;
#191 = AXIS2_PLACEMENT_3D ( 'NONE', #300, #47, #232 ) ;
#192 = AXIS2_PLACEMENT_3D ( 'NONE', #177, #58, #153 ) ;
#193 = LINE ( 'NONE', #128, #156 ) ;
#194 = DIRECTION ( 'NONE',  ( -3.489354422748178188E-15, 0.03489949670250191982, -0.9993908270190956511 ) ) ;
#195 = CARTESIAN_POINT ( 'NONE',  ( 8.728703347107834966E-15, -3.061616997868383634E-16, 2.500000000000000444 ) ) ;
#196 = DIRECTION ( 'NONE',  ( 4.275831445896958607E-31, 1.000000000000000000, 1.224646799147353207E-16 ) ) ;
#197 = DIRECTION ( 'NONE',  ( 4.275831445896959482E-31, 1.000000000000000000, 1.224646799147353207E-16 ) ) ;
#198 = CC_DESIGN_DATE_AND_TIME_ASSIGNMENT ( #170, #53, ( #288 ) ) ;
#199 = COORDINATED_UNIVERSAL_TIME_OFFSET ( 1, 0, .AHEAD. ) ;
#200 = DIRECTION ( 'NONE',  ( 0.0000000000000000000, 1.000000000000000000, 0.0000000000000000000 ) ) ;
#201 = APPROVAL_STATUS ( 'not_yet_approved' ) ;
#202 = LOCAL_TIME ( 15, 5, 24.00000000000000000, #48 ) ;
#203 = VERTEX_POINT ( 'NONE', #281 ) ;
#204 = EDGE_LOOP ( 'NONE', ( #119 ) ) ;
#205 = CC_DESIGN_DATE_AND_TIME_ASSIGNMENT ( #108, #10, ( #71 ) ) ;
#206 = EDGE_CURVE ( 'NONE', #14, #139, #265, .T. ) ;
#207 = CIRCLE ( 'NONE', #191, 0.2325396152541257255 ) ;
#208 = EDGE_LOOP ( 'NONE', ( #161, #273, #143, #117 ) ) ;
#209 = CC_DESIGN_PERSON_AND_ORGANIZATION_ASSIGNMENT ( #230, #235, ( #9 ) ) ;
#210 = FACE_OUTER_BOUND ( 'NONE', #17, .T. ) ;
#211 = FACE_OUTER_BOUND ( 'NONE', #69, .T. ) ;
#212 = DIRECTION ( 'NONE',  ( 0.0000000000000000000, 1.000000000000000000, 0.0000000000000000000 ) ) ;
#213 = PERSON_AND_ORGANIZATION ( #167, #284 ) ;
#214 = DIRECTION ( 'NONE',  ( -4.275831445896958607E-31, -1.000000000000000000, -1.224646799147353207E-16 ) ) ;
#215 = DIRECTION ( 'NONE',  ( -3.491481338843133355E-15, 1.224646799147353207E-16, -1.000000000000000000 ) ) ;
#216 = AXIS2_PLACEMENT_3D ( 'NONE', #90, #106, #196 ) ;
#217 = APPLICATION_CONTEXT ( 'configuration controlled 3d designs of mechanical parts and assemblies' ) ;
#218 = DATE_AND_TIME ( #152, #94 ) ;
#219 = DIRECTION ( 'NONE',  ( -3.491481338843133355E-15, 1.224646799147353207E-16, -1.000000000000000000 ) ) ;
#220 = EDGE_CURVE ( 'NONE', #270, #203, #268, .T. ) ;
#221 = CALENDAR_DATE ( 2021, 3, 12 ) ;
#222 = CC_DESIGN_SECURITY_CLASSIFICATION ( #71, ( #244 ) ) ;
#223 = EDGE_CURVE ( 'NONE', #139, #270, #193, .T. ) ;
#224 = ORIENTED_EDGE ( 'NONE', *, *, #220, .T. ) ;
#225 = ADVANCED_FACE ( 'NONE', ( #240, #54 ), #271, .T. ) ;
#226 = ORIENTED_EDGE ( 'NONE', *, *, #118, .T. ) ;
#227 = ORIENTED_EDGE ( 'NONE', *, *, #125, .F. ) ;
#228 = APPROVAL_ROLE ( '' ) ;
#229 = CYLINDRICAL_SURFACE ( 'NONE', #28, 0.2325396152541257255 ) ;
#230 = PERSON_AND_ORGANIZATION ( #167, #284 ) ;
#231 = CIRCLE ( 'NONE', #180, 0.3665142114696881004 ) ;
#232 = DIRECTION ( 'NONE',  ( 0.0000000000000000000, 1.000000000000000000, 0.0000000000000000000 ) ) ;
#233 = APPROVAL_PERSON_ORGANIZATION ( #213, #261, #252 ) ;
#234 = DIRECTION ( 'NONE',  ( -3.491481338843133355E-15, 1.224646799147353207E-16, -1.000000000000000000 ) ) ;
#235 = PERSON_AND_ORGANIZATION_ROLE ( 'design_owner' ) ;
#236 = FACE_OUTER_BOUND ( 'NONE', #186, .T. ) ;
#237 = CARTESIAN_POINT ( 'NONE',  ( 8.728703347107834966E-15, -3.061616997868383634E-16, 2.500000000000000444 ) ) ;
#238 = DIRECTION ( 'NONE',  ( 4.394778022351042996E-31, 1.000000000000000000, 1.224646799147353207E-16 ) ) ;
#239 = CC_DESIGN_PERSON_AND_ORGANIZATION_ASSIGNMENT ( #258, #98, ( #288 ) ) ;
#240 = FACE_OUTER_BOUND ( 'NONE', #70, .T. ) ;
#241 = PRODUCT_DEFINITION_SHAPE ( 'NONE', 'NONE',  #288 ) ;
#242 =( LENGTH_UNIT ( ) NAMED_UNIT ( * ) SI_UNIT ( .MILLI., .METRE. ) );
#243 = CONICAL_SURFACE ( 'NONE', #21, 1.200000000000005063, 0.7853981633974453924 ) ;
#244 = PRODUCT_DEFINITION_FORMATION_WITH_SPECIFIED_SOURCE ( 'ANY', '', #9, .NOT_KNOWN. ) ;
#245 = VERTEX_POINT ( 'NONE', #8 ) ;
#246 = ADVANCED_FACE ( 'NONE', ( #236 ), #103, .T. ) ;
#247 = ADVANCED_FACE ( 'NONE', ( #279 ), #37, .T. ) ;
#248 = EDGE_LOOP ( 'NONE', ( #89 ) ) ;
#249 = EDGE_LOOP ( 'NONE', ( #227 ) ) ;
#250 = ORIENTED_EDGE ( 'NONE', *, *, #114, .F. ) ;
#251 = CARTESIAN_POINT ( 'NONE',  ( 2.499573598792072369E-14, -8.767323980623664277E-16, 7.159063320728732194 ) ) ;
#252 = APPROVAL_ROLE ( '' ) ;
#253 = FACE_OUTER_BOUND ( 'NONE', #208, .T. ) ;
#254 = APPROVAL_DATE_TIME ( #150, #79 ) ;
#255 = AXIS2_PLACEMENT_3D ( 'NONE', #76, #132, #134 ) ;
#256 = CARTESIAN_POINT ( 'NONE',  ( 0.0000000000000000000, 0.0000000000000000000, 0.0000000000000000000 ) ) ;
#257 = CIRCLE ( 'NONE', #51, 1.499999999999995115 ) ;
#258 = PERSON_AND_ORGANIZATION ( #167, #284 ) ;
#259 = DIRECTION ( 'NONE',  ( 0.0000000000000000000, 1.000000000000000000, 0.0000000000000000000 ) ) ;
#260 = DIRECTION ( 'NONE',  ( 4.275831445896958607E-31, 1.000000000000000000, 1.224646799147353207E-16 ) ) ;
#261 = APPROVAL ( #187, 'UNSPECIFIED' ) ;
#262 = DIRECTION ( 'NONE',  ( 3.491481338843133355E-15, -1.224646799147353207E-16, 1.000000000000000000 ) ) ;
#263 = CLOSED_SHELL ( 'NONE', ( #111, #247, #246, #115 ) ) ;
#264 = DIRECTION ( 'NONE',  ( -3.491481338843133355E-15, 1.224646799147353207E-16, -1.000000000000000000 ) ) ;
#265 = LINE ( 'NONE', #110, #86 ) ;
#266 = CC_DESIGN_PERSON_AND_ORGANIZATION_ASSIGNMENT ( #46, #120, ( #244 ) ) ;
#267 = AXIS2_PLACEMENT_3D ( 'NONE', #97, #274, #144 ) ;
#268 = CIRCLE ( 'NONE', #282, 0.2325396152541257255 ) ;
#269 = PRODUCT_RELATED_PRODUCT_CATEGORY ( 'detail', '', ( #9 ) ) ;
#270 = VERTEX_POINT ( 'NONE', #30 ) ;
#271 = CONICAL_SURFACE ( 'NONE', #148, 0.3665142114696881004, 0.5235987755982998149 ) ;
#272 = CARTESIAN_POINT ( 'NONE',  ( 1.745740669421566678E-15, 1.743767814168997500E-33, 0.5000000000000000000 ) ) ;
#273 = ORIENTED_EDGE ( 'NONE', *, *, #118, .F. ) ;
#274 = DIRECTION ( 'NONE',  ( -3.491481338843133355E-15, 1.224646799147353207E-16, -1.000000000000000000 ) ) ;
#275 = EDGE_CURVE ( 'NONE', #286, #286, #257, .T. ) ;
#276 = CARTESIAN_POINT ( 'NONE',  ( 0.0000000000000000000, 0.2500000000000000000, 0.0000000000000000000 ) ) ;
#277 = CARTESIAN_POINT ( 'NONE',  ( 0.0000000000000000000, 0.0000000000000000000, 0.0000000000000000000 ) ) ;
#278 = PLANE ( 'NONE',  #291 ) ;
#279 = FACE_OUTER_BOUND ( 'NONE', #44, .T. ) ;
#280 = LINE ( 'NONE', #251, #32 ) ;
#281 = CARTESIAN_POINT ( 'NONE',  ( 1.745740669421566678E-15, 0.2325396152541256700, 0.5000000000000000000 ) ) ;
#282 = AXIS2_PLACEMENT_3D ( 'NONE', #74, #264, #124 ) ;
#283 = APPROVAL_DATE_TIME ( #85, #146 ) ;
#284 = ORGANIZATION ( 'UNSPECIFIED', 'UNSPECIFIED', '' ) ;
#285 = APPROVAL_ROLE ( '' ) ;
#286 = VERTEX_POINT ( 'NONE', #178 ) ;
#287 = CLOSED_SHELL ( 'NONE', ( #159, #45, #11, #225, #39, #2, #62 ) ) ;
#288 = PRODUCT_DEFINITION ( 'UNKNOWN', '', #244, #133 ) ;
#289 = ORIENTED_EDGE ( 'NONE', *, *, #181, .T. ) ;
#290 = ORIENTED_EDGE ( 'NONE', *, *, #275, .T. ) ;
#291 = AXIS2_PLACEMENT_3D ( 'NONE', #1, #215, #99 ) ;
#292 = ORIENTED_EDGE ( 'NONE', *, *, #223, .T. ) ;
#293 = CC_DESIGN_PERSON_AND_ORGANIZATION_ASSIGNMENT ( #102, #18, ( #244 ) ) ;
#294 = ORIENTED_EDGE ( 'NONE', *, *, #125, .T. ) ;
#295 = PERSON_AND_ORGANIZATION ( #167, #284 ) ;
#296 = DIRECTION ( 'NONE',  ( -4.275831445896958607E-31, -1.000000000000000000, -1.224646799147353207E-16 ) ) ;
#297 = FACE_BOUND ( 'NONE', #38, .T. ) ;
#298 = LOCAL_TIME ( 15, 5, 24.00000000000000000, #199 ) ;
#299 = APPLICATION_PROTOCOL_DEFINITION ( 'international standard', 'config_control_design', 1994, #41 ) ;
#300 = CARTESIAN_POINT ( 'NONE',  ( 1.745740669421566678E-15, -6.123233995736766036E-17, 0.5000000000000000000 ) ) ;
#301 = PERSON_AND_ORGANIZATION ( #167, #284 ) ;
ENDSEC;
END-ISO-10303-21;
