ISO-10303-21;
HEADER;
FILE_DESCRIPTION (( 'STEP AP203' ),
    '1' );
FILE_NAME ('997954.step',
    '2021-12-03T14:05:22',
    ( '' ),
    ( '' ),
    'SwSTEP 2.0',
    'SolidWorks 2019',
    '' );
FILE_SCHEMA (( 'CONFIG_CONTROL_DESIGN' ));
ENDSEC;

DATA;
#1 = FACE_OUTER_BOUND ( 'NONE', #100, .T. ) ;
#2 = VECTOR ( 'NONE', #67, 1000.000000000000227 ) ;
#3 = FACE_OUTER_BOUND ( 'NONE', #178, .T. ) ;
#4 = EDGE_LOOP ( 'NONE', ( #111 ) ) ;
#5 = CARTESIAN_POINT ( 'NONE',  ( 1.745740669421566678E-15, -6.123233995736766036E-17, 0.5000000000000000000 ) ) ;
#6 = VERTEX_POINT ( 'NONE', #62 ) ;
#7 = DIRECTION ( 'NONE',  ( -3.491481338843133355E-15, 1.224646799147353207E-16, -1.000000000000000000 ) ) ;
#8 = DATE_AND_TIME ( #152, #37 ) ;
#9 = FACE_OUTER_BOUND ( 'NONE', #125, .T. ) ;
#10 = PLANE ( 'NONE',  #227 ) ;
#11 = ADVANCED_FACE ( 'NONE', ( #168 ), #206, .T. ) ;
#12 =( LENGTH_UNIT ( ) NAMED_UNIT ( * ) SI_UNIT ( .MILLI., .METRE. ) );
#13 = CIRCLE ( 'NONE', #144, 1.200000000000005063 ) ;
#14 = CARTESIAN_POINT ( 'NONE',  ( 1.209189011823596593E-14, 1.499999999999994449, 3.463254975391760304 ) ) ;
#15 = EDGE_CURVE ( 'NONE', #93, #6, #153, .T. ) ;
#16 = PERSON_AND_ORGANIZATION_ROLE ( 'design_supplier' ) ;
#17 = LINE ( 'NONE', #82, #259 ) ;
#18 = APPROVAL_PERSON_ORGANIZATION ( #21, #233, #271 ) ;
#19 = CALENDAR_DATE ( 2021, 3, 12 ) ;
#20 = APPROVAL_STATUS ( 'not_yet_approved' ) ;
#21 = PERSON_AND_ORGANIZATION ( #197, #120 ) ;
#22 = CIRCLE ( 'NONE', #115, 0.2500000000000000000 ) ;
#23 = CARTESIAN_POINT ( 'NONE',  ( 1.745740669421566678E-15, -6.123233995736766036E-17, 0.5000000000000000000 ) ) ;
#24 = LINE ( 'NONE', #236, #2 ) ;
#25 = APPROVAL_ROLE ( '' ) ;
#26 = ORIENTED_EDGE ( 'NONE', *, *, #245, .F. ) ;
#27 = DIRECTION ( 'NONE',  ( 0.0000000000000000000, 1.000000000000000000, 0.0000000000000000000 ) ) ;
#28 = VERTEX_POINT ( 'NONE', #290 ) ;
#29 = APPROVAL_PERSON_ORGANIZATION ( #38, #119, #166 ) ;
#30 = DIRECTION ( 'NONE',  ( -3.491481338843133355E-15, 1.224646799147353207E-16, -1.000000000000000000 ) ) ;
#31 = DIRECTION ( 'NONE',  ( 0.0000000000000000000, 1.000000000000000000, 0.0000000000000000000 ) ) ;
#32 = DIRECTION ( 'NONE',  ( 4.275831445896959482E-31, 1.000000000000000000, 1.224646799147353207E-16 ) ) ;
#33 = CARTESIAN_POINT ( 'NONE',  ( 0.0000000000000000000, 0.0000000000000000000, 0.0000000000000000000 ) ) ;
#34 = CC_DESIGN_PERSON_AND_ORGANIZATION_ASSIGNMENT ( #189, #16, ( #48 ) ) ;
#35 = FACE_OUTER_BOUND ( 'NONE', #74, .T. ) ;
#36 = VERTEX_POINT ( 'NONE', #160 ) ;
#37 = LOCAL_TIME ( 15, 5, 22.00000000000000000, #237 ) ;
#38 = PERSON_AND_ORGANIZATION ( #197, #120 ) ;
#39 = EDGE_CURVE ( 'NONE', #255, #28, #17, .T. ) ;
#40 = COORDINATED_UNIVERSAL_TIME_OFFSET ( 1, 0, .AHEAD. ) ;
#41 = ORIENTED_EDGE ( 'NONE', *, *, #240, .F. ) ;
#42 = DATE_TIME_ROLE ( 'creation_date' ) ;
#43 = PERSON_AND_ORGANIZATION_ROLE ( 'classification_officer' ) ;
#44 = DIRECTION ( 'NONE',  ( 0.0000000000000000000, 1.000000000000000000, 0.0000000000000000000 ) ) ;
#45 = ORIENTED_EDGE ( 'NONE', *, *, #139, .T. ) ;
#46 = ORIENTED_EDGE ( 'NONE', *, *, #192, .F. ) ;
#47 = LOCAL_TIME ( 15, 5, 22.00000000000000000, #244 ) ;
#48 = PRODUCT_DEFINITION_FORMATION_WITH_SPECIFIED_SOURCE ( 'ANY', '', #266, .NOT_KNOWN. ) ;
#49 = TOROIDAL_SURFACE ( 'NONE', #73, 1.232539615254125698, 0.9999999999999995559 ) ;
#50 = CARTESIAN_POINT ( 'NONE',  ( 1.606081415867841091E-13, -5.633375276077824704E-15, 46.00000000000000000 ) ) ;
#51 = ORIENTED_EDGE ( 'NONE', *, *, #258, .F. ) ;
#52 = FACE_OUTER_BOUND ( 'NONE', #98, .T. ) ;
#53 = CC_DESIGN_APPROVAL ( #233, ( #285 ) ) ;
#54 =( NAMED_UNIT ( * ) SI_UNIT ( $, .STERADIAN. ) SOLID_ANGLE_UNIT ( ) );
#55 = DIRECTION ( 'NONE',  ( -3.491481338843133355E-15, 1.224646799147353207E-16, -1.000000000000000000 ) ) ;
#56 = VERTEX_POINT ( 'NONE', #183 ) ;
#57 = DIRECTION ( 'NONE',  ( -4.275831445896958607E-31, -1.000000000000000000, -1.224646799147353207E-16 ) ) ;
#58 = DATE_TIME_ROLE ( 'classification_date' ) ;
#59 = EDGE_CURVE ( 'NONE', #93, #6, #163, .T. ) ;
#60 = LOCAL_TIME ( 15, 5, 22.00000000000000000, #246 ) ;
#61 = CALENDAR_DATE ( 2021, 3, 12 ) ;
#62 = CARTESIAN_POINT ( 'NONE',  ( 1.745740669421566678E-15, 0.2325396152541256700, 0.5000000000000000000 ) ) ;
#63 = CARTESIAN_POINT ( 'NONE',  ( 1.606081415867841091E-13, 8.998558695971099120E-33, 46.00000000000000000 ) ) ;
#64 = CIRCLE ( 'NONE', #102, 0.2325396152541257255 ) ;
#65 = FACE_OUTER_BOUND ( 'NONE', #297, .T. ) ;
#66 = ORIENTED_EDGE ( 'NONE', *, *, #182, .T. ) ;
#67 = DIRECTION ( 'NONE',  ( 3.489354422748178188E-15, 0.03489949670250167002, 0.9993908270190956511 ) ) ;
#68 = EDGE_LOOP ( 'NONE', ( #51, #301, #195, #280 ) ) ;
#69 = FACE_OUTER_BOUND ( 'NONE', #130, .T. ) ;
#70 = DIRECTION ( 'NONE',  ( -3.491481338843133355E-15, 1.224646799147353207E-16, -1.000000000000000000 ) ) ;
#71 = AXIS2_PLACEMENT_3D ( 'NONE', #50, #273, #44 ) ;
#72 = PRODUCT_DEFINITION_SHAPE ( 'NONE', 'NONE',  #285 ) ;
#73 = AXIS2_PLACEMENT_3D ( 'NONE', #275, #96, #122 ) ;
#74 = EDGE_LOOP ( 'NONE', ( #199 ) ) ;
#75 = EDGE_CURVE ( 'NONE', #28, #93, #24, .T. ) ;
#76 = CARTESIAN_POINT ( 'NONE',  ( 2.499573598792072369E-14, -8.767323980623664277E-16, 7.159063320728732194 ) ) ;
#77 = AXIS2_PLACEMENT_3D ( 'NONE', #109, #239, #261 ) ;
#78 = CLOSED_SHELL ( 'NONE', ( #281, #146, #123, #221, #299, #200, #149 ) ) ;
#79 = CARTESIAN_POINT ( 'NONE',  ( 5.237222008264703188E-15, -1.836970198721030920E-16, 1.500000000000000888 ) ) ;
#80 = CC_DESIGN_PERSON_AND_ORGANIZATION_ASSIGNMENT ( #114, #226, ( #285 ) ) ;
#81 = DIRECTION ( 'NONE',  ( 1.000000000000000000, 0.0000000000000000000, 0.0000000000000000000 ) ) ;
#82 = CARTESIAN_POINT ( 'NONE',  ( 0.0000000000000000000, 0.2500000000000000000, 0.0000000000000000000 ) ) ;
#83 = PERSON_AND_ORGANIZATION ( #197, #120 ) ;
#84 = ADVANCED_FACE ( 'NONE', ( #212 ), #127, .T. ) ;
#85 = APPROVAL_STATUS ( 'not_yet_approved' ) ;
#86 = CC_DESIGN_PERSON_AND_ORGANIZATION_ASSIGNMENT ( #142, #43, ( #241 ) ) ;
#87 = DATE_AND_TIME ( #61, #254 ) ;
#88 = CARTESIAN_POINT ( 'NONE',  ( 1.745740669421566678E-15, 1.743767814168997500E-33, 0.5000000000000000000 ) ) ;
#89 = CARTESIAN_POINT ( 'NONE',  ( 0.0000000000000000000, 0.0000000000000000000, 0.0000000000000000000 ) ) ;
#90 = AXIS2_PLACEMENT_3D ( 'NONE', #202, #30, #31 ) ;
#91 = DIRECTION ( 'NONE',  ( 3.491481338843133355E-15, -1.224646799147353207E-16, 1.000000000000000000 ) ) ;
#92 = DIRECTION ( 'NONE',  ( 0.0000000000000000000, 1.000000000000000000, 0.0000000000000000000 ) ) ;
#93 = VERTEX_POINT ( 'NONE', #216 ) ;
#94 = AXIS2_PLACEMENT_3D ( 'NONE', #23, #211, #191 ) ;
#95 = FACE_BOUND ( 'NONE', #105, .T. ) ;
#96 = DIRECTION ( 'NONE',  ( -3.491481338843133355E-15, 1.224646799147353207E-16, -1.000000000000000000 ) ) ;
#97 = ORIENTED_EDGE ( 'NONE', *, *, #192, .T. ) ;
#98 = EDGE_LOOP ( 'NONE', ( #186 ) ) ;
#99 = CARTESIAN_POINT ( 'NONE',  ( 3.491481338843133355E-15, -1.224646799147353207E-16, 1.000000000000000000 ) ) ;
#100 = EDGE_LOOP ( 'NONE', ( #66 ) ) ;
#101 = FACE_OUTER_BOUND ( 'NONE', #201, .T. ) ;
#102 = AXIS2_PLACEMENT_3D ( 'NONE', #5, #171, #92 ) ;
#103 = VECTOR ( 'NONE', #234, 1000.000000000000000 ) ;
#104 = ORIENTED_EDGE ( 'NONE', *, *, #75, .F. ) ;
#105 = EDGE_LOOP ( 'NONE', ( #276 ) ) ;
#106 = CARTESIAN_POINT ( 'NONE',  ( 1.745740669421566678E-15, 0.2325396152541256700, 0.5000000000000000000 ) ) ;
#107 = VERTEX_POINT ( 'NONE', #135 ) ;
#108 = CONICAL_SURFACE ( 'NONE', #286, 0.2500000000000000000, 0.03490658503988741668 ) ;
#109 = CARTESIAN_POINT ( 'NONE',  ( 1.745740669421566678E-15, 1.743767814168997500E-33, 0.5000000000000000000 ) ) ;
#110 = ADVANCED_BREP_SHAPE_REPRESENTATION ( '997954', ( #247, #158, #174 ), #274 ) ;
#111 = ORIENTED_EDGE ( 'NONE', *, *, #217, .F. ) ;
#112 = SECURITY_CLASSIFICATION_LEVEL ( 'unclassified' ) ;
#113 = EDGE_CURVE ( 'NONE', #107, #107, #248, .T. ) ;
#114 = PERSON_AND_ORGANIZATION ( #197, #120 ) ;
#115 = AXIS2_PLACEMENT_3D ( 'NONE', #185, #184, #131 ) ;
#116 = APPROVAL_STATUS ( 'not_yet_approved' ) ;
#117 = DESIGN_CONTEXT ( 'detailed design', #294, 'design' ) ;
#118 = APPROVAL_DATE_TIME ( #210, #119 ) ;
#119 = APPROVAL ( #20, 'UNSPECIFIED' ) ;
#120 = ORGANIZATION ( 'UNSPECIFIED', 'UNSPECIFIED', '' ) ;
#121 = PRODUCT_RELATED_PRODUCT_CATEGORY ( 'detail', '', ( #266 ) ) ;
#122 = DIRECTION ( 'NONE',  ( 4.335304734124000801E-31, 1.000000000000000000, 1.224646799147353207E-16 ) ) ;
#123 = ADVANCED_FACE ( 'NONE', ( #1, #65 ), #49, .F. ) ;
#124 = FACE_OUTER_BOUND ( 'NONE', #128, .T. ) ;
#125 = EDGE_LOOP ( 'NONE', ( #97 ) ) ;
#126 = AXIS2_PLACEMENT_3D ( 'NONE', #99, #298, #154 ) ;
#127 = PLANE ( 'NONE',  #215 ) ;
#128 = EDGE_LOOP ( 'NONE', ( #250 ) ) ;
#129 = DIRECTION ( 'NONE',  ( -3.491481338843133355E-15, 1.224646799147353207E-16, -1.000000000000000000 ) ) ;
#130 = EDGE_LOOP ( 'NONE', ( #41 ) ) ;
#131 = DIRECTION ( 'NONE',  ( 4.275831445896958607E-31, 1.000000000000000000, 1.224646799147353207E-16 ) ) ;
#132 = VERTEX_POINT ( 'NONE', #14 ) ;
#133 = CC_DESIGN_APPROVAL ( #180, ( #241 ) ) ;
#134 = ORIENTED_EDGE ( 'NONE', *, *, #39, .F. ) ;
#135 = CARTESIAN_POINT ( 'NONE',  ( 3.491481338843133355E-15, 0.2325396152541256423, 1.000000000000000000 ) ) ;
#136 = VERTEX_POINT ( 'NONE', #106 ) ;
#137 = CARTESIAN_POINT ( 'NONE',  ( 1.595606971851311880E-13, 1.499999999999999334, 45.69999999999999574 ) ) ;
#138 = COORDINATED_UNIVERSAL_TIME_OFFSET ( 1, 0, .AHEAD. ) ;
#139 = EDGE_CURVE ( 'NONE', #132, #132, #292, .T. ) ;
#140 = CARTESIAN_POINT ( 'NONE',  ( 1.745740669421566678E-15, 1.743767814168997500E-33, 0.5000000000000000000 ) ) ;
#141 = CC_DESIGN_DATE_AND_TIME_ASSIGNMENT ( #264, #58, ( #241 ) ) ;
#142 = PERSON_AND_ORGANIZATION ( #197, #120 ) ;
#143 = PERSON_AND_ORGANIZATION ( #197, #120 ) ;
#144 = AXIS2_PLACEMENT_3D ( 'NONE', #257, #7, #288 ) ;
#145 = MECHANICAL_CONTEXT ( 'NONE', #265, 'mechanical' ) ;
#146 = ADVANCED_FACE ( 'NONE', ( #124, #3 ), #193, .T. ) ;
#147 = CIRCLE ( 'NONE', #214, 1.500000000000005107 ) ;
#148 = PLANE ( 'NONE',  #176 ) ;
#149 = ADVANCED_FACE ( 'NONE', ( #69 ), #148, .F. ) ;
#150 = CARTESIAN_POINT ( 'NONE',  ( 1.595606971851311880E-13, -5.596635872103403844E-15, 45.69999999999999574 ) ) ;
#151 = ORIENTED_EDGE ( 'NONE', *, *, #240, .T. ) ;
#152 = CALENDAR_DATE ( 2021, 3, 12 ) ;
#153 = CIRCLE ( 'NONE', #94, 0.2325396152541257255 ) ;
#154 = DIRECTION ( 'NONE',  ( 0.0000000000000000000, 1.000000000000000000, 0.0000000000000000000 ) ) ;
#155 = APPROVAL_DATE_TIME ( #8, #180 ) ;
#156 = EDGE_LOOP ( 'NONE', ( #287, #198 ) ) ;
#157 = FACE_OUTER_BOUND ( 'NONE', #68, .T. ) ;
#158 = MANIFOLD_SOLID_BREP ( 'Corps-Déplacer/Copier1[2]', #165 ) ;
#159 = DIRECTION ( 'NONE',  ( 3.491481338843133355E-15, -1.224646799147353207E-16, 1.000000000000000000 ) ) ;
#160 = CARTESIAN_POINT ( 'NONE',  ( 5.237222008264703188E-15, 0.3665142114696881004, 1.500000000000000888 ) ) ;
#161 = AXIS2_PLACEMENT_3D ( 'NONE', #279, #249, #219 ) ;
#162 = CALENDAR_DATE ( 2021, 3, 12 ) ;
#163 = LINE ( 'NONE', #140, #103 ) ;
#164 = CONICAL_SURFACE ( 'NONE', #190, 0.3665142114696882669, 0.5235987755982995928 ) ;
#165 = CLOSED_SHELL ( 'NONE', ( #84, #251, #11, #270 ) ) ;
#166 = APPROVAL_ROLE ( '' ) ;
#167 = APPLICATION_PROTOCOL_DEFINITION ( 'international standard', 'config_control_design', 1994, #294 ) ;
#168 = FACE_OUTER_BOUND ( 'NONE', #232, .T. ) ;
#169 = DIRECTION ( 'NONE',  ( 4.275831445896958607E-31, 1.000000000000000000, 1.224646799147353207E-16 ) ) ;
#170 = EDGE_LOOP ( 'NONE', ( #151 ) ) ;
#171 = DIRECTION ( 'NONE',  ( -3.491481338843133355E-15, 1.224646799147353207E-16, -1.000000000000000000 ) ) ;
#172 = CARTESIAN_POINT ( 'NONE',  ( -5.344789307371197163E-32, 1.874699728327322010E-33, -1.530808498934191509E-17 ) ) ;
#173 = EDGE_LOOP ( 'NONE', ( #45 ) ) ;
#174 = AXIS2_PLACEMENT_3D ( 'NONE', #89, #208, #81 ) ;
#175 = CC_DESIGN_DATE_AND_TIME_ASSIGNMENT ( #87, #42, ( #285 ) ) ;
#176 = AXIS2_PLACEMENT_3D ( 'NONE', #63, #253, #169 ) ;
#177 = FACE_OUTER_BOUND ( 'NONE', #4, .T. ) ;
#178 = EDGE_LOOP ( 'NONE', ( #46 ) ) ;
#179 = DIRECTION ( 'NONE',  ( -3.491481338843133355E-15, 0.0000000000000000000, -1.000000000000000000 ) ) ;
#180 = APPROVAL ( #85, 'UNSPECIFIED' ) ;
#181 = PLANE ( 'NONE',  #77 ) ;
#182 = EDGE_CURVE ( 'NONE', #36, #36, #243, .T. ) ;
#183 = CARTESIAN_POINT ( 'NONE',  ( 1.606081415867841091E-13, 1.199999999999999512, 46.00000000000000000 ) ) ;
#184 = DIRECTION ( 'NONE',  ( -3.491481338843133355E-15, 1.224646799147353207E-16, -1.000000000000000000 ) ) ;
#185 = CARTESIAN_POINT ( 'NONE',  ( -1.068957861474239433E-31, 3.749399456654644020E-33, -3.061616997868383018E-17 ) ) ;
#186 = ORIENTED_EDGE ( 'NONE', *, *, #139, .F. ) ;
#187 = CONICAL_SURFACE ( 'NONE', #71, 1.200000000000005063, 0.7853981633974453924 ) ;
#188 = CALENDAR_DATE ( 2021, 3, 12 ) ;
#189 = PERSON_AND_ORGANIZATION ( #197, #120 ) ;
#190 = AXIS2_PLACEMENT_3D ( 'NONE', #79, #159, #222 ) ;
#191 = DIRECTION ( 'NONE',  ( 0.0000000000000000000, 1.000000000000000000, 0.0000000000000000000 ) ) ;
#192 = EDGE_CURVE ( 'NONE', #136, #136, #64, .T. ) ;
#193 = CYLINDRICAL_SURFACE ( 'NONE', #263, 0.2325396152541257533 ) ;
#194 = FACE_BOUND ( 'NONE', #170, .T. ) ;
#195 = ORIENTED_EDGE ( 'NONE', *, *, #15, .T. ) ;
#196 = AXIS2_PLACEMENT_3D ( 'NONE', #33, #284, #32 ) ;
#197 = PERSON ( 'UNSPECIFIED', 'UNSPECIFIED', 'UNSPECIFIED', ('UNSPECIFIED'), ('UNSPECIFIED'), ('UNSPECIFIED') ) ;
#198 = ORIENTED_EDGE ( 'NONE', *, *, #39, .T. ) ;
#199 = ORIENTED_EDGE ( 'NONE', *, *, #217, .T. ) ;
#200 = ADVANCED_FACE ( 'NONE', ( #177, #194 ), #187, .T. ) ;
#201 = EDGE_LOOP ( 'NONE', ( #134, #26, #278, #104 ) ) ;
#202 = CARTESIAN_POINT ( 'NONE',  ( 1.209189011823596593E-14, -4.241264120244664680E-16, 3.463254975391760304 ) ) ;
#203 = CC_DESIGN_APPROVAL ( #119, ( #48 ) ) ;
#204 = DIRECTION ( 'NONE',  ( 1.000000000000000000, 0.0000000000000000000, -3.491481338843133355E-15 ) ) ;
#205 = LOCAL_TIME ( 15, 5, 22.00000000000000000, #138 ) ;
#206 = PLANE ( 'NONE',  #269 ) ;
#207 = VERTEX_POINT ( 'NONE', #137 ) ;
#208 = DIRECTION ( 'NONE',  ( 0.0000000000000000000, 0.0000000000000000000, 1.000000000000000000 ) ) ;
#209 = CC_DESIGN_PERSON_AND_ORGANIZATION_ASSIGNMENT ( #295, #262, ( #266 ) ) ;
#210 = DATE_AND_TIME ( #19, #205 ) ;
#211 = DIRECTION ( 'NONE',  ( -3.491481338843133355E-15, 1.224646799147353207E-16, -1.000000000000000000 ) ) ;
#212 = FACE_OUTER_BOUND ( 'NONE', #156, .T. ) ;
#213 = FACE_OUTER_BOUND ( 'NONE', #173, .T. ) ;
#214 = AXIS2_PLACEMENT_3D ( 'NONE', #150, #231, #27 ) ;
#215 = AXIS2_PLACEMENT_3D ( 'NONE', #172, #70, #300 ) ;
#216 = CARTESIAN_POINT ( 'NONE',  ( 1.745740669421566678E-15, -0.2325396152541257810, 0.5000000000000000000 ) ) ;
#217 = EDGE_CURVE ( 'NONE', #207, #207, #147, .T. ) ;
#218 = ORIENTED_EDGE ( 'NONE', *, *, #113, .F. ) ;
#219 = DIRECTION ( 'NONE',  ( 0.0000000000000000000, 1.000000000000000000, 0.0000000000000000000 ) ) ;
#220 = DIRECTION ( 'NONE',  ( 4.275831445896958607E-31, 1.000000000000000000, 1.224646799147353207E-16 ) ) ;
#221 = ADVANCED_FACE ( 'NONE', ( #213, #95 ), #164, .T. ) ;
#222 = DIRECTION ( 'NONE',  ( 0.0000000000000000000, -1.000000000000000000, 0.0000000000000000000 ) ) ;
#223 = DIRECTION ( 'NONE',  ( -3.489354422748178188E-15, 0.03489949670250191982, -0.9993908270190956511 ) ) ;
#224 = CYLINDRICAL_SURFACE ( 'NONE', #196, 1.500000000000000000 ) ;
#225 = PERSON_AND_ORGANIZATION_ROLE ( 'creator' ) ;
#226 = PERSON_AND_ORGANIZATION_ROLE ( 'creator' ) ;
#227 = AXIS2_PLACEMENT_3D ( 'NONE', #260, #204, #179 ) ;
#228 = DATE_AND_TIME ( #162, #60 ) ;
#229 = APPLICATION_PROTOCOL_DEFINITION ( 'international standard', 'config_control_design', 1994, #265 ) ;
#230 = SHAPE_DEFINITION_REPRESENTATION ( #72, #110 ) ;
#231 = DIRECTION ( 'NONE',  ( -3.491481338843133355E-15, 1.224646799147353207E-16, -1.000000000000000000 ) ) ;
#232 = EDGE_LOOP ( 'NONE', ( #282, #256 ) ) ;
#233 = APPROVAL ( #116, 'UNSPECIFIED' ) ;
#234 = DIRECTION ( 'NONE',  ( 4.275831445896958607E-31, 1.000000000000000000, 1.224646799147353207E-16 ) ) ;
#235 = APPROVAL_PERSON_ORGANIZATION ( #143, #180, #25 ) ;
#236 = CARTESIAN_POINT ( 'NONE',  ( 2.499573598792072369E-14, -8.767323980623664277E-16, 7.159063320728732194 ) ) ;
#237 = COORDINATED_UNIVERSAL_TIME_OFFSET ( 1, 0, .AHEAD. ) ;
#238 = CARTESIAN_POINT ( 'NONE',  ( -1.068957861474239433E-31, 3.749399456654644020E-33, -3.061616997868383018E-17 ) ) ;
#239 = DIRECTION ( 'NONE',  ( 3.491481338843133355E-15, -1.224646799147353207E-16, 1.000000000000000000 ) ) ;
#240 = EDGE_CURVE ( 'NONE', #56, #56, #13, .T. ) ;
#241 = SECURITY_CLASSIFICATION ( '', '', #112 ) ;
#242 = CARTESIAN_POINT ( 'NONE',  ( 0.0000000000000000000, 0.2500000000000000000, 0.0000000000000000000 ) ) ;
#243 = CIRCLE ( 'NONE', #161, 0.3665142114696882669 ) ;
#244 = COORDINATED_UNIVERSAL_TIME_OFFSET ( 1, 0, .AHEAD. ) ;
#245 = EDGE_CURVE ( 'NONE', #6, #255, #283, .T. ) ;
#246 = COORDINATED_UNIVERSAL_TIME_OFFSET ( 1, 0, .AHEAD. ) ;
#247 = MANIFOLD_SOLID_BREP ( 'Corps-Déplacer/Copier1[1]', #78 ) ;
#248 = CIRCLE ( 'NONE', #126, 0.2325396152541257810 ) ;
#249 = DIRECTION ( 'NONE',  ( -3.491481338843133355E-15, 1.224646799147353207E-16, -1.000000000000000000 ) ) ;
#250 = ORIENTED_EDGE ( 'NONE', *, *, #113, .T. ) ;
#251 = ADVANCED_FACE ( 'NONE', ( #157 ), #108, .T. ) ;
#252 = CC_DESIGN_PERSON_AND_ORGANIZATION_ASSIGNMENT ( #83, #225, ( #48 ) ) ;
#253 = DIRECTION ( 'NONE',  ( -3.491481338843133355E-15, 1.224646799147353207E-16, -1.000000000000000000 ) ) ;
#254 = LOCAL_TIME ( 15, 5, 22.00000000000000000, #40 ) ;
#255 = VERTEX_POINT ( 'NONE', #242 ) ;
#256 = ORIENTED_EDGE ( 'NONE', *, *, #59, .T. ) ;
#257 = CARTESIAN_POINT ( 'NONE',  ( 1.606081415867841091E-13, -5.633375276077824704E-15, 46.00000000000000000 ) ) ;
#258 = EDGE_CURVE ( 'NONE', #28, #255, #22, .T. ) ;
#259 = VECTOR ( 'NONE', #57, 1000.000000000000000 ) ;
#260 = CARTESIAN_POINT ( 'NONE',  ( 0.0000000000000000000, 0.0000000000000000000, 0.0000000000000000000 ) ) ;
#261 = DIRECTION ( 'NONE',  ( -4.275831445896958607E-31, -1.000000000000000000, -1.224646799147353207E-16 ) ) ;
#262 = PERSON_AND_ORGANIZATION_ROLE ( 'design_owner' ) ;
#263 = AXIS2_PLACEMENT_3D ( 'NONE', #277, #129, #272 ) ;
#264 = DATE_AND_TIME ( #188, #47 ) ;
#265 = APPLICATION_CONTEXT ( 'configuration controlled 3d designs of mechanical parts and assemblies' ) ;
#266 = PRODUCT ( '997954', '997954', '', ( #145 ) ) ;
#267 = CC_DESIGN_SECURITY_CLASSIFICATION ( #241, ( #48 ) ) ;
#268 = DIRECTION ( 'NONE',  ( -4.275831445896958607E-31, -1.000000000000000000, -1.224646799147353207E-16 ) ) ;
#269 = AXIS2_PLACEMENT_3D ( 'NONE', #88, #91, #268 ) ;
#270 = ADVANCED_FACE ( 'NONE', ( #101 ), #10, .T. ) ;
#271 = APPROVAL_ROLE ( '' ) ;
#272 = DIRECTION ( 'NONE',  ( 4.275831445896958607E-31, 1.000000000000000000, 1.224646799147353207E-16 ) ) ;
#273 = DIRECTION ( 'NONE',  ( -3.491481338843133355E-15, 1.224646799147353207E-16, -1.000000000000000000 ) ) ;
#274 =( GEOMETRIC_REPRESENTATION_CONTEXT ( 3 ) GLOBAL_UNCERTAINTY_ASSIGNED_CONTEXT ( ( #293 ) ) GLOBAL_UNIT_ASSIGNED_CONTEXT ( ( #12, #289, #54 ) ) REPRESENTATION_CONTEXT ( 'NONE', 'WORKASPACE' ) );
#275 = CARTESIAN_POINT ( 'NONE',  ( 3.491481338843133355E-15, -2.168404344971008868E-16, 1.000000000000000000 ) ) ;
#276 = ORIENTED_EDGE ( 'NONE', *, *, #182, .F. ) ;
#277 = CARTESIAN_POINT ( 'NONE',  ( 0.0000000000000000000, 0.0000000000000000000, 0.0000000000000000000 ) ) ;
#278 = ORIENTED_EDGE ( 'NONE', *, *, #59, .F. ) ;
#279 = CARTESIAN_POINT ( 'NONE',  ( 5.237222008264703188E-15, -1.836970198721030920E-16, 1.500000000000000888 ) ) ;
#280 = ORIENTED_EDGE ( 'NONE', *, *, #245, .T. ) ;
#281 = ADVANCED_FACE ( 'NONE', ( #9 ), #181, .F. ) ;
#282 = ORIENTED_EDGE ( 'NONE', *, *, #15, .F. ) ;
#283 = LINE ( 'NONE', #76, #296 ) ;
#284 = DIRECTION ( 'NONE',  ( -3.491481338843133355E-15, 1.224646799147353207E-16, -1.000000000000000000 ) ) ;
#285 = PRODUCT_DEFINITION ( 'UNKNOWN', '', #48, #117 ) ;
#286 = AXIS2_PLACEMENT_3D ( 'NONE', #238, #55, #220 ) ;
#287 = ORIENTED_EDGE ( 'NONE', *, *, #258, .T. ) ;
#288 = DIRECTION ( 'NONE',  ( 0.0000000000000000000, 1.000000000000000000, 0.0000000000000000000 ) ) ;
#289 =( NAMED_UNIT ( * ) PLANE_ANGLE_UNIT ( ) SI_UNIT ( $, .RADIAN. ) );
#290 = CARTESIAN_POINT ( 'NONE',  ( -2.137915722948478865E-31, -0.2500000000000000000, -6.123233995736766036E-17 ) ) ;
#291 = APPROVAL_DATE_TIME ( #228, #233 ) ;
#292 = CIRCLE ( 'NONE', #90, 1.499999999999994893 ) ;
#293 = UNCERTAINTY_MEASURE_WITH_UNIT (LENGTH_MEASURE( 1.000000000000000082E-05 ), #12, 'distance_accuracy_value', 'NONE');
#294 = APPLICATION_CONTEXT ( 'configuration controlled 3d designs of mechanical parts and assemblies' ) ;
#295 = PERSON_AND_ORGANIZATION ( #197, #120 ) ;
#296 = VECTOR ( 'NONE', #223, 1000.000000000000227 ) ;
#297 = EDGE_LOOP ( 'NONE', ( #218 ) ) ;
#298 = DIRECTION ( 'NONE',  ( -3.491481338843133355E-15, 1.224646799147353207E-16, -1.000000000000000000 ) ) ;
#299 = ADVANCED_FACE ( 'NONE', ( #52, #35 ), #224, .T. ) ;
#300 = DIRECTION ( 'NONE',  ( 4.275831445896958607E-31, 1.000000000000000000, 1.224646799147353207E-16 ) ) ;
#301 = ORIENTED_EDGE ( 'NONE', *, *, #75, .T. ) ;
ENDSEC;
END-ISO-10303-21;
