ISO-10303-21;
HEADER;
FILE_DESCRIPTION (( 'STEP AP203' ),
    '1' );
FILE_NAME ('997953.step',
    '2021-12-03T14:05:22',
    ( '' ),
    ( '' ),
    'SwSTEP 2.0',
    'SolidWorks 2019',
    '' );
FILE_SCHEMA (( 'CONFIG_CONTROL_DESIGN' ));
ENDSEC;

DATA;
#1 = AXIS2_PLACEMENT_3D ( 'NONE', #172, #55, #242 ) ;
#2 = DIRECTION ( 'NONE',  ( 0.0000000000000000000, 1.000000000000000000, 0.0000000000000000000 ) ) ;
#3 = AXIS2_PLACEMENT_3D ( 'NONE', #292, #295, #100 ) ;
#4 = AXIS2_PLACEMENT_3D ( 'NONE', #297, #273, #299 ) ;
#5 = ORIENTED_EDGE ( 'NONE', *, *, #289, .T. ) ;
#6 = VERTEX_POINT ( 'NONE', #175 ) ;
#7 = AXIS2_PLACEMENT_3D ( 'NONE', #89, #142, #36 ) ;
#8 = ORIENTED_EDGE ( 'NONE', *, *, #70, .T. ) ;
#9 = APPROVAL ( #160, 'UNSPECIFIED' ) ;
#10 = CARTESIAN_POINT ( 'NONE',  ( 7.332110811570584779E-15, -2.571758278209443436E-16, 2.100000000000000977 ) ) ;
#11 = EDGE_LOOP ( 'NONE', ( #174 ) ) ;
#12 = ADVANCED_FACE ( 'NONE', ( #288, #240 ), #134, .T. ) ;
#13 = CARTESIAN_POINT ( 'NONE',  ( 1.396592535537253342E-15, -1.165610181410012831E-16, 0.4000000000000000222 ) ) ;
#14 = DIRECTION ( 'NONE',  ( 4.275831445896958607E-31, 1.000000000000000000, 1.224646799147353207E-16 ) ) ;
#15 = SECURITY_CLASSIFICATION ( '', '', #42 ) ;
#16 = FACE_OUTER_BOUND ( 'NONE', #119, .T. ) ;
#17 = DIRECTION ( 'NONE',  ( 3.489354422748178188E-15, 0.03489949670250167002, 0.9993908270190956511 ) ) ;
#18 = AXIS2_PLACEMENT_3D ( 'NONE', #10, #121, #2 ) ;
#19 = PERSON_AND_ORGANIZATION ( #104, #223 ) ;
#20 = DIRECTION ( 'NONE',  ( 0.0000000000000000000, 1.000000000000000000, 0.0000000000000000000 ) ) ;
#21 = APPROVAL_STATUS ( 'not_yet_approved' ) ;
#22 = ORIENTED_EDGE ( 'NONE', *, *, #229, .T. ) ;
#23 = UNCERTAINTY_MEASURE_WITH_UNIT (LENGTH_MEASURE( 1.000000000000000082E-05 ), #236, 'distance_accuracy_value', 'NONE');
#24 = APPROVAL_STATUS ( 'not_yet_approved' ) ;
#25 = ORIENTED_EDGE ( 'NONE', *, *, #79, .T. ) ;
#26 = FACE_OUTER_BOUND ( 'NONE', #124, .T. ) ;
#27 = ORIENTED_EDGE ( 'NONE', *, *, #229, .F. ) ;
#28 = VERTEX_POINT ( 'NONE', #215 ) ;
#29 = CC_DESIGN_DATE_AND_TIME_ASSIGNMENT ( #192, #126, ( #15 ) ) ;
#30 = EDGE_LOOP ( 'NONE', ( #193 ) ) ;
#31 = ORIENTED_EDGE ( 'NONE', *, *, #212, .F. ) ;
#32 =( GEOMETRIC_REPRESENTATION_CONTEXT ( 3 ) GLOBAL_UNCERTAINTY_ASSIGNED_CONTEXT ( ( #23 ) ) GLOBAL_UNIT_ASSIGNED_CONTEXT ( ( #236, #219, #105 ) ) REPRESENTATION_CONTEXT ( 'NONE', 'WORKASPACE' ) );
#33 = PLANE ( 'NONE',  #46 ) ;
#34 = EDGE_CURVE ( 'NONE', #152, #152, #257, .T. ) ;
#35 = DIRECTION ( 'NONE',  ( -3.491481338843133355E-15, 1.224646799147353207E-16, -1.000000000000000000 ) ) ;
#36 = DIRECTION ( 'NONE',  ( -4.275831445896958607E-31, -1.000000000000000000, -1.224646799147353207E-16 ) ) ;
#37 = AXIS2_PLACEMENT_3D ( 'NONE', #173, #50, #235 ) ;
#38 = APPLICATION_PROTOCOL_DEFINITION ( 'international standard', 'config_control_design', 1994, #43 ) ;
#39 = DIRECTION ( 'NONE',  ( -3.491481338843133355E-15, 1.224646799147353207E-16, -1.000000000000000000 ) ) ;
#40 = PERSON_AND_ORGANIZATION ( #104, #223 ) ;
#41 = COORDINATED_UNIVERSAL_TIME_OFFSET ( 1, 0, .AHEAD. ) ;
#42 = SECURITY_CLASSIFICATION_LEVEL ( 'unclassified' ) ;
#43 = APPLICATION_CONTEXT ( 'configuration controlled 3d designs of mechanical parts and assemblies' ) ;
#44 = CIRCLE ( 'NONE', #200, 1.200000000000005063 ) ;
#45 = CARTESIAN_POINT ( 'NONE',  ( 1.999658879033657579E-14, -7.013859184498929450E-16, 5.727250656582985044 ) ) ;
#46 = AXIS2_PLACEMENT_3D ( 'NONE', #13, #106, #138 ) ;
#47 = AXIS2_PLACEMENT_3D ( 'NONE', #113, #39, #266 ) ;
#48 = ORIENTED_EDGE ( 'NONE', *, *, #70, .F. ) ;
#49 = LINE ( 'NONE', #177, #54 ) ;
#50 = DIRECTION ( 'NONE',  ( -3.491481338843133355E-15, 1.224646799147353207E-16, -1.000000000000000000 ) ) ;
#51 = ORIENTED_EDGE ( 'NONE', *, *, #210, .T. ) ;
#52 = DIRECTION ( 'NONE',  ( -3.491481338843133355E-15, 1.224646799147353207E-16, -1.000000000000000000 ) ) ;
#53 = VERTEX_POINT ( 'NONE', #157 ) ;
#54 = VECTOR ( 'NONE', #231, 1000.000000000000000 ) ;
#55 = DIRECTION ( 'NONE',  ( -3.491481338843133355E-15, 1.224646799147353207E-16, -1.000000000000000000 ) ) ;
#56 = TOROIDAL_SURFACE ( 'NONE', #265, 1.186031692203300514, 0.9999999999999997780 ) ;
#57 = DIRECTION ( 'NONE',  ( -3.491481338843133355E-15, 1.224646799147353207E-16, -1.000000000000000000 ) ) ;
#58 = VECTOR ( 'NONE', #17, 1000.000000000000227 ) ;
#59 = DIRECTION ( 'NONE',  ( 0.0000000000000000000, 1.000000000000000000, 0.0000000000000000000 ) ) ;
#60 = CC_DESIGN_DATE_AND_TIME_ASSIGNMENT ( #276, #270, ( #85 ) ) ;
#61 = PERSON_AND_ORGANIZATION ( #104, #223 ) ;
#62 = PLANE ( 'NONE',  #7 ) ;
#63 = CARTESIAN_POINT ( 'NONE',  ( 0.0000000000000000000, 0.0000000000000000000, 0.0000000000000000000 ) ) ;
#64 = PERSON_AND_ORGANIZATION ( #104, #223 ) ;
#65 = CLOSED_SHELL ( 'NONE', ( #282, #253, #133, #144 ) ) ;
#66 = PRODUCT_DEFINITION_FORMATION_WITH_SPECIFIED_SOURCE ( 'ANY', '', #281, .NOT_KNOWN. ) ;
#67 = EDGE_LOOP ( 'NONE', ( #211 ) ) ;
#68 = AXIS2_PLACEMENT_3D ( 'NONE', #87, #135, #14 ) ;
#69 = FACE_OUTER_BOUND ( 'NONE', #195, .T. ) ;
#70 = EDGE_CURVE ( 'NONE', #28, #28, #184, .T. ) ;
#71 = ORIENTED_EDGE ( 'NONE', *, *, #258, .F. ) ;
#72 = DATE_AND_TIME ( #101, #260 ) ;
#73 = EDGE_LOOP ( 'NONE', ( #233 ) ) ;
#74 = APPROVAL_PERSON_ORGANIZATION ( #61, #9, #246 ) ;
#75 = CARTESIAN_POINT ( 'NONE',  ( 5.586370142149013368E-15, -2.168404344971008868E-16, 1.600000000000000089 ) ) ;
#76 = ORIENTED_EDGE ( 'NONE', *, *, #185, .T. ) ;
#77 = CARTESIAN_POINT ( 'NONE',  ( -4.275831445896958716E-32, 1.499759782661857779E-33, -1.224646799147353269E-17 ) ) ;
#78 = AXIS2_PLACEMENT_3D ( 'NONE', #127, #218, #168 ) ;
#79 = EDGE_CURVE ( 'NONE', #6, #6, #111, .T. ) ;
#80 = DIRECTION ( 'NONE',  ( 3.491481338843133355E-15, -1.224646799147353207E-16, 1.000000000000000000 ) ) ;
#81 = LINE ( 'NONE', #204, #149 ) ;
#82 = CARTESIAN_POINT ( 'NONE',  ( 1.606081415867841091E-13, -5.633375276077824704E-15, 46.00000000000000000 ) ) ;
#83 = LOCAL_TIME ( 15, 5, 22.00000000000000000, #205 ) ;
#84 = DIRECTION ( 'NONE',  ( 4.275831445896959482E-31, 1.000000000000000000, 1.224646799147353207E-16 ) ) ;
#85 = PRODUCT_DEFINITION ( 'UNKNOWN', '', #66, #188 ) ;
#86 = PERSON_AND_ORGANIZATION ( #104, #223 ) ;
#87 = CARTESIAN_POINT ( 'NONE',  ( -8.551662891793917432E-32, 2.999519565323715558E-33, -2.449293598294706538E-17 ) ) ;
#88 = CC_DESIGN_PERSON_AND_ORGANIZATION_ASSIGNMENT ( #40, #228, ( #66 ) ) ;
#89 = CARTESIAN_POINT ( 'NONE',  ( 1.396592535537253342E-15, -1.165610181410012831E-16, 0.4000000000000000222 ) ) ;
#90 = FACE_OUTER_BOUND ( 'NONE', #73, .T. ) ;
#91 = CALENDAR_DATE ( 2021, 3, 12 ) ;
#92 = AXIS2_PLACEMENT_3D ( 'NONE', #162, #199, #114 ) ;
#93 = PERSON_AND_ORGANIZATION_ROLE ( 'classification_officer' ) ;
#94 = CONICAL_SURFACE ( 'NONE', #3, 0.2000000000000000111, 0.03490658503988741668 ) ;
#95 = CARTESIAN_POINT ( 'NONE',  ( -1.710332578358783486E-31, -0.2000000000000000111, -4.898587196589413075E-17 ) ) ;
#96 = CALENDAR_DATE ( 2021, 3, 12 ) ;
#97 = VERTEX_POINT ( 'NONE', #95 ) ;
#98 = CIRCLE ( 'NONE', #269, 1.499999999999994893 ) ;
#99 = VERTEX_POINT ( 'NONE', #284 ) ;
#100 = DIRECTION ( 'NONE',  ( 4.275831445896958607E-31, 1.000000000000000000, 1.224646799147353207E-16 ) ) ;
#101 = CALENDAR_DATE ( 2021, 3, 12 ) ;
#102 = DIRECTION ( 'NONE',  ( 4.275831445896958607E-31, 1.000000000000000000, 1.224646799147353207E-16 ) ) ;
#103 = ORIENTED_EDGE ( 'NONE', *, *, #238, .F. ) ;
#104 = PERSON ( 'UNSPECIFIED', 'UNSPECIFIED', 'UNSPECIFIED', ('UNSPECIFIED'), ('UNSPECIFIED'), ('UNSPECIFIED') ) ;
#105 =( NAMED_UNIT ( * ) SI_UNIT ( $, .STERADIAN. ) SOLID_ANGLE_UNIT ( ) );
#106 = DIRECTION ( 'NONE',  ( 3.491481338843133355E-15, -1.224646799147353207E-16, 1.000000000000000000 ) ) ;
#107 = ADVANCED_FACE ( 'NONE', ( #69, #245 ), #247, .T. ) ;
#108 = PLANE ( 'NONE',  #92 ) ;
#109 = APPROVAL_PERSON_ORGANIZATION ( #19, #171, #164 ) ;
#110 = FACE_OUTER_BOUND ( 'NONE', #122, .T. ) ;
#111 = CIRCLE ( 'NONE', #18, 0.3200062884188622503 ) ;
#112 = MANIFOLD_SOLID_BREP ( 'Corps-Déplacer/Copier1[1]', #230 ) ;
#113 = CARTESIAN_POINT ( 'NONE',  ( 1.606081415867841091E-13, -5.633375276077824704E-15, 46.00000000000000000 ) ) ;
#114 = DIRECTION ( 'NONE',  ( -3.491481338843133355E-15, 0.0000000000000000000, -1.000000000000000000 ) ) ;
#115 = MANIFOLD_SOLID_BREP ( 'Corps-Déplacer/Copier1[2]', #65 ) ;
#116 = ADVANCED_FACE ( 'NONE', ( #16, #143 ), #198, .T. ) ;
#117 = COORDINATED_UNIVERSAL_TIME_OFFSET ( 1, 0, .AHEAD. ) ;
#118 = CC_DESIGN_PERSON_AND_ORGANIZATION_ASSIGNMENT ( #271, #180, ( #85 ) ) ;
#119 = EDGE_LOOP ( 'NONE', ( #237 ) ) ;
#120 = VECTOR ( 'NONE', #243, 1000.000000000000227 ) ;
#121 = DIRECTION ( 'NONE',  ( -3.491481338843133355E-15, 1.224646799147353207E-16, -1.000000000000000000 ) ) ;
#122 = EDGE_LOOP ( 'NONE', ( #31, #279 ) ) ;
#123 = PLANE ( 'NONE',  #166 ) ;
#124 = EDGE_LOOP ( 'NONE', ( #22, #76 ) ) ;
#125 = VERTEX_POINT ( 'NONE', #128 ) ;
#126 = DATE_TIME_ROLE ( 'classification_date' ) ;
#127 = CARTESIAN_POINT ( 'NONE',  ( 1.396592535537253342E-15, -4.898587196589413075E-17, 0.4000000000000000222 ) ) ;
#128 = CARTESIAN_POINT ( 'NONE',  ( 1.446803200845601281E-14, 1.499999999999994449, 4.143809061070292898 ) ) ;
#129 = ORIENTED_EDGE ( 'NONE', *, *, #212, .T. ) ;
#130 = AXIS2_PLACEMENT_3D ( 'NONE', #179, #268, #59 ) ;
#131 = CARTESIAN_POINT ( 'NONE',  ( 0.0000000000000000000, 0.0000000000000000000, 0.0000000000000000000 ) ) ;
#132 = VERTEX_POINT ( 'NONE', #194 ) ;
#133 = ADVANCED_FACE ( 'NONE', ( #110 ), #62, .T. ) ;
#134 = CONICAL_SURFACE ( 'NONE', #300, 0.3200062884188622503, 0.5235987755983001479 ) ;
#135 = DIRECTION ( 'NONE',  ( -3.491481338843133355E-15, 1.224646799147353207E-16, -1.000000000000000000 ) ) ;
#136 = DATE_AND_TIME ( #91, #83 ) ;
#137 = CC_DESIGN_PERSON_AND_ORGANIZATION_ASSIGNMENT ( #64, #145, ( #66 ) ) ;
#138 = DIRECTION ( 'NONE',  ( -4.275831445896958607E-31, -1.000000000000000000, -1.224646799147353207E-16 ) ) ;
#139 = CARTESIAN_POINT ( 'NONE',  ( 1.396592535537253342E-15, 0.1860316922033005416, 0.4000000000000000222 ) ) ;
#140 = AXIS2_PLACEMENT_3D ( 'NONE', #63, #159, #84 ) ;
#141 = CC_DESIGN_APPROVAL ( #190, ( #15 ) ) ;
#142 = DIRECTION ( 'NONE',  ( 3.491481338843133355E-15, -1.224646799147353207E-16, 1.000000000000000000 ) ) ;
#143 = FACE_BOUND ( 'NONE', #11, .T. ) ;
#144 = ADVANCED_FACE ( 'NONE', ( #294 ), #108, .T. ) ;
#145 = PERSON_AND_ORGANIZATION_ROLE ( 'creator' ) ;
#146 = PERSON_AND_ORGANIZATION ( #104, #223 ) ;
#147 = ORIENTED_EDGE ( 'NONE', *, *, #79, .F. ) ;
#148 = EDGE_CURVE ( 'NONE', #97, #99, #227, .T. ) ;
#149 = VECTOR ( 'NONE', #203, 1000.000000000000000 ) ;
#150 = ORIENTED_EDGE ( 'NONE', *, *, #289, .F. ) ;
#151 = EDGE_LOOP ( 'NONE', ( #48 ) ) ;
#152 = VERTEX_POINT ( 'NONE', #239 ) ;
#153 = EDGE_LOOP ( 'NONE', ( #25 ) ) ;
#154 = FACE_OUTER_BOUND ( 'NONE', #220, .T. ) ;
#155 = ORIENTED_EDGE ( 'NONE', *, *, #185, .F. ) ;
#156 = DIRECTION ( 'NONE',  ( -3.491481338843133355E-15, 1.224646799147353207E-16, -1.000000000000000000 ) ) ;
#157 = CARTESIAN_POINT ( 'NONE',  ( 0.0000000000000000000, 0.2000000000000000111, 0.0000000000000000000 ) ) ;
#158 = FACE_OUTER_BOUND ( 'NONE', #197, .T. ) ;
#159 = DIRECTION ( 'NONE',  ( -3.491481338843133355E-15, 1.224646799147353207E-16, -1.000000000000000000 ) ) ;
#160 = APPROVAL_STATUS ( 'not_yet_approved' ) ;
#161 = CC_DESIGN_APPROVAL ( #171, ( #85 ) ) ;
#162 = CARTESIAN_POINT ( 'NONE',  ( 0.0000000000000000000, 0.0000000000000000000, 0.0000000000000000000 ) ) ;
#163 = FACE_OUTER_BOUND ( 'NONE', #170, .T. ) ;
#164 = APPROVAL_ROLE ( '' ) ;
#165 = SHAPE_DEFINITION_REPRESENTATION ( #169, #285 ) ;
#166 = AXIS2_PLACEMENT_3D ( 'NONE', #77, #35, #102 ) ;
#167 = EDGE_CURVE ( 'NONE', #125, #125, #98, .T. ) ;
#168 = DIRECTION ( 'NONE',  ( 0.0000000000000000000, 1.000000000000000000, 0.0000000000000000000 ) ) ;
#169 = PRODUCT_DEFINITION_SHAPE ( 'NONE', 'NONE',  #85 ) ;
#170 = EDGE_LOOP ( 'NONE', ( #8 ) ) ;
#171 = APPROVAL ( #21, 'UNSPECIFIED' ) ;
#172 = CARTESIAN_POINT ( 'NONE',  ( 1.606081415867841091E-13, 8.998558695971099120E-33, 46.00000000000000000 ) ) ;
#173 = CARTESIAN_POINT ( 'NONE',  ( 1.595606971851311880E-13, -5.596635872103403844E-15, 45.69999999999999574 ) ) ;
#174 = ORIENTED_EDGE ( 'NONE', *, *, #258, .T. ) ;
#175 = CARTESIAN_POINT ( 'NONE',  ( 7.332110811570584779E-15, 0.3200062884188619727, 2.100000000000000977 ) ) ;
#176 = DIRECTION ( 'NONE',  ( 0.0000000000000000000, -1.000000000000000000, 0.0000000000000000000 ) ) ;
#177 = CARTESIAN_POINT ( 'NONE',  ( 1.396592535537253342E-15, -1.165610181410012831E-16, 0.4000000000000000222 ) ) ;
#178 = PLANE ( 'NONE',  #1 ) ;
#179 = CARTESIAN_POINT ( 'NONE',  ( 1.396592535537253342E-15, -4.898587196589413075E-17, 0.4000000000000000222 ) ) ;
#180 = PERSON_AND_ORGANIZATION_ROLE ( 'creator' ) ;
#181 = LINE ( 'NONE', #45, #120 ) ;
#182 = APPROVAL_DATE_TIME ( #136, #171 ) ;
#183 = CALENDAR_DATE ( 2021, 3, 12 ) ;
#184 = CIRCLE ( 'NONE', #78, 0.1860316922033005971 ) ;
#185 = EDGE_CURVE ( 'NONE', #53, #97, #81, .T. ) ;
#186 = CIRCLE ( 'NONE', #68, 0.2000000000000000111 ) ;
#187 = APPROVAL_PERSON_ORGANIZATION ( #252, #190, #213 ) ;
#188 = DESIGN_CONTEXT ( 'detailed design', #207, 'design' ) ;
#189 = ADVANCED_FACE ( 'NONE', ( #298, #90 ), #275, .T. ) ;
#190 = APPROVAL ( #24, 'UNSPECIFIED' ) ;
#191 = AXIS2_PLACEMENT_3D ( 'NONE', #196, #156, #267 ) ;
#192 = DATE_AND_TIME ( #96, #241 ) ;
#193 = ORIENTED_EDGE ( 'NONE', *, *, #167, .F. ) ;
#194 = CARTESIAN_POINT ( 'NONE',  ( 1.606081415867841091E-13, 1.199999999999999512, 46.00000000000000000 ) ) ;
#195 = EDGE_LOOP ( 'NONE', ( #5 ) ) ;
#196 = CARTESIAN_POINT ( 'NONE',  ( 5.586370142149013368E-15, -1.959434878635765230E-16, 1.600000000000000089 ) ) ;
#197 = EDGE_LOOP ( 'NONE', ( #27, #262, #129, #51 ) ) ;
#198 = CONICAL_SURFACE ( 'NONE', #47, 1.200000000000005063, 0.7853981633974453924 ) ;
#199 = DIRECTION ( 'NONE',  ( 1.000000000000000000, 0.0000000000000000000, -3.491481338843133355E-15 ) ) ;
#200 = AXIS2_PLACEMENT_3D ( 'NONE', #82, #52, #264 ) ;
#201 = CIRCLE ( 'NONE', #191, 0.1860316922033006248 ) ;
#202 = ADVANCED_FACE ( 'NONE', ( #163 ), #33, .F. ) ;
#203 = DIRECTION ( 'NONE',  ( -4.275831445896958607E-31, -1.000000000000000000, -1.224646799147353207E-16 ) ) ;
#204 = CARTESIAN_POINT ( 'NONE',  ( 0.0000000000000000000, 0.2000000000000000111, 0.0000000000000000000 ) ) ;
#205 = COORDINATED_UNIVERSAL_TIME_OFFSET ( 1, 0, .AHEAD. ) ;
#206 = LOCAL_TIME ( 15, 5, 22.00000000000000000, #117 ) ;
#207 = APPLICATION_CONTEXT ( 'configuration controlled 3d designs of mechanical parts and assemblies' ) ;
#208 = CALENDAR_DATE ( 2021, 3, 12 ) ;
#209 = COORDINATED_UNIVERSAL_TIME_OFFSET ( 1, 0, .AHEAD. ) ;
#210 = EDGE_CURVE ( 'NONE', #214, #53, #181, .T. ) ;
#211 = ORIENTED_EDGE ( 'NONE', *, *, #167, .T. ) ;
#212 = EDGE_CURVE ( 'NONE', #99, #214, #255, .T. ) ;
#213 = APPROVAL_ROLE ( '' ) ;
#214 = VERTEX_POINT ( 'NONE', #139 ) ;
#215 = CARTESIAN_POINT ( 'NONE',  ( 1.396592535537253342E-15, 0.1860316922033005416, 0.4000000000000000222 ) ) ;
#216 = ORIENTED_EDGE ( 'NONE', *, *, #148, .F. ) ;
#217 = VERTEX_POINT ( 'NONE', #290 ) ;
#218 = DIRECTION ( 'NONE',  ( -3.491481338843133355E-15, 1.224646799147353207E-16, -1.000000000000000000 ) ) ;
#219 =( NAMED_UNIT ( * ) PLANE_ANGLE_UNIT ( ) SI_UNIT ( $, .RADIAN. ) );
#220 = EDGE_LOOP ( 'NONE', ( #71 ) ) ;
#221 = DIRECTION ( 'NONE',  ( -3.491481338843133355E-15, 1.224646799147353207E-16, -1.000000000000000000 ) ) ;
#222 = DIRECTION ( 'NONE',  ( 4.275831445896958607E-31, 1.000000000000000000, 1.224646799147353207E-16 ) ) ;
#223 = ORGANIZATION ( 'UNSPECIFIED', 'UNSPECIFIED', '' ) ;
#224 = DATE_AND_TIME ( #208, #272 ) ;
#225 = CARTESIAN_POINT ( 'NONE',  ( 1.999658879033657579E-14, -7.013859184498929450E-16, 5.727250656582985044 ) ) ;
#226 = APPLICATION_PROTOCOL_DEFINITION ( 'international standard', 'config_control_design', 1994, #207 ) ;
#227 = LINE ( 'NONE', #225, #58 ) ;
#228 = PERSON_AND_ORGANIZATION_ROLE ( 'design_supplier' ) ;
#229 = EDGE_CURVE ( 'NONE', #97, #53, #186, .T. ) ;
#230 = CLOSED_SHELL ( 'NONE', ( #202, #107, #301, #12, #189, #116, #274 ) ) ;
#231 = DIRECTION ( 'NONE',  ( 4.275831445896958607E-31, 1.000000000000000000, 1.224646799147353207E-16 ) ) ;
#232 = CC_DESIGN_APPROVAL ( #9, ( #66 ) ) ;
#233 = ORIENTED_EDGE ( 'NONE', *, *, #34, .T. ) ;
#234 = FACE_OUTER_BOUND ( 'NONE', #153, .T. ) ;
#235 = DIRECTION ( 'NONE',  ( 0.0000000000000000000, 1.000000000000000000, 0.0000000000000000000 ) ) ;
#236 =( LENGTH_UNIT ( ) NAMED_UNIT ( * ) SI_UNIT ( .MILLI., .METRE. ) );
#237 = ORIENTED_EDGE ( 'NONE', *, *, #34, .F. ) ;
#238 = EDGE_CURVE ( 'NONE', #99, #214, #49, .T. ) ;
#239 = CARTESIAN_POINT ( 'NONE',  ( 1.595606971851311880E-13, 1.499999999999999334, 45.69999999999999574 ) ) ;
#240 = FACE_BOUND ( 'NONE', #286, .T. ) ;
#241 = LOCAL_TIME ( 15, 5, 22.00000000000000000, #209 ) ;
#242 = DIRECTION ( 'NONE',  ( 4.275831445896958607E-31, 1.000000000000000000, 1.224646799147353207E-16 ) ) ;
#243 = DIRECTION ( 'NONE',  ( -3.489354422748178188E-15, 0.03489949670250191982, -0.9993908270190956511 ) ) ;
#244 = CC_DESIGN_PERSON_AND_ORGANIZATION_ASSIGNMENT ( #86, #251, ( #281 ) ) ;
#245 = FACE_OUTER_BOUND ( 'NONE', #151, .T. ) ;
#246 = APPROVAL_ROLE ( '' ) ;
#247 = CYLINDRICAL_SURFACE ( 'NONE', #280, 0.1860316922033006248 ) ;
#248 = CC_DESIGN_SECURITY_CLASSIFICATION ( #15, ( #66 ) ) ;
#249 = APPROVAL_DATE_TIME ( #224, #9 ) ;
#250 = PRODUCT_RELATED_PRODUCT_CATEGORY ( 'detail', '', ( #281 ) ) ;
#251 = PERSON_AND_ORGANIZATION_ROLE ( 'design_owner' ) ;
#252 = PERSON_AND_ORGANIZATION ( #104, #223 ) ;
#253 = ADVANCED_FACE ( 'NONE', ( #158 ), #94, .T. ) ;
#254 = CC_DESIGN_PERSON_AND_ORGANIZATION_ASSIGNMENT ( #146, #93, ( #15 ) ) ;
#255 = CIRCLE ( 'NONE', #130, 0.1860316922033005971 ) ;
#256 = EDGE_LOOP ( 'NONE', ( #150 ) ) ;
#257 = CIRCLE ( 'NONE', #37, 1.500000000000005107 ) ;
#258 = EDGE_CURVE ( 'NONE', #132, #132, #44, .T. ) ;
#259 = FACE_OUTER_BOUND ( 'NONE', #256, .T. ) ;
#260 = LOCAL_TIME ( 15, 5, 22.00000000000000000, #278 ) ;
#261 = DIRECTION ( 'NONE',  ( -3.491481338843133355E-15, 1.224646799147353207E-16, -1.000000000000000000 ) ) ;
#262 = ORIENTED_EDGE ( 'NONE', *, *, #148, .T. ) ;
#263 = EDGE_LOOP ( 'NONE', ( #155, #291, #103, #216 ) ) ;
#264 = DIRECTION ( 'NONE',  ( 0.0000000000000000000, 1.000000000000000000, 0.0000000000000000000 ) ) ;
#265 = AXIS2_PLACEMENT_3D ( 'NONE', #75, #261, #287 ) ;
#266 = DIRECTION ( 'NONE',  ( 0.0000000000000000000, 1.000000000000000000, 0.0000000000000000000 ) ) ;
#267 = DIRECTION ( 'NONE',  ( 0.0000000000000000000, 1.000000000000000000, 0.0000000000000000000 ) ) ;
#268 = DIRECTION ( 'NONE',  ( -3.491481338843133355E-15, 1.224646799147353207E-16, -1.000000000000000000 ) ) ;
#269 = AXIS2_PLACEMENT_3D ( 'NONE', #296, #57, #20 ) ;
#270 = DATE_TIME_ROLE ( 'creation_date' ) ;
#271 = PERSON_AND_ORGANIZATION ( #104, #223 ) ;
#272 = LOCAL_TIME ( 15, 5, 22.00000000000000000, #41 ) ;
#273 = DIRECTION ( 'NONE',  ( 0.0000000000000000000, 0.0000000000000000000, 1.000000000000000000 ) ) ;
#274 = ADVANCED_FACE ( 'NONE', ( #154 ), #178, .F. ) ;
#275 = CYLINDRICAL_SURFACE ( 'NONE', #140, 1.500000000000000000 ) ;
#276 = DATE_AND_TIME ( #183, #206 ) ;
#277 = MECHANICAL_CONTEXT ( 'NONE', #43, 'mechanical' ) ;
#278 = COORDINATED_UNIVERSAL_TIME_OFFSET ( 1, 0, .AHEAD. ) ;
#279 = ORIENTED_EDGE ( 'NONE', *, *, #238, .T. ) ;
#280 = AXIS2_PLACEMENT_3D ( 'NONE', #131, #221, #222 ) ;
#281 = PRODUCT ( '997953', '997953', '', ( #277 ) ) ;
#282 = ADVANCED_FACE ( 'NONE', ( #26 ), #123, .T. ) ;
#283 = APPROVAL_DATE_TIME ( #72, #190 ) ;
#284 = CARTESIAN_POINT ( 'NONE',  ( 1.396592535537253145E-15, -0.1860316922033006526, 0.3999999999999999112 ) ) ;
#285 = ADVANCED_BREP_SHAPE_REPRESENTATION ( '997953', ( #112, #115, #4 ), #32 ) ;
#286 = EDGE_LOOP ( 'NONE', ( #147 ) ) ;
#287 = DIRECTION ( 'NONE',  ( 4.336570031018966284E-31, 1.000000000000000000, 1.224646799147353207E-16 ) ) ;
#288 = FACE_OUTER_BOUND ( 'NONE', #67, .T. ) ;
#289 = EDGE_CURVE ( 'NONE', #217, #217, #201, .T. ) ;
#290 = CARTESIAN_POINT ( 'NONE',  ( 5.586370142149013368E-15, 0.1860316922033004305, 1.600000000000000089 ) ) ;
#291 = ORIENTED_EDGE ( 'NONE', *, *, #210, .F. ) ;
#292 = CARTESIAN_POINT ( 'NONE',  ( -8.551662891793917432E-32, 2.999519565323715558E-33, -2.449293598294706538E-17 ) ) ;
#293 = CARTESIAN_POINT ( 'NONE',  ( 7.332110811570584779E-15, -2.571758278209443436E-16, 2.100000000000000977 ) ) ;
#294 = FACE_OUTER_BOUND ( 'NONE', #263, .T. ) ;
#295 = DIRECTION ( 'NONE',  ( -3.491481338843133355E-15, 1.224646799147353207E-16, -1.000000000000000000 ) ) ;
#296 = CARTESIAN_POINT ( 'NONE',  ( 1.446803200845601281E-14, -5.074702502917532982E-16, 4.143809061070292898 ) ) ;
#297 = CARTESIAN_POINT ( 'NONE',  ( 0.0000000000000000000, 0.0000000000000000000, 0.0000000000000000000 ) ) ;
#298 = FACE_OUTER_BOUND ( 'NONE', #30, .T. ) ;
#299 = DIRECTION ( 'NONE',  ( 1.000000000000000000, 0.0000000000000000000, 0.0000000000000000000 ) ) ;
#300 = AXIS2_PLACEMENT_3D ( 'NONE', #293, #80, #176 ) ;
#301 = ADVANCED_FACE ( 'NONE', ( #234, #259 ), #56, .F. ) ;
ENDSEC;
END-ISO-10303-21;
