ISO-10303-21;
HEADER;
FILE_DESCRIPTION (( 'STEP AP203' ),
    '1' );
FILE_NAME ('997952.step',
    '2021-12-03T14:05:21',
    ( '' ),
    ( '' ),
    'SwSTEP 2.0',
    'SolidWorks 2019',
    '' );
FILE_SCHEMA (( 'CONFIG_CONTROL_DESIGN' ));
ENDSEC;

DATA;
#1 = CARTESIAN_POINT ( 'NONE',  ( 1.595606971851311880E-13, 1.499999999999999334, 45.69999999999999574 ) ) ;
#2 = FACE_OUTER_BOUND ( 'NONE', #87, .T. ) ;
#3 = CARTESIAN_POINT ( 'NONE',  ( 1.999658879033657579E-14, -7.013859184498929450E-16, 5.727250656582985044 ) ) ;
#4 = CC_DESIGN_SECURITY_CLASSIFICATION ( #228, ( #148 ) ) ;
#5 = PLANE ( 'NONE',  #58 ) ;
#6 =( GEOMETRIC_REPRESENTATION_CONTEXT ( 3 ) GLOBAL_UNCERTAINTY_ASSIGNED_CONTEXT ( ( #176 ) ) GLOBAL_UNIT_ASSIGNED_CONTEXT ( ( #286, #241, #213 ) ) REPRESENTATION_CONTEXT ( 'NONE', 'WORKASPACE' ) );
#7 = APPLICATION_PROTOCOL_DEFINITION ( 'international standard', 'config_control_design', 1994, #107 ) ;
#8 = EDGE_LOOP ( 'NONE', ( #201 ) ) ;
#9 = VERTEX_POINT ( 'NONE', #172 ) ;
#10 = CC_DESIGN_DATE_AND_TIME_ASSIGNMENT ( #284, #110, ( #90 ) ) ;
#11 = FACE_OUTER_BOUND ( 'NONE', #245, .T. ) ;
#12 = APPROVAL_DATE_TIME ( #217, #199 ) ;
#13 = FACE_BOUND ( 'NONE', #252, .T. ) ;
#14 = MANIFOLD_SOLID_BREP ( 'Corps-Déplacer/Copier1[1]', #102 ) ;
#15 = DATE_AND_TIME ( #155, #30 ) ;
#16 = APPLICATION_CONTEXT ( 'configuration controlled 3d designs of mechanical parts and assemblies' ) ;
#17 = CIRCLE ( 'NONE', #26, 0.2000000000000000111 ) ;
#18 = EDGE_CURVE ( 'NONE', #140, #64, #196, .T. ) ;
#19 = DIRECTION ( 'NONE',  ( -3.491481338843133355E-15, 1.224646799147353207E-16, -1.000000000000000000 ) ) ;
#20 = COORDINATED_UNIVERSAL_TIME_OFFSET ( 1, 0, .AHEAD. ) ;
#21 = PERSON_AND_ORGANIZATION_ROLE ( 'classification_officer' ) ;
#22 = EDGE_LOOP ( 'NONE', ( #150 ) ) ;
#23 = FACE_OUTER_BOUND ( 'NONE', #182, .T. ) ;
#24 = LINE ( 'NONE', #89, #50 ) ;
#25 = DIRECTION ( 'NONE',  ( -3.491481338843133355E-15, 1.224646799147353207E-16, -1.000000000000000000 ) ) ;
#26 = AXIS2_PLACEMENT_3D ( 'NONE', #254, #25, #191 ) ;
#27 = FACE_OUTER_BOUND ( 'NONE', #105, .T. ) ;
#28 = CARTESIAN_POINT ( 'NONE',  ( 5.935518276033330648E-15, -2.081899558550501759E-16, 1.700000000000001288 ) ) ;
#29 = DIRECTION ( 'NONE',  ( 4.275831445896958607E-31, 1.000000000000000000, 1.224646799147353207E-16 ) ) ;
#30 = LOCAL_TIME ( 15, 5, 21.00000000000000000, #34 ) ;
#31 = ORIENTED_EDGE ( 'NONE', *, *, #142, .T. ) ;
#32 = CARTESIAN_POINT ( 'NONE',  ( 1.606081415867841091E-13, 1.199999999999999512, 46.00000000000000000 ) ) ;
#33 = FACE_OUTER_BOUND ( 'NONE', #52, .T. ) ;
#34 = COORDINATED_UNIVERSAL_TIME_OFFSET ( 1, 0, .AHEAD. ) ;
#35 = CC_DESIGN_PERSON_AND_ORGANIZATION_ASSIGNMENT ( #244, #21, ( #228 ) ) ;
#36 = COORDINATED_UNIVERSAL_TIME_OFFSET ( 1, 0, .AHEAD. ) ;
#37 = CIRCLE ( 'NONE', #121, 1.499999999999994893 ) ;
#38 = ORIENTED_EDGE ( 'NONE', *, *, #183, .T. ) ;
#39 = DATE_AND_TIME ( #290, #259 ) ;
#40 = EDGE_CURVE ( 'NONE', #64, #47, #209, .T. ) ;
#41 = APPROVAL_STATUS ( 'not_yet_approved' ) ;
#42 = FACE_OUTER_BOUND ( 'NONE', #8, .T. ) ;
#43 = CIRCLE ( 'NONE', #173, 1.200000000000005063 ) ;
#44 = PLANE ( 'NONE',  #258 ) ;
#45 = PERSON_AND_ORGANIZATION ( #250, #54 ) ;
#46 = EDGE_LOOP ( 'NONE', ( #94, #96, #132, #100 ) ) ;
#47 = VERTEX_POINT ( 'NONE', #219 ) ;
#48 = DIRECTION ( 'NONE',  ( -3.491481338843133355E-15, 1.224646799147353207E-16, -1.000000000000000000 ) ) ;
#49 = APPROVAL ( #41, 'UNSPECIFIED' ) ;
#50 = VECTOR ( 'NONE', #157, 1000.000000000000227 ) ;
#51 = CARTESIAN_POINT ( 'NONE',  ( 1.396592535537253342E-15, -4.898587196589413075E-17, 0.4000000000000000222 ) ) ;
#52 = EDGE_LOOP ( 'NONE', ( #295, #274, #232, #67 ) ) ;
#53 = CARTESIAN_POINT ( 'NONE',  ( -4.275831445896958716E-32, 1.499759782661857779E-33, -1.224646799147353269E-17 ) ) ;
#54 = ORGANIZATION ( 'UNSPECIFIED', 'UNSPECIFIED', '' ) ;
#55 = CARTESIAN_POINT ( 'NONE',  ( 4.189777606611759237E-15, -2.168404344971008868E-16, 1.199999999999999956 ) ) ;
#56 = APPROVAL_ROLE ( '' ) ;
#57 = CARTESIAN_POINT ( 'NONE',  ( -8.551662891793917432E-32, 2.999519565323715558E-33, -2.449293598294706538E-17 ) ) ;
#58 = AXIS2_PLACEMENT_3D ( 'NONE', #230, #144, #124 ) ;
#59 = DIRECTION ( 'NONE',  ( 4.336570031018966284E-31, 1.000000000000000000, 1.224646799147353207E-16 ) ) ;
#60 = PERSON_AND_ORGANIZATION ( #250, #54 ) ;
#61 = DIRECTION ( 'NONE',  ( -3.491481338843133355E-15, 1.224646799147353207E-16, -1.000000000000000000 ) ) ;
#62 = APPROVAL ( #108, 'UNSPECIFIED' ) ;
#63 = AXIS2_PLACEMENT_3D ( 'NONE', #161, #74, #207 ) ;
#64 = VERTEX_POINT ( 'NONE', #169 ) ;
#65 = COORDINATED_UNIVERSAL_TIME_OFFSET ( 1, 0, .AHEAD. ) ;
#66 = CARTESIAN_POINT ( 'NONE',  ( 1.307143947291875947E-14, -4.584843783258591798E-16, 3.743809061070292987 ) ) ;
#67 = ORIENTED_EDGE ( 'NONE', *, *, #40, .T. ) ;
#68 = VECTOR ( 'NONE', #189, 1000.000000000000227 ) ;
#69 = AXIS2_PLACEMENT_3D ( 'NONE', #28, #48, #126 ) ;
#70 = CARTESIAN_POINT ( 'NONE',  ( -1.710332578358783486E-31, -0.2000000000000000111, -4.898587196589413075E-17 ) ) ;
#71 = EDGE_LOOP ( 'NONE', ( #287, #31 ) ) ;
#72 = CARTESIAN_POINT ( 'NONE',  ( 4.189777606611759237E-15, -1.469576158976823553E-16, 1.199999999999999956 ) ) ;
#73 = ORIENTED_EDGE ( 'NONE', *, *, #190, .T. ) ;
#74 = DIRECTION ( 'NONE',  ( -3.491481338843133355E-15, 1.224646799147353207E-16, -1.000000000000000000 ) ) ;
#75 = ORIENTED_EDGE ( 'NONE', *, *, #183, .F. ) ;
#76 = CONICAL_SURFACE ( 'NONE', #220, 0.2000000000000000111, 0.03490658503988741668 ) ;
#77 = CIRCLE ( 'NONE', #299, 0.1860316922033005971 ) ;
#78 = DIRECTION ( 'NONE',  ( -3.491481338843133355E-15, 0.0000000000000000000, -1.000000000000000000 ) ) ;
#79 = PLANE ( 'NONE',  #216 ) ;
#80 = PERSON_AND_ORGANIZATION ( #250, #54 ) ;
#81 = ADVANCED_FACE ( 'NONE', ( #282, #198 ), #127, .F. ) ;
#82 = PERSON_AND_ORGANIZATION ( #250, #54 ) ;
#83 = ADVANCED_BREP_SHAPE_REPRESENTATION ( '997952', ( #14, #116, #109 ), #6 ) ;
#84 = APPROVAL_PERSON_ORGANIZATION ( #45, #49, #139 ) ;
#85 = APPROVAL_ROLE ( '' ) ;
#86 = ADVANCED_FACE ( 'NONE', ( #33 ), #76, .T. ) ;
#87 = EDGE_LOOP ( 'NONE', ( #75 ) ) ;
#88 = SECURITY_CLASSIFICATION_LEVEL ( 'unclassified' ) ;
#89 = CARTESIAN_POINT ( 'NONE',  ( 1.999658879033657579E-14, -7.013859184498929450E-16, 5.727250656582985044 ) ) ;
#90 = PRODUCT_DEFINITION ( 'UNKNOWN', '', #148, #113 ) ;
#91 = DIRECTION ( 'NONE',  ( 0.0000000000000000000, 1.000000000000000000, 0.0000000000000000000 ) ) ;
#92 = CC_DESIGN_PERSON_AND_ORGANIZATION_ASSIGNMENT ( #261, #270, ( #148 ) ) ;
#93 = CARTESIAN_POINT ( 'NONE',  ( 1.396592535537253342E-15, -1.165610181410012831E-16, 0.4000000000000000222 ) ) ;
#94 = ORIENTED_EDGE ( 'NONE', *, *, #165, .F. ) ;
#95 = DIRECTION ( 'NONE',  ( 3.491481338843133355E-15, -1.224646799147353207E-16, 1.000000000000000000 ) ) ;
#96 = ORIENTED_EDGE ( 'NONE', *, *, #40, .F. ) ;
#97 = CC_DESIGN_APPROVAL ( #62, ( #90 ) ) ;
#98 = CARTESIAN_POINT ( 'NONE',  ( 1.307143947291875947E-14, 1.499999999999994449, 3.743809061070292987 ) ) ;
#99 = VERTEX_POINT ( 'NONE', #153 ) ;
#100 = ORIENTED_EDGE ( 'NONE', *, *, #170, .F. ) ;
#101 = CARTESIAN_POINT ( 'NONE',  ( 1.606081415867841091E-13, -5.633375276077824704E-15, 46.00000000000000000 ) ) ;
#102 = CLOSED_SHELL ( 'NONE', ( #285, #251, #81, #112, #122, #257, #117 ) ) ;
#103 = AXIS2_PLACEMENT_3D ( 'NONE', #119, #227, #78 ) ;
#104 = DIRECTION ( 'NONE',  ( 0.0000000000000000000, 1.000000000000000000, 0.0000000000000000000 ) ) ;
#105 = EDGE_LOOP ( 'NONE', ( #203, #301 ) ) ;
#106 = CARTESIAN_POINT ( 'NONE',  ( 0.0000000000000000000, 0.0000000000000000000, 0.0000000000000000000 ) ) ;
#107 = APPLICATION_CONTEXT ( 'configuration controlled 3d designs of mechanical parts and assemblies' ) ;
#108 = APPROVAL_STATUS ( 'not_yet_approved' ) ;
#109 = AXIS2_PLACEMENT_3D ( 'NONE', #106, #156, #168 ) ;
#110 = DATE_TIME_ROLE ( 'creation_date' ) ;
#111 = CC_DESIGN_APPROVAL ( #199, ( #148 ) ) ;
#112 = ADVANCED_FACE ( 'NONE', ( #11, #13 ), #243, .T. ) ;
#113 = DESIGN_CONTEXT ( 'detailed design', #16, 'design' ) ;
#114 = CARTESIAN_POINT ( 'NONE',  ( 5.935518276033330648E-15, -2.081899558550501759E-16, 1.700000000000001288 ) ) ;
#115 = ORIENTED_EDGE ( 'NONE', *, *, #269, .T. ) ;
#116 = MANIFOLD_SOLID_BREP ( 'Corps-Déplacer/Copier1[2]', #215 ) ;
#117 = ADVANCED_FACE ( 'NONE', ( #200 ), #44, .F. ) ;
#118 = LINE ( 'NONE', #179, #130 ) ;
#119 = CARTESIAN_POINT ( 'NONE',  ( 0.0000000000000000000, 0.0000000000000000000, 0.0000000000000000000 ) ) ;
#120 = EDGE_LOOP ( 'NONE', ( #226 ) ) ;
#121 = AXIS2_PLACEMENT_3D ( 'NONE', #66, #224, #266 ) ;
#122 = ADVANCED_FACE ( 'NONE', ( #42, #23 ), #178, .T. ) ;
#123 = CYLINDRICAL_SURFACE ( 'NONE', #63, 0.1860316922033005971 ) ;
#124 = DIRECTION ( 'NONE',  ( -4.275831445896958607E-31, -1.000000000000000000, -1.224646799147353207E-16 ) ) ;
#125 = DIRECTION ( 'NONE',  ( 0.0000000000000000000, 1.000000000000000000, 0.0000000000000000000 ) ) ;
#126 = DIRECTION ( 'NONE',  ( 0.0000000000000000000, 1.000000000000000000, 0.0000000000000000000 ) ) ;
#127 = TOROIDAL_SURFACE ( 'NONE', #143, 1.186031692203300736, 1.000000000000000000 ) ;
#128 = APPROVAL_DATE_TIME ( #15, #62 ) ;
#129 = DIRECTION ( 'NONE',  ( 4.275831445896958607E-31, 1.000000000000000000, 1.224646799147353207E-16 ) ) ;
#130 = VECTOR ( 'NONE', #159, 1000.000000000000000 ) ;
#131 = CALENDAR_DATE ( 2021, 3, 12 ) ;
#132 = ORIENTED_EDGE ( 'NONE', *, *, #142, .F. ) ;
#133 = VERTEX_POINT ( 'NONE', #239 ) ;
#134 = DATE_AND_TIME ( #246, #205 ) ;
#135 = EDGE_CURVE ( 'NONE', #300, #300, #37, .T. ) ;
#136 = AXIS2_PLACEMENT_3D ( 'NONE', #137, #292, #91 ) ;
#137 = CARTESIAN_POINT ( 'NONE',  ( 1.595606971851311880E-13, -5.596635872103403844E-15, 45.69999999999999574 ) ) ;
#138 = CC_DESIGN_PERSON_AND_ORGANIZATION_ASSIGNMENT ( #60, #174, ( #148 ) ) ;
#139 = APPROVAL_ROLE ( '' ) ;
#140 = VERTEX_POINT ( 'NONE', #271 ) ;
#141 = CC_DESIGN_APPROVAL ( #49, ( #228 ) ) ;
#142 = EDGE_CURVE ( 'NONE', #140, #64, #248, .T. ) ;
#143 = AXIS2_PLACEMENT_3D ( 'NONE', #55, #152, #59 ) ;
#144 = DIRECTION ( 'NONE',  ( 3.491481338843133355E-15, -1.224646799147353207E-16, 1.000000000000000000 ) ) ;
#145 = CC_DESIGN_PERSON_AND_ORGANIZATION_ASSIGNMENT ( #80, #255, ( #192 ) ) ;
#146 = DIRECTION ( 'NONE',  ( -3.491481338843133355E-15, 1.224646799147353207E-16, -1.000000000000000000 ) ) ;
#147 = EDGE_LOOP ( 'NONE', ( #186 ) ) ;
#148 = PRODUCT_DEFINITION_FORMATION_WITH_SPECIFIED_SOURCE ( 'ANY', '', #192, .NOT_KNOWN. ) ;
#149 = FACE_OUTER_BOUND ( 'NONE', #264, .T. ) ;
#150 = ORIENTED_EDGE ( 'NONE', *, *, #242, .F. ) ;
#151 = APPROVAL_PERSON_ORGANIZATION ( #82, #62, #56 ) ;
#152 = DIRECTION ( 'NONE',  ( -3.491481338843133355E-15, 1.224646799147353207E-16, -1.000000000000000000 ) ) ;
#153 = CARTESIAN_POINT ( 'NONE',  ( 1.396592535537253342E-15, 0.1860316922033005416, 0.4000000000000000222 ) ) ;
#154 = DIRECTION ( 'NONE',  ( -3.491481338843133355E-15, 1.224646799147353207E-16, -1.000000000000000000 ) ) ;
#155 = CALENDAR_DATE ( 2021, 3, 12 ) ;
#156 = DIRECTION ( 'NONE',  ( 0.0000000000000000000, 0.0000000000000000000, 1.000000000000000000 ) ) ;
#157 = DIRECTION ( 'NONE',  ( 3.489354422748178188E-15, 0.03489949670250167002, 0.9993908270190956511 ) ) ;
#158 = AXIS2_PLACEMENT_3D ( 'NONE', #101, #146, #204 ) ;
#159 = DIRECTION ( 'NONE',  ( -4.275831445896958607E-31, -1.000000000000000000, -1.224646799147353207E-16 ) ) ;
#160 = CONICAL_SURFACE ( 'NONE', #158, 1.200000000000005063, 0.7853981633974453924 ) ;
#161 = CARTESIAN_POINT ( 'NONE',  ( 0.0000000000000000000, 0.0000000000000000000, 0.0000000000000000000 ) ) ;
#162 = DIRECTION ( 'NONE',  ( -4.275831445896958607E-31, -1.000000000000000000, -1.224646799147353207E-16 ) ) ;
#163 = ORIENTED_EDGE ( 'NONE', *, *, #190, .F. ) ;
#164 = DIRECTION ( 'NONE',  ( -3.491481338843133355E-15, 1.224646799147353207E-16, -1.000000000000000000 ) ) ;
#165 = EDGE_CURVE ( 'NONE', #47, #297, #118, .T. ) ;
#166 = PLANE ( 'NONE',  #185 ) ;
#167 = ORIENTED_EDGE ( 'NONE', *, *, #269, .F. ) ;
#168 = DIRECTION ( 'NONE',  ( 1.000000000000000000, 0.0000000000000000000, 0.0000000000000000000 ) ) ;
#169 = CARTESIAN_POINT ( 'NONE',  ( 1.396592535537253342E-15, 0.1860316922033005416, 0.4000000000000000222 ) ) ;
#170 = EDGE_CURVE ( 'NONE', #297, #140, #24, .T. ) ;
#171 = PERSON_AND_ORGANIZATION ( #250, #54 ) ;
#172 = CARTESIAN_POINT ( 'NONE',  ( 5.935518276033330648E-15, 0.3200062884188624168, 1.700000000000001288 ) ) ;
#173 = AXIS2_PLACEMENT_3D ( 'NONE', #184, #273, #277 ) ;
#174 = PERSON_AND_ORGANIZATION_ROLE ( 'creator' ) ;
#175 = CARTESIAN_POINT ( 'NONE',  ( 1.396592535537253342E-15, -4.898587196589413075E-17, 0.4000000000000000222 ) ) ;
#176 = UNCERTAINTY_MEASURE_WITH_UNIT (LENGTH_MEASURE( 1.000000000000000082E-05 ), #286, 'distance_accuracy_value', 'NONE');
#177 = AXIS2_PLACEMENT_3D ( 'NONE', #202, #19, #294 ) ;
#178 = CYLINDRICAL_SURFACE ( 'NONE', #177, 1.500000000000000000 ) ;
#179 = CARTESIAN_POINT ( 'NONE',  ( 0.0000000000000000000, 0.2000000000000000111, 0.0000000000000000000 ) ) ;
#180 = EDGE_LOOP ( 'NONE', ( #73 ) ) ;
#181 = CARTESIAN_POINT ( 'NONE',  ( 1.606081415867841091E-13, 8.998558695971099120E-33, 46.00000000000000000 ) ) ;
#182 = EDGE_LOOP ( 'NONE', ( #38 ) ) ;
#183 = EDGE_CURVE ( 'NONE', #275, #275, #211, .T. ) ;
#184 = CARTESIAN_POINT ( 'NONE',  ( 1.606081415867841091E-13, -5.633375276077824704E-15, 46.00000000000000000 ) ) ;
#185 = AXIS2_PLACEMENT_3D ( 'NONE', #53, #233, #29 ) ;
#186 = ORIENTED_EDGE ( 'NONE', *, *, #212, .T. ) ;
#187 = FACE_OUTER_BOUND ( 'NONE', #276, .T. ) ;
#188 = PLANE ( 'NONE',  #103 ) ;
#189 = DIRECTION ( 'NONE',  ( -3.489354422748178188E-15, 0.03489949670250191982, -0.9993908270190956511 ) ) ;
#190 = EDGE_CURVE ( 'NONE', #99, #99, #272, .T. ) ;
#191 = DIRECTION ( 'NONE',  ( 4.275831445896958607E-31, 1.000000000000000000, 1.224646799147353207E-16 ) ) ;
#192 = PRODUCT ( '997952', '997952', '', ( #218 ) ) ;
#193 = LOCAL_TIME ( 15, 5, 21.00000000000000000, #36 ) ;
#194 = COORDINATED_UNIVERSAL_TIME_OFFSET ( 1, 0, .AHEAD. ) ;
#195 = APPROVAL_STATUS ( 'not_yet_approved' ) ;
#196 = CIRCLE ( 'NONE', #260, 0.1860316922033005971 ) ;
#197 = APPROVAL_PERSON_ORGANIZATION ( #171, #199, #85 ) ;
#198 = FACE_OUTER_BOUND ( 'NONE', #268, .T. ) ;
#199 = APPROVAL ( #195, 'UNSPECIFIED' ) ;
#200 = FACE_OUTER_BOUND ( 'NONE', #22, .T. ) ;
#201 = ORIENTED_EDGE ( 'NONE', *, *, #135, .F. ) ;
#202 = CARTESIAN_POINT ( 'NONE',  ( 0.0000000000000000000, 0.0000000000000000000, 0.0000000000000000000 ) ) ;
#203 = ORIENTED_EDGE ( 'NONE', *, *, #280, .T. ) ;
#204 = DIRECTION ( 'NONE',  ( 0.0000000000000000000, 1.000000000000000000, 0.0000000000000000000 ) ) ;
#205 = LOCAL_TIME ( 15, 5, 21.00000000000000000, #65 ) ;
#206 = CARTESIAN_POINT ( 'NONE',  ( 1.396592535537253342E-15, -1.165610181410012831E-16, 0.4000000000000000222 ) ) ;
#207 = DIRECTION ( 'NONE',  ( 4.275831445896958607E-31, 1.000000000000000000, 1.224646799147353207E-16 ) ) ;
#208 = ADVANCED_FACE ( 'NONE', ( #278 ), #188, .T. ) ;
#209 = LINE ( 'NONE', #3, #68 ) ;
#210 = FACE_OUTER_BOUND ( 'NONE', #71, .T. ) ;
#211 = CIRCLE ( 'NONE', #136, 1.500000000000005107 ) ;
#212 = EDGE_CURVE ( 'NONE', #9, #9, #283, .T. ) ;
#213 =( NAMED_UNIT ( * ) SI_UNIT ( $, .STERADIAN. ) SOLID_ANGLE_UNIT ( ) );
#214 = PERSON_AND_ORGANIZATION_ROLE ( 'creator' ) ;
#215 = CLOSED_SHELL ( 'NONE', ( #298, #86, #240, #208 ) ) ;
#216 = AXIS2_PLACEMENT_3D ( 'NONE', #206, #249, #162 ) ;
#217 = DATE_AND_TIME ( #288, #193 ) ;
#218 = MECHANICAL_CONTEXT ( 'NONE', #107, 'mechanical' ) ;
#219 = CARTESIAN_POINT ( 'NONE',  ( 0.0000000000000000000, 0.2000000000000000111, 0.0000000000000000000 ) ) ;
#220 = AXIS2_PLACEMENT_3D ( 'NONE', #57, #154, #129 ) ;
#221 = DATE_TIME_ROLE ( 'classification_date' ) ;
#222 = APPROVAL_DATE_TIME ( #39, #49 ) ;
#223 = ORIENTED_EDGE ( 'NONE', *, *, #212, .F. ) ;
#224 = DIRECTION ( 'NONE',  ( -3.491481338843133355E-15, 1.224646799147353207E-16, -1.000000000000000000 ) ) ;
#225 = DIRECTION ( 'NONE',  ( 0.0000000000000000000, 1.000000000000000000, 0.0000000000000000000 ) ) ;
#226 = ORIENTED_EDGE ( 'NONE', *, *, #242, .T. ) ;
#227 = DIRECTION ( 'NONE',  ( 1.000000000000000000, 0.0000000000000000000, -3.491481338843133355E-15 ) ) ;
#228 = SECURITY_CLASSIFICATION ( '', '', #88 ) ;
#229 = CC_DESIGN_PERSON_AND_ORGANIZATION_ASSIGNMENT ( #237, #214, ( #90 ) ) ;
#230 = CARTESIAN_POINT ( 'NONE',  ( 1.396592535537253342E-15, -1.165610181410012831E-16, 0.4000000000000000222 ) ) ;
#231 = DIRECTION ( 'NONE',  ( -3.491481338843133355E-15, 1.224646799147353207E-16, -1.000000000000000000 ) ) ;
#232 = ORIENTED_EDGE ( 'NONE', *, *, #18, .T. ) ;
#233 = DIRECTION ( 'NONE',  ( -3.491481338843133355E-15, 1.224646799147353207E-16, -1.000000000000000000 ) ) ;
#234 = ORIENTED_EDGE ( 'NONE', *, *, #135, .T. ) ;
#235 = AXIS2_PLACEMENT_3D ( 'NONE', #114, #95, #293 ) ;
#236 = VERTEX_POINT ( 'NONE', #32 ) ;
#237 = PERSON_AND_ORGANIZATION ( #250, #54 ) ;
#238 = VECTOR ( 'NONE', #291, 1000.000000000000000 ) ;
#239 = CARTESIAN_POINT ( 'NONE',  ( 4.189777606611759237E-15, 0.1860316922033004583, 1.199999999999999956 ) ) ;
#240 = ADVANCED_FACE ( 'NONE', ( #210 ), #5, .T. ) ;
#241 =( NAMED_UNIT ( * ) PLANE_ANGLE_UNIT ( ) SI_UNIT ( $, .RADIAN. ) );
#242 = EDGE_CURVE ( 'NONE', #236, #236, #43, .T. ) ;
#243 = CONICAL_SURFACE ( 'NONE', #235, 0.3200062884188626389, 0.5235987755982999259 ) ;
#244 = PERSON_AND_ORGANIZATION ( #250, #54 ) ;
#245 = EDGE_LOOP ( 'NONE', ( #234 ) ) ;
#246 = CALENDAR_DATE ( 2021, 3, 12 ) ;
#247 = PRODUCT_RELATED_PRODUCT_CATEGORY ( 'detail', '', ( #192 ) ) ;
#248 = LINE ( 'NONE', #93, #238 ) ;
#249 = DIRECTION ( 'NONE',  ( 3.491481338843133355E-15, -1.224646799147353207E-16, 1.000000000000000000 ) ) ;
#250 = PERSON ( 'UNSPECIFIED', 'UNSPECIFIED', 'UNSPECIFIED', ('UNSPECIFIED'), ('UNSPECIFIED'), ('UNSPECIFIED') ) ;
#251 = ADVANCED_FACE ( 'NONE', ( #149, #187 ), #123, .T. ) ;
#252 = EDGE_LOOP ( 'NONE', ( #223 ) ) ;
#253 = CC_DESIGN_DATE_AND_TIME_ASSIGNMENT ( #134, #221, ( #228 ) ) ;
#254 = CARTESIAN_POINT ( 'NONE',  ( -8.551662891793917432E-32, 2.999519565323715558E-33, -2.449293598294706538E-17 ) ) ;
#255 = PERSON_AND_ORGANIZATION_ROLE ( 'design_owner' ) ;
#256 = PRODUCT_DEFINITION_SHAPE ( 'NONE', 'NONE',  #90 ) ;
#257 = ADVANCED_FACE ( 'NONE', ( #2, #296 ), #160, .T. ) ;
#258 = AXIS2_PLACEMENT_3D ( 'NONE', #181, #61, #267 ) ;
#259 = LOCAL_TIME ( 15, 5, 21.00000000000000000, #20 ) ;
#260 = AXIS2_PLACEMENT_3D ( 'NONE', #51, #231, #125 ) ;
#261 = PERSON_AND_ORGANIZATION ( #250, #54 ) ;
#262 = SHAPE_DEFINITION_REPRESENTATION ( #256, #83 ) ;
#263 = DIRECTION ( 'NONE',  ( -3.491481338843133355E-15, 1.224646799147353207E-16, -1.000000000000000000 ) ) ;
#264 = EDGE_LOOP ( 'NONE', ( #115 ) ) ;
#265 = LOCAL_TIME ( 15, 5, 21.00000000000000000, #194 ) ;
#266 = DIRECTION ( 'NONE',  ( 0.0000000000000000000, 1.000000000000000000, 0.0000000000000000000 ) ) ;
#267 = DIRECTION ( 'NONE',  ( 4.275831445896958607E-31, 1.000000000000000000, 1.224646799147353207E-16 ) ) ;
#268 = EDGE_LOOP ( 'NONE', ( #167 ) ) ;
#269 = EDGE_CURVE ( 'NONE', #133, #133, #77, .T. ) ;
#270 = PERSON_AND_ORGANIZATION_ROLE ( 'design_supplier' ) ;
#271 = CARTESIAN_POINT ( 'NONE',  ( 1.396592535537253145E-15, -0.1860316922033006526, 0.3999999999999999112 ) ) ;
#272 = CIRCLE ( 'NONE', #289, 0.1860316922033005971 ) ;
#273 = DIRECTION ( 'NONE',  ( -3.491481338843133355E-15, 1.224646799147353207E-16, -1.000000000000000000 ) ) ;
#274 = ORIENTED_EDGE ( 'NONE', *, *, #170, .T. ) ;
#275 = VERTEX_POINT ( 'NONE', #1 ) ;
#276 = EDGE_LOOP ( 'NONE', ( #163 ) ) ;
#277 = DIRECTION ( 'NONE',  ( 0.0000000000000000000, 1.000000000000000000, 0.0000000000000000000 ) ) ;
#278 = FACE_OUTER_BOUND ( 'NONE', #46, .T. ) ;
#279 = FACE_OUTER_BOUND ( 'NONE', #180, .T. ) ;
#280 = EDGE_CURVE ( 'NONE', #297, #47, #17, .T. ) ;
#281 = APPLICATION_PROTOCOL_DEFINITION ( 'international standard', 'config_control_design', 1994, #16 ) ;
#282 = FACE_OUTER_BOUND ( 'NONE', #147, .T. ) ;
#283 = CIRCLE ( 'NONE', #69, 0.3200062884188626389 ) ;
#284 = DATE_AND_TIME ( #131, #265 ) ;
#285 = ADVANCED_FACE ( 'NONE', ( #279 ), #79, .F. ) ;
#286 =( LENGTH_UNIT ( ) NAMED_UNIT ( * ) SI_UNIT ( .MILLI., .METRE. ) );
#287 = ORIENTED_EDGE ( 'NONE', *, *, #18, .F. ) ;
#288 = CALENDAR_DATE ( 2021, 3, 12 ) ;
#289 = AXIS2_PLACEMENT_3D ( 'NONE', #175, #263, #104 ) ;
#290 = CALENDAR_DATE ( 2021, 3, 12 ) ;
#291 = DIRECTION ( 'NONE',  ( 4.275831445896958607E-31, 1.000000000000000000, 1.224646799147353207E-16 ) ) ;
#292 = DIRECTION ( 'NONE',  ( -3.491481338843133355E-15, 1.224646799147353207E-16, -1.000000000000000000 ) ) ;
#293 = DIRECTION ( 'NONE',  ( 0.0000000000000000000, -1.000000000000000000, 0.0000000000000000000 ) ) ;
#294 = DIRECTION ( 'NONE',  ( 4.275831445896959482E-31, 1.000000000000000000, 1.224646799147353207E-16 ) ) ;
#295 = ORIENTED_EDGE ( 'NONE', *, *, #280, .F. ) ;
#296 = FACE_BOUND ( 'NONE', #120, .T. ) ;
#297 = VERTEX_POINT ( 'NONE', #70 ) ;
#298 = ADVANCED_FACE ( 'NONE', ( #27 ), #166, .T. ) ;
#299 = AXIS2_PLACEMENT_3D ( 'NONE', #72, #164, #225 ) ;
#300 = VERTEX_POINT ( 'NONE', #98 ) ;
#301 = ORIENTED_EDGE ( 'NONE', *, *, #165, .T. ) ;
ENDSEC;
END-ISO-10303-21;
