ISO-10303-21;
HEADER;
FILE_DESCRIPTION (( 'STEP AP203' ),
    '1' );
FILE_NAME ('997951.step',
    '2021-12-03T14:05:20',
    ( '' ),
    ( '' ),
    'SwSTEP 2.0',
    'SolidWorks 2019',
    '' );
FILE_SCHEMA (( 'CONFIG_CONTROL_DESIGN' ));
ENDSEC;

DATA;
#1 = DIRECTION ( 'NONE',  ( -3.489354422748178188E-15, 0.03489949670250191982, -0.9993908270190956511 ) ) ;
#2 = SECURITY_CLASSIFICATION_LEVEL ( 'unclassified' ) ;
#3 = DIRECTION ( 'NONE',  ( -3.491481338843133355E-15, 1.224646799147353207E-16, -1.000000000000000000 ) ) ;
#4 = ORIENTED_EDGE ( 'NONE', *, *, #262, .F. ) ;
#5 = MECHANICAL_CONTEXT ( 'NONE', #135, 'mechanical' ) ;
#6 = AXIS2_PLACEMENT_3D ( 'NONE', #45, #29, #131 ) ;
#7 = FACE_BOUND ( 'NONE', #68, .T. ) ;
#8 = ORIENTED_EDGE ( 'NONE', *, *, #37, .T. ) ;
#9 = CARTESIAN_POINT ( 'NONE',  ( 1.167484693738150770E-14, 1.499999999999994449, 3.343809061070293076 ) ) ;
#10 = ADVANCED_FACE ( 'NONE', ( #56 ), #12, .F. ) ;
#11 = ORIENTED_EDGE ( 'NONE', *, *, #146, .F. ) ;
#12 = PLANE ( 'NONE',  #283 ) ;
#13 = APPROVAL_PERSON_ORGANIZATION ( #201, #79, #220 ) ;
#14 = EDGE_CURVE ( 'NONE', #158, #158, #134, .T. ) ;
#15 = DIRECTION ( 'NONE',  ( 4.275831445896958607E-31, 1.000000000000000000, 1.224646799147353207E-16 ) ) ;
#16 = CARTESIAN_POINT ( 'NONE',  ( 1.999658879033657579E-14, -7.013859184498929450E-16, 5.727250656582985044 ) ) ;
#17 = ORIENTED_EDGE ( 'NONE', *, *, #14, .F. ) ;
#18 = EDGE_LOOP ( 'NONE', ( #153, #229, #221, #224 ) ) ;
#19 = LOCAL_TIME ( 15, 5, 20.00000000000000000, #155 ) ;
#20 = CARTESIAN_POINT ( 'NONE',  ( 1.167484693738150770E-14, -4.094985063599650613E-16, 3.343809061070293076 ) ) ;
#21 = FACE_OUTER_BOUND ( 'NONE', #43, .T. ) ;
#22 = DIRECTION ( 'NONE',  ( 0.0000000000000000000, -1.000000000000000000, 0.0000000000000000000 ) ) ;
#23 = AXIS2_PLACEMENT_3D ( 'NONE', #274, #214, #67 ) ;
#24 = DIRECTION ( 'NONE',  ( 0.0000000000000000000, 1.000000000000000000, 0.0000000000000000000 ) ) ;
#25 = PERSON_AND_ORGANIZATION_ROLE ( 'creator' ) ;
#26 = PERSON_AND_ORGANIZATION ( #111, #138 ) ;
#27 = CARTESIAN_POINT ( 'NONE',  ( 1.396592535537253342E-15, 0.1860316922033005416, 0.4000000000000000222 ) ) ;
#28 = DIRECTION ( 'NONE',  ( 3.491481338843133355E-15, -1.224646799147353207E-16, 1.000000000000000000 ) ) ;
#29 = DIRECTION ( 'NONE',  ( -3.491481338843133355E-15, 1.224646799147353207E-16, -1.000000000000000000 ) ) ;
#30 = CONICAL_SURFACE ( 'NONE', #6, 1.200000000000005063, 0.7853981633974453924 ) ;
#31 = CARTESIAN_POINT ( 'NONE',  ( 1.396592535537253342E-15, -4.898587196589413075E-17, 0.4000000000000000222 ) ) ;
#32 = ORIENTED_EDGE ( 'NONE', *, *, #63, .F. ) ;
#33 = DIRECTION ( 'NONE',  ( 1.000000000000000000, 0.0000000000000000000, 0.0000000000000000000 ) ) ;
#34 = DIRECTION ( 'NONE',  ( 3.491481338843133355E-15, -1.224646799147353207E-16, 1.000000000000000000 ) ) ;
#35 = CC_DESIGN_PERSON_AND_ORGANIZATION_ASSIGNMENT ( #26, #226, ( #232 ) ) ;
#36 = EDGE_LOOP ( 'NONE', ( #263 ) ) ;
#37 = EDGE_CURVE ( 'NONE', #218, #218, #287, .T. ) ;
#38 = CALENDAR_DATE ( 2021, 3, 12 ) ;
#39 = DIRECTION ( 'NONE',  ( -3.491481338843133355E-15, 1.224646799147353207E-16, -1.000000000000000000 ) ) ;
#40 =( GEOMETRIC_REPRESENTATION_CONTEXT ( 3 ) GLOBAL_UNCERTAINTY_ASSIGNED_CONTEXT ( ( #160 ) ) GLOBAL_UNIT_ASSIGNED_CONTEXT ( ( #49, #76, #83 ) ) REPRESENTATION_CONTEXT ( 'NONE', 'WORKASPACE' ) );
#41 = DATE_TIME_ROLE ( 'classification_date' ) ;
#42 = DIRECTION ( 'NONE',  ( -3.491481338843133355E-15, 1.224646799147353207E-16, -1.000000000000000000 ) ) ;
#43 = EDGE_LOOP ( 'NONE', ( #4 ) ) ;
#44 = CIRCLE ( 'NONE', #123, 0.2000000000000000111 ) ;
#45 = CARTESIAN_POINT ( 'NONE',  ( 1.606081415867841091E-13, -5.633375276077824704E-15, 46.00000000000000000 ) ) ;
#46 = DATE_AND_TIME ( #298, #273 ) ;
#47 = LINE ( 'NONE', #125, #222 ) ;
#48 = EDGE_LOOP ( 'NONE', ( #202 ) ) ;
#49 =( LENGTH_UNIT ( ) NAMED_UNIT ( * ) SI_UNIT ( .MILLI., .METRE. ) );
#50 = ORIENTED_EDGE ( 'NONE', *, *, #217, .T. ) ;
#51 = VERTEX_POINT ( 'NONE', #261 ) ;
#52 = DIRECTION ( 'NONE',  ( -3.491481338843133355E-15, 1.224646799147353207E-16, -1.000000000000000000 ) ) ;
#53 = APPROVAL_ROLE ( '' ) ;
#54 = VECTOR ( 'NONE', #87, 1000.000000000000000 ) ;
#55 = AXIS2_PLACEMENT_3D ( 'NONE', #210, #3, #24 ) ;
#56 = FACE_OUTER_BOUND ( 'NONE', #173, .T. ) ;
#57 = CARTESIAN_POINT ( 'NONE',  ( 4.538925740496078095E-15, -1.592040838891560821E-16, 1.300000000000001155 ) ) ;
#58 = CC_DESIGN_SECURITY_CLASSIFICATION ( #154, ( #232 ) ) ;
#59 = EDGE_LOOP ( 'NONE', ( #107 ) ) ;
#60 = DIRECTION ( 'NONE',  ( 4.275831445896958607E-31, 1.000000000000000000, 1.224646799147353207E-16 ) ) ;
#61 = CIRCLE ( 'NONE', #225, 0.1860316922033005971 ) ;
#62 = EDGE_LOOP ( 'NONE', ( #101 ) ) ;
#63 = EDGE_CURVE ( 'NONE', #175, #236, #181, .T. ) ;
#64 = CALENDAR_DATE ( 2021, 3, 12 ) ;
#65 = FACE_OUTER_BOUND ( 'NONE', #195, .T. ) ;
#66 = AXIS2_PLACEMENT_3D ( 'NONE', #289, #42, #235 ) ;
#67 = DIRECTION ( 'NONE',  ( -3.491481338843133355E-15, 0.0000000000000000000, -1.000000000000000000 ) ) ;
#68 = EDGE_LOOP ( 'NONE', ( #17 ) ) ;
#69 = DIRECTION ( 'NONE',  ( 0.0000000000000000000, 1.000000000000000000, 0.0000000000000000000 ) ) ;
#70 = ORIENTED_EDGE ( 'NONE', *, *, #217, .F. ) ;
#71 = DIRECTION ( 'NONE',  ( 0.0000000000000000000, 1.000000000000000000, 0.0000000000000000000 ) ) ;
#72 = EDGE_LOOP ( 'NONE', ( #115, #122 ) ) ;
#73 = LOCAL_TIME ( 15, 5, 20.00000000000000000, #208 ) ;
#74 = PRODUCT ( '997951', '997951', '', ( #5 ) ) ;
#75 = DIRECTION ( 'NONE',  ( -4.275831445896958607E-31, -1.000000000000000000, -1.224646799147353207E-16 ) ) ;
#76 =( NAMED_UNIT ( * ) PLANE_ANGLE_UNIT ( ) SI_UNIT ( $, .RADIAN. ) );
#77 = CARTESIAN_POINT ( 'NONE',  ( 1.396592535537253145E-15, -0.1860316922033006526, 0.3999999999999999112 ) ) ;
#78 = ADVANCED_FACE ( 'NONE', ( #268 ), #139, .T. ) ;
#79 = APPROVAL ( #267, 'UNSPECIFIED' ) ;
#80 = AXIS2_PLACEMENT_3D ( 'NONE', #227, #159, #205 ) ;
#81 = CC_DESIGN_APPROVAL ( #79, ( #154 ) ) ;
#82 = ADVANCED_BREP_SHAPE_REPRESENTATION ( '997951', ( #191, #105, #200 ), #40 ) ;
#83 =( NAMED_UNIT ( * ) SI_UNIT ( $, .STERADIAN. ) SOLID_ANGLE_UNIT ( ) );
#84 = APPROVAL ( #174, 'UNSPECIFIED' ) ;
#85 = CIRCLE ( 'NONE', #104, 0.1860316922033006248 ) ;
#86 = DATE_AND_TIME ( #64, #130 ) ;
#87 = DIRECTION ( 'NONE',  ( -4.275831445896958607E-31, -1.000000000000000000, -1.224646799147353207E-16 ) ) ;
#88 = ADVANCED_FACE ( 'NONE', ( #65, #204 ), #179, .T. ) ;
#89 = LINE ( 'NONE', #16, #176 ) ;
#90 = COORDINATED_UNIVERSAL_TIME_OFFSET ( 1, 0, .AHEAD. ) ;
#91 = CLOSED_SHELL ( 'NONE', ( #10, #136, #124, #243, #88, #299, #286 ) ) ;
#92 = CONICAL_SURFACE ( 'NONE', #149, 0.3200062884188630830, 0.5235987755982998149 ) ;
#93 = CC_DESIGN_PERSON_AND_ORGANIZATION_ASSIGNMENT ( #150, #233, ( #232 ) ) ;
#94 = FACE_OUTER_BOUND ( 'NONE', #292, .T. ) ;
#95 = DIRECTION ( 'NONE',  ( -3.491481338843133355E-15, 1.224646799147353207E-16, -1.000000000000000000 ) ) ;
#96 = EDGE_LOOP ( 'NONE', ( #301, #50 ) ) ;
#97 = CC_DESIGN_APPROVAL ( #118, ( #232 ) ) ;
#98 = DIRECTION ( 'NONE',  ( 4.275831445896958607E-31, 1.000000000000000000, 1.224646799147353207E-16 ) ) ;
#99 = APPROVAL_DATE_TIME ( #46, #118 ) ;
#100 = CARTESIAN_POINT ( 'NONE',  ( 2.793185071074506684E-15, -9.797174393178826150E-17, 0.8000000000000000444 ) ) ;
#101 = ORIENTED_EDGE ( 'NONE', *, *, #146, .T. ) ;
#102 = PERSON_AND_ORGANIZATION ( #111, #138 ) ;
#103 = PLANE ( 'NONE',  #215 ) ;
#104 = AXIS2_PLACEMENT_3D ( 'NONE', #100, #147, #126 ) ;
#105 = MANIFOLD_SOLID_BREP ( 'Corps-Déplacer/Copier1[2]', #255 ) ;
#106 = CARTESIAN_POINT ( 'NONE',  ( 1.396592535537253342E-15, -1.165610181410012831E-16, 0.4000000000000000222 ) ) ;
#107 = ORIENTED_EDGE ( 'NONE', *, *, #14, .T. ) ;
#108 = VERTEX_POINT ( 'NONE', #27 ) ;
#109 = VERTEX_POINT ( 'NONE', #264 ) ;
#110 = LOCAL_TIME ( 15, 5, 20.00000000000000000, #242 ) ;
#111 = PERSON ( 'UNSPECIFIED', 'UNSPECIFIED', 'UNSPECIFIED', ('UNSPECIFIED'), ('UNSPECIFIED'), ('UNSPECIFIED') ) ;
#112 = FACE_OUTER_BOUND ( 'NONE', #48, .T. ) ;
#113 = EDGE_CURVE ( 'NONE', #236, #248, #89, .T. ) ;
#114 = DESIGN_CONTEXT ( 'detailed design', #290, 'design' ) ;
#115 = ORIENTED_EDGE ( 'NONE', *, *, #254, .T. ) ;
#116 = CARTESIAN_POINT ( 'NONE',  ( -4.275831445896958716E-32, 1.499759782661857779E-33, -1.224646799147353269E-17 ) ) ;
#117 = DATE_AND_TIME ( #120, #73 ) ;
#118 = APPROVAL ( #253, 'UNSPECIFIED' ) ;
#119 = CYLINDRICAL_SURFACE ( 'NONE', #66, 0.1860316922033006248 ) ;
#120 = CALENDAR_DATE ( 2021, 3, 12 ) ;
#121 = CARTESIAN_POINT ( 'NONE',  ( 1.595606971851311880E-13, -5.596635872103403844E-15, 45.69999999999999574 ) ) ;
#122 = ORIENTED_EDGE ( 'NONE', *, *, #63, .T. ) ;
#123 = AXIS2_PLACEMENT_3D ( 'NONE', #172, #52, #98 ) ;
#124 = ADVANCED_FACE ( 'NONE', ( #296, #94 ), #246, .F. ) ;
#125 = CARTESIAN_POINT ( 'NONE',  ( 1.999658879033657579E-14, -7.013859184498929450E-16, 5.727250656582985044 ) ) ;
#126 = DIRECTION ( 'NONE',  ( 0.0000000000000000000, 1.000000000000000000, 0.0000000000000000000 ) ) ;
#127 = VERTEX_POINT ( 'NONE', #272 ) ;
#128 = APPLICATION_PROTOCOL_DEFINITION ( 'international standard', 'config_control_design', 1994, #135 ) ;
#129 = DIRECTION ( 'NONE',  ( 4.275831445896958607E-31, 1.000000000000000000, 1.224646799147353207E-16 ) ) ;
#130 = LOCAL_TIME ( 15, 5, 20.00000000000000000, #90 ) ;
#131 = DIRECTION ( 'NONE',  ( 0.0000000000000000000, 1.000000000000000000, 0.0000000000000000000 ) ) ;
#132 = APPLICATION_PROTOCOL_DEFINITION ( 'international standard', 'config_control_design', 1994, #290 ) ;
#133 = DIRECTION ( 'NONE',  ( 0.0000000000000000000, 1.000000000000000000, 0.0000000000000000000 ) ) ;
#134 = CIRCLE ( 'NONE', #180, 0.3200062884188630830 ) ;
#135 = APPLICATION_CONTEXT ( 'configuration controlled 3d designs of mechanical parts and assemblies' ) ;
#136 = ADVANCED_FACE ( 'NONE', ( #166, #21 ), #119, .T. ) ;
#137 = AXIS2_PLACEMENT_3D ( 'NONE', #116, #251, #60 ) ;
#138 = ORGANIZATION ( 'UNSPECIFIED', 'UNSPECIFIED', '' ) ;
#139 = PLANE ( 'NONE',  #137 ) ;
#140 = CC_DESIGN_PERSON_AND_ORGANIZATION_ASSIGNMENT ( #102, #193, ( #154 ) ) ;
#141 = FACE_BOUND ( 'NONE', #36, .T. ) ;
#142 = ADVANCED_FACE ( 'NONE', ( #275 ), #103, .T. ) ;
#143 = CIRCLE ( 'NONE', #199, 1.500000000000005107 ) ;
#144 = APPROVAL_ROLE ( '' ) ;
#145 = CARTESIAN_POINT ( 'NONE',  ( 1.606081415867841091E-13, -5.633375276077824704E-15, 46.00000000000000000 ) ) ;
#146 = EDGE_CURVE ( 'NONE', #240, #240, #85, .T. ) ;
#147 = DIRECTION ( 'NONE',  ( -3.491481338843133355E-15, 1.224646799147353207E-16, -1.000000000000000000 ) ) ;
#148 = EDGE_LOOP ( 'NONE', ( #276 ) ) ;
#149 = AXIS2_PLACEMENT_3D ( 'NONE', #228, #252, #22 ) ;
#150 = PERSON_AND_ORGANIZATION ( #111, #138 ) ;
#151 = CARTESIAN_POINT ( 'NONE',  ( 4.538925740496078095E-15, 0.3200062884188629164, 1.300000000000001155 ) ) ;
#152 = PLANE ( 'NONE',  #23 ) ;
#153 = ORIENTED_EDGE ( 'NONE', *, *, #254, .F. ) ;
#154 = SECURITY_CLASSIFICATION ( '', '', #2 ) ;
#155 = COORDINATED_UNIVERSAL_TIME_OFFSET ( 1, 0, .AHEAD. ) ;
#156 = CARTESIAN_POINT ( 'NONE',  ( 1.396592535537253342E-15, -1.165610181410012831E-16, 0.4000000000000000222 ) ) ;
#157 = DIRECTION ( 'NONE',  ( -3.491481338843133355E-15, 1.224646799147353207E-16, -1.000000000000000000 ) ) ;
#158 = VERTEX_POINT ( 'NONE', #151 ) ;
#159 = DIRECTION ( 'NONE',  ( -3.491481338843133355E-15, 1.224646799147353207E-16, -1.000000000000000000 ) ) ;
#160 = UNCERTAINTY_MEASURE_WITH_UNIT (LENGTH_MEASURE( 1.000000000000000082E-05 ), #49, 'distance_accuracy_value', 'NONE');
#161 = AXIS2_PLACEMENT_3D ( 'NONE', #270, #95, #184 ) ;
#162 = EDGE_LOOP ( 'NONE', ( #8 ) ) ;
#163 = APPROVAL_DATE_TIME ( #244, #84 ) ;
#164 = PERSON_AND_ORGANIZATION ( #111, #138 ) ;
#165 = AXIS2_PLACEMENT_3D ( 'NONE', #20, #39, #291 ) ;
#166 = FACE_OUTER_BOUND ( 'NONE', #62, .T. ) ;
#167 = CARTESIAN_POINT ( 'NONE',  ( 1.396592535537253342E-15, -1.165610181410012831E-16, 0.4000000000000000222 ) ) ;
#168 = CARTESIAN_POINT ( 'NONE',  ( 1.606081415867841091E-13, 8.998558695971099120E-33, 46.00000000000000000 ) ) ;
#169 = ORIENTED_EDGE ( 'NONE', *, *, #282, .F. ) ;
#170 = DIRECTION ( 'NONE',  ( -3.491481338843133355E-15, 1.224646799147353207E-16, -1.000000000000000000 ) ) ;
#171 = CC_DESIGN_DATE_AND_TIME_ASSIGNMENT ( #117, #277, ( #211 ) ) ;
#172 = CARTESIAN_POINT ( 'NONE',  ( -8.551662891793917432E-32, 2.999519565323715558E-33, -2.449293598294706538E-17 ) ) ;
#173 = EDGE_LOOP ( 'NONE', ( #237 ) ) ;
#174 = APPROVAL_STATUS ( 'not_yet_approved' ) ;
#175 = VERTEX_POINT ( 'NONE', #279 ) ;
#176 = VECTOR ( 'NONE', #183, 1000.000000000000227 ) ;
#177 = EDGE_CURVE ( 'NONE', #109, #109, #266, .T. ) ;
#178 = APPROVAL_PERSON_ORGANIZATION ( #281, #84, #53 ) ;
#179 = CYLINDRICAL_SURFACE ( 'NONE', #80, 1.500000000000000000 ) ;
#180 = AXIS2_PLACEMENT_3D ( 'NONE', #57, #157, #133 ) ;
#181 = LINE ( 'NONE', #269, #54 ) ;
#182 = DIRECTION ( 'NONE',  ( -3.491481338843133355E-15, 1.224646799147353207E-16, -1.000000000000000000 ) ) ;
#183 = DIRECTION ( 'NONE',  ( 3.489354422748178188E-15, 0.03489949670250167002, 0.9993908270190956511 ) ) ;
#184 = DIRECTION ( 'NONE',  ( 4.336570031018966284E-31, 1.000000000000000000, 1.224646799147353207E-16 ) ) ;
#185 = EDGE_CURVE ( 'NONE', #248, #127, #247, .T. ) ;
#186 = DIRECTION ( 'NONE',  ( 4.275831445896958607E-31, 1.000000000000000000, 1.224646799147353207E-16 ) ) ;
#187 = AXIS2_PLACEMENT_3D ( 'NONE', #168, #182, #15 ) ;
#188 = ORIENTED_EDGE ( 'NONE', *, *, #113, .F. ) ;
#189 = LINE ( 'NONE', #106, #293 ) ;
#190 = PRODUCT_RELATED_PRODUCT_CATEGORY ( 'detail', '', ( #74 ) ) ;
#191 = MANIFOLD_SOLID_BREP ( 'Corps-Déplacer/Copier1[1]', #91 ) ;
#192 = FACE_OUTER_BOUND ( 'NONE', #257, .T. ) ;
#193 = PERSON_AND_ORGANIZATION_ROLE ( 'classification_officer' ) ;
#194 = CC_DESIGN_APPROVAL ( #84, ( #211 ) ) ;
#195 = EDGE_LOOP ( 'NONE', ( #241 ) ) ;
#196 = ADVANCED_FACE ( 'NONE', ( #231 ), #219, .T. ) ;
#197 = CARTESIAN_POINT ( 'NONE',  ( -1.710332578358783486E-31, -0.2000000000000000111, -4.898587196589413075E-17 ) ) ;
#198 = PERSON_AND_ORGANIZATION ( #111, #138 ) ;
#199 = AXIS2_PLACEMENT_3D ( 'NONE', #121, #280, #300 ) ;
#200 = AXIS2_PLACEMENT_3D ( 'NONE', #213, #265, #33 ) ;
#201 = PERSON_AND_ORGANIZATION ( #111, #138 ) ;
#202 = ORIENTED_EDGE ( 'NONE', *, *, #245, .F. ) ;
#203 = CC_DESIGN_PERSON_AND_ORGANIZATION_ASSIGNMENT ( #198, #260, ( #74 ) ) ;
#204 = FACE_OUTER_BOUND ( 'NONE', #148, .T. ) ;
#205 = DIRECTION ( 'NONE',  ( 4.275831445896959482E-31, 1.000000000000000000, 1.224646799147353207E-16 ) ) ;
#206 = COORDINATED_UNIVERSAL_TIME_OFFSET ( 1, 0, .AHEAD. ) ;
#207 = FACE_OUTER_BOUND ( 'NONE', #162, .T. ) ;
#208 = COORDINATED_UNIVERSAL_TIME_OFFSET ( 1, 0, .AHEAD. ) ;
#209 = DIRECTION ( 'NONE',  ( -3.491481338843133355E-15, 1.224646799147353207E-16, -1.000000000000000000 ) ) ;
#210 = CARTESIAN_POINT ( 'NONE',  ( 1.396592535537253342E-15, -4.898587196589413075E-17, 0.4000000000000000222 ) ) ;
#211 = PRODUCT_DEFINITION ( 'UNKNOWN', '', #232, #114 ) ;
#212 = ORIENTED_EDGE ( 'NONE', *, *, #177, .F. ) ;
#213 = CARTESIAN_POINT ( 'NONE',  ( 0.0000000000000000000, 0.0000000000000000000, 0.0000000000000000000 ) ) ;
#214 = DIRECTION ( 'NONE',  ( 1.000000000000000000, 0.0000000000000000000, -3.491481338843133355E-15 ) ) ;
#215 = AXIS2_PLACEMENT_3D ( 'NONE', #167, #28, #75 ) ;
#216 = CARTESIAN_POINT ( 'NONE',  ( 2.793185071074506684E-15, 0.1860316922033005138, 0.8000000000000000444 ) ) ;
#217 = EDGE_CURVE ( 'NONE', #248, #127, #189, .T. ) ;
#218 = VERTEX_POINT ( 'NONE', #9 ) ;
#219 = CONICAL_SURFACE ( 'NONE', #284, 0.2000000000000000111, 0.03490658503988741668 ) ;
#220 = APPROVAL_ROLE ( '' ) ;
#221 = ORIENTED_EDGE ( 'NONE', *, *, #185, .T. ) ;
#222 = VECTOR ( 'NONE', #1, 1000.000000000000227 ) ;
#223 = APPROVAL_DATE_TIME ( #295, #79 ) ;
#224 = ORIENTED_EDGE ( 'NONE', *, *, #282, .T. ) ;
#225 = AXIS2_PLACEMENT_3D ( 'NONE', #31, #238, #69 ) ;
#226 = PERSON_AND_ORGANIZATION_ROLE ( 'design_supplier' ) ;
#227 = CARTESIAN_POINT ( 'NONE',  ( 0.0000000000000000000, 0.0000000000000000000, 0.0000000000000000000 ) ) ;
#228 = CARTESIAN_POINT ( 'NONE',  ( 4.538925740496078095E-15, -1.592040838891560821E-16, 1.300000000000001155 ) ) ;
#229 = ORIENTED_EDGE ( 'NONE', *, *, #113, .T. ) ;
#230 = PERSON_AND_ORGANIZATION ( #111, #138 ) ;
#231 = FACE_OUTER_BOUND ( 'NONE', #18, .T. ) ;
#232 = PRODUCT_DEFINITION_FORMATION_WITH_SPECIFIED_SOURCE ( 'ANY', '', #74, .NOT_KNOWN. ) ;
#233 = PERSON_AND_ORGANIZATION_ROLE ( 'creator' ) ;
#234 = ADVANCED_FACE ( 'NONE', ( #259 ), #152, .T. ) ;
#235 = DIRECTION ( 'NONE',  ( 4.275831445896958607E-31, 1.000000000000000000, 1.224646799147353207E-16 ) ) ;
#236 = VERTEX_POINT ( 'NONE', #197 ) ;
#237 = ORIENTED_EDGE ( 'NONE', *, *, #262, .T. ) ;
#238 = DIRECTION ( 'NONE',  ( -3.491481338843133355E-15, 1.224646799147353207E-16, -1.000000000000000000 ) ) ;
#239 = EDGE_LOOP ( 'NONE', ( #32, #169, #70, #188 ) ) ;
#240 = VERTEX_POINT ( 'NONE', #216 ) ;
#241 = ORIENTED_EDGE ( 'NONE', *, *, #37, .F. ) ;
#242 = COORDINATED_UNIVERSAL_TIME_OFFSET ( 1, 0, .AHEAD. ) ;
#243 = ADVANCED_FACE ( 'NONE', ( #207, #7 ), #92, .T. ) ;
#244 = DATE_AND_TIME ( #249, #19 ) ;
#245 = EDGE_CURVE ( 'NONE', #51, #51, #143, .T. ) ;
#246 = TOROIDAL_SURFACE ( 'NONE', #161, 1.186031692203300514, 0.9999999999999997780 ) ;
#247 = CIRCLE ( 'NONE', #55, 0.1860316922033005971 ) ;
#248 = VERTEX_POINT ( 'NONE', #77 ) ;
#249 = CALENDAR_DATE ( 2021, 3, 12 ) ;
#250 = APPROVAL_PERSON_ORGANIZATION ( #164, #118, #144 ) ;
#251 = DIRECTION ( 'NONE',  ( -3.491481338843133355E-15, 1.224646799147353207E-16, -1.000000000000000000 ) ) ;
#252 = DIRECTION ( 'NONE',  ( 3.491481338843133355E-15, -1.224646799147353207E-16, 1.000000000000000000 ) ) ;
#253 = APPROVAL_STATUS ( 'not_yet_approved' ) ;
#254 = EDGE_CURVE ( 'NONE', #236, #175, #44, .T. ) ;
#255 = CLOSED_SHELL ( 'NONE', ( #78, #196, #142, #234 ) ) ;
#256 = AXIS2_PLACEMENT_3D ( 'NONE', #145, #209, #71 ) ;
#257 = EDGE_LOOP ( 'NONE', ( #212 ) ) ;
#258 = CC_DESIGN_DATE_AND_TIME_ASSIGNMENT ( #86, #41, ( #154 ) ) ;
#259 = FACE_OUTER_BOUND ( 'NONE', #239, .T. ) ;
#260 = PERSON_AND_ORGANIZATION_ROLE ( 'design_owner' ) ;
#261 = CARTESIAN_POINT ( 'NONE',  ( 1.595606971851311880E-13, 1.499999999999999334, 45.69999999999999574 ) ) ;
#262 = EDGE_CURVE ( 'NONE', #108, #108, #61, .T. ) ;
#263 = ORIENTED_EDGE ( 'NONE', *, *, #177, .T. ) ;
#264 = CARTESIAN_POINT ( 'NONE',  ( 1.606081415867841091E-13, 1.199999999999999512, 46.00000000000000000 ) ) ;
#265 = DIRECTION ( 'NONE',  ( 0.0000000000000000000, 0.0000000000000000000, 1.000000000000000000 ) ) ;
#266 = CIRCLE ( 'NONE', #256, 1.200000000000005063 ) ;
#267 = APPROVAL_STATUS ( 'not_yet_approved' ) ;
#268 = FACE_OUTER_BOUND ( 'NONE', #72, .T. ) ;
#269 = CARTESIAN_POINT ( 'NONE',  ( 0.0000000000000000000, 0.2000000000000000111, 0.0000000000000000000 ) ) ;
#270 = CARTESIAN_POINT ( 'NONE',  ( 2.793185071074506684E-15, 0.0000000000000000000, 0.8000000000000000444 ) ) ;
#271 = CC_DESIGN_PERSON_AND_ORGANIZATION_ASSIGNMENT ( #230, #25, ( #211 ) ) ;
#272 = CARTESIAN_POINT ( 'NONE',  ( 1.396592535537253342E-15, 0.1860316922033005416, 0.4000000000000000222 ) ) ;
#273 = LOCAL_TIME ( 15, 5, 20.00000000000000000, #206 ) ;
#274 = CARTESIAN_POINT ( 'NONE',  ( 0.0000000000000000000, 0.0000000000000000000, 0.0000000000000000000 ) ) ;
#275 = FACE_OUTER_BOUND ( 'NONE', #96, .T. ) ;
#276 = ORIENTED_EDGE ( 'NONE', *, *, #245, .T. ) ;
#277 = DATE_TIME_ROLE ( 'creation_date' ) ;
#278 = PLANE ( 'NONE',  #187 ) ;
#279 = CARTESIAN_POINT ( 'NONE',  ( 0.0000000000000000000, 0.2000000000000000111, 0.0000000000000000000 ) ) ;
#280 = DIRECTION ( 'NONE',  ( -3.491481338843133355E-15, 1.224646799147353207E-16, -1.000000000000000000 ) ) ;
#281 = PERSON_AND_ORGANIZATION ( #111, #138 ) ;
#282 = EDGE_CURVE ( 'NONE', #127, #175, #47, .T. ) ;
#283 = AXIS2_PLACEMENT_3D ( 'NONE', #156, #34, #285 ) ;
#284 = AXIS2_PLACEMENT_3D ( 'NONE', #297, #170, #186 ) ;
#285 = DIRECTION ( 'NONE',  ( -4.275831445896958607E-31, -1.000000000000000000, -1.224646799147353207E-16 ) ) ;
#286 = ADVANCED_FACE ( 'NONE', ( #192 ), #278, .F. ) ;
#287 = CIRCLE ( 'NONE', #165, 1.499999999999994893 ) ;
#288 = SHAPE_DEFINITION_REPRESENTATION ( #294, #82 ) ;
#289 = CARTESIAN_POINT ( 'NONE',  ( 0.0000000000000000000, 0.0000000000000000000, 0.0000000000000000000 ) ) ;
#290 = APPLICATION_CONTEXT ( 'configuration controlled 3d designs of mechanical parts and assemblies' ) ;
#291 = DIRECTION ( 'NONE',  ( 0.0000000000000000000, 1.000000000000000000, 0.0000000000000000000 ) ) ;
#292 = EDGE_LOOP ( 'NONE', ( #11 ) ) ;
#293 = VECTOR ( 'NONE', #129, 1000.000000000000000 ) ;
#294 = PRODUCT_DEFINITION_SHAPE ( 'NONE', 'NONE',  #211 ) ;
#295 = DATE_AND_TIME ( #38, #110 ) ;
#296 = FACE_OUTER_BOUND ( 'NONE', #59, .T. ) ;
#297 = CARTESIAN_POINT ( 'NONE',  ( -8.551662891793917432E-32, 2.999519565323715558E-33, -2.449293598294706538E-17 ) ) ;
#298 = CALENDAR_DATE ( 2021, 3, 12 ) ;
#299 = ADVANCED_FACE ( 'NONE', ( #112, #141 ), #30, .T. ) ;
#300 = DIRECTION ( 'NONE',  ( 0.0000000000000000000, 1.000000000000000000, 0.0000000000000000000 ) ) ;
#301 = ORIENTED_EDGE ( 'NONE', *, *, #185, .F. ) ;
ENDSEC;
END-ISO-10303-21;
