ISO-10303-21;
HEADER;
FILE_DESCRIPTION (( 'STEP AP203' ),
    '1' );
FILE_NAME ('997950.step',
    '2021-12-03T14:05:20',
    ( '' ),
    ( '' ),
    'SwSTEP 2.0',
    'SolidWorks 2019',
    '' );
FILE_SCHEMA (( 'CONFIG_CONTROL_DESIGN' ));
ENDSEC;

DATA;
#1 = EDGE_LOOP ( 'NONE', ( #210 ) ) ;
#2 = EDGE_LOOP ( 'NONE', ( #273 ) ) ;
#3 = PERSON ( 'UNSPECIFIED', 'UNSPECIFIED', 'UNSPECIFIED', ('UNSPECIFIED'), ('UNSPECIFIED'), ('UNSPECIFIED') ) ;
#4 = APPLICATION_PROTOCOL_DEFINITION ( 'international standard', 'config_control_design', 1994, #237 ) ;
#5 = TOROIDAL_SURFACE ( 'NONE', #280, 1.139523769152475552, 1.000000000000000000 ) ;
#6 = CONICAL_SURFACE ( 'NONE', #108, 0.2734983653680375104, 0.5235987755983000369 ) ;
#7 = DIRECTION ( 'NONE',  ( 0.0000000000000000000, 1.000000000000000000, 0.0000000000000000000 ) ) ;
#8 = DIRECTION ( 'NONE',  ( -3.491481338843133355E-15, 1.224646799147353207E-16, -1.000000000000000000 ) ) ;
#9 = CARTESIAN_POINT ( 'NONE',  ( -1.282749433769087451E-31, -0.1499999999999999667, -3.673940397442058882E-17 ) ) ;
#10 = VECTOR ( 'NONE', #148, 1000.000000000000227 ) ;
#11 = CC_DESIGN_PERSON_AND_ORGANIZATION_ASSIGNMENT ( #13, #257, ( #284 ) ) ;
#12 = APPROVAL_PERSON_ORGANIZATION ( #114, #231, #289 ) ;
#13 = PERSON_AND_ORGANIZATION ( #3, #240 ) ;
#14 = COORDINATED_UNIVERSAL_TIME_OFFSET ( 1, 0, .AHEAD. ) ;
#15 = LOCAL_TIME ( 15, 5, 20.00000000000000000, #147 ) ;
#16 = ADVANCED_FACE ( 'NONE', ( #89, #111 ), #6, .T. ) ;
#17 = DATE_TIME_ROLE ( 'creation_date' ) ;
#18 = DIRECTION ( 'NONE',  ( 0.0000000000000000000, 1.000000000000000000, 0.0000000000000000000 ) ) ;
#19 = AXIS2_PLACEMENT_3D ( 'NONE', #33, #150, #217 ) ;
#20 = LOCAL_TIME ( 15, 5, 20.00000000000000000, #66 ) ;
#21 = DIRECTION ( 'NONE',  ( 4.275831445896958607E-31, 1.000000000000000000, 1.224646799147353207E-16 ) ) ;
#22 = APPROVAL_STATUS ( 'not_yet_approved' ) ;
#23 = PRODUCT_DEFINITION_SHAPE ( 'NONE', 'NONE',  #284 ) ;
#24 = EDGE_LOOP ( 'NONE', ( #70 ) ) ;
#25 = DATE_TIME_ROLE ( 'classification_date' ) ;
#26 = PRODUCT_RELATED_PRODUCT_CATEGORY ( 'detail', '', ( #288 ) ) ;
#27 = CARTESIAN_POINT ( 'NONE',  ( 5.935518276033329859E-15, -2.081899558550501512E-16, 1.700000000000001066 ) ) ;
#28 = AXIS2_PLACEMENT_3D ( 'NONE', #168, #57, #212 ) ;
#29 = VERTEX_POINT ( 'NONE', #98 ) ;
#30 = DIRECTION ( 'NONE',  ( 0.0000000000000000000, 1.000000000000000000, 0.0000000000000000000 ) ) ;
#31 = FACE_OUTER_BOUND ( 'NONE', #247, .T. ) ;
#32 = APPLICATION_PROTOCOL_DEFINITION ( 'international standard', 'config_control_design', 1994, #165 ) ;
#33 = CARTESIAN_POINT ( 'NONE',  ( 0.0000000000000000000, 0.0000000000000000000, 0.0000000000000000000 ) ) ;
#34 = CC_DESIGN_PERSON_AND_ORGANIZATION_ASSIGNMENT ( #84, #262, ( #186 ) ) ;
#35 = AXIS2_PLACEMENT_3D ( 'NONE', #194, #45, #222 ) ;
#36 = DIRECTION ( 'NONE',  ( -3.491481338843133355E-15, 1.224646799147353207E-16, -1.000000000000000000 ) ) ;
#37 = EDGE_CURVE ( 'NONE', #29, #296, #127, .T. ) ;
#38 = CALENDAR_DATE ( 2021, 3, 12 ) ;
#39 = CC_DESIGN_APPROVAL ( #200, ( #171 ) ) ;
#40 = APPROVAL_DATE_TIME ( #82, #231 ) ;
#41 = FACE_OUTER_BOUND ( 'NONE', #136, .T. ) ;
#42 = LINE ( 'NONE', #235, #134 ) ;
#43 = AXIS2_PLACEMENT_3D ( 'NONE', #216, #8, #30 ) ;
#44 = CONICAL_SURFACE ( 'NONE', #159, 1.200000000000005063, 0.7853981633974453924 ) ;
#45 = DIRECTION ( 'NONE',  ( 1.000000000000000000, 0.0000000000000000000, -3.491481338843133355E-15 ) ) ;
#46 = ORIENTED_EDGE ( 'NONE', *, *, #173, .F. ) ;
#47 = ORIENTED_EDGE ( 'NONE', *, *, #80, .F. ) ;
#48 = AXIS2_PLACEMENT_3D ( 'NONE', #61, #270, #242 ) ;
#49 = ORIENTED_EDGE ( 'NONE', *, *, #239, .F. ) ;
#50 = ORIENTED_EDGE ( 'NONE', *, *, #239, .T. ) ;
#51 =( LENGTH_UNIT ( ) NAMED_UNIT ( * ) SI_UNIT ( .MILLI., .METRE. ) );
#52 = DIRECTION ( 'NONE',  ( -4.275831445896958607E-31, -1.000000000000000000, -1.224646799147353207E-16 ) ) ;
#53 = LOCAL_TIME ( 15, 5, 20.00000000000000000, #179 ) ;
#54 = CALENDAR_DATE ( 2021, 3, 12 ) ;
#55 = CARTESIAN_POINT ( 'NONE',  ( 1.335269255983292634E-14, -4.683494086443047830E-16, 3.824363146748825049 ) ) ;
#56 = PERSON_AND_ORGANIZATION ( #3, #240 ) ;
#57 = DIRECTION ( 'NONE',  ( -3.491481338843133355E-15, 1.224646799147353207E-16, -1.000000000000000000 ) ) ;
#58 = DATE_AND_TIME ( #125, #15 ) ;
#59 = SHAPE_DEFINITION_REPRESENTATION ( #23, #153 ) ;
#60 = AXIS2_PLACEMENT_3D ( 'NONE', #143, #285, #52 ) ;
#61 = CARTESIAN_POINT ( 'NONE',  ( 1.606081415867841091E-13, -5.633375276077824704E-15, 46.00000000000000000 ) ) ;
#62 = APPROVAL ( #282, 'UNSPECIFIED' ) ;
#63 = CARTESIAN_POINT ( 'NONE',  ( 1.335269255983292634E-14, 1.499999999999994449, 3.824363146748825049 ) ) ;
#64 = FACE_BOUND ( 'NONE', #181, .T. ) ;
#65 = EDGE_LOOP ( 'NONE', ( #46 ) ) ;
#66 = COORDINATED_UNIVERSAL_TIME_OFFSET ( 1, 0, .AHEAD. ) ;
#67 = AXIS2_PLACEMENT_3D ( 'NONE', #220, #154, #197 ) ;
#68 = DIRECTION ( 'NONE',  ( -3.491481338843133355E-15, 1.224646799147353207E-16, -1.000000000000000000 ) ) ;
#69 = VERTEX_POINT ( 'NONE', #128 ) ;
#70 = ORIENTED_EDGE ( 'NONE', *, *, #112, .F. ) ;
#71 = ORIENTED_EDGE ( 'NONE', *, *, #236, .F. ) ;
#72 = CIRCLE ( 'NONE', #77, 0.1395237691524754409 ) ;
#73 = CARTESIAN_POINT ( 'NONE',  ( -6.413747168845436158E-32, 2.249639673992785728E-33, -1.836970198721029441E-17 ) ) ;
#74 = ADVANCED_FACE ( 'NONE', ( #146, #31 ), #279, .T. ) ;
#75 = CLOSED_SHELL ( 'NONE', ( #169, #74, #118, #16, #267, #211, #135 ) ) ;
#76 = CARTESIAN_POINT ( 'NONE',  ( 4.189777606611759237E-15, -2.168404344971008868E-16, 1.199999999999999956 ) ) ;
#77 = AXIS2_PLACEMENT_3D ( 'NONE', #176, #94, #297 ) ;
#78 = PLANE ( 'NONE',  #28 ) ;
#79 = DIRECTION ( 'NONE',  ( -3.491481338843133355E-15, 1.224646799147353207E-16, -1.000000000000000000 ) ) ;
#80 = EDGE_CURVE ( 'NONE', #201, #201, #274, .T. ) ;
#81 = CARTESIAN_POINT ( 'NONE',  ( -6.413747168845436158E-32, 2.249639673992785728E-33, -1.836970198721029441E-17 ) ) ;
#82 = DATE_AND_TIME ( #265, #53 ) ;
#83 = CC_DESIGN_PERSON_AND_ORGANIZATION_ASSIGNMENT ( #56, #149, ( #288 ) ) ;
#84 = PERSON_AND_ORGANIZATION ( #3, #240 ) ;
#85 = CC_DESIGN_PERSON_AND_ORGANIZATION_ASSIGNMENT ( #269, #245, ( #171 ) ) ;
#86 = DIRECTION ( 'NONE',  ( -3.491481338843133355E-15, 1.224646799147353207E-16, -1.000000000000000000 ) ) ;
#87 = APPROVAL_STATUS ( 'not_yet_approved' ) ;
#88 = VERTEX_POINT ( 'NONE', #180 ) ;
#89 = FACE_OUTER_BOUND ( 'NONE', #254, .T. ) ;
#90 = APPROVAL_DATE_TIME ( #292, #200 ) ;
#91 = DIRECTION ( 'NONE',  ( 3.489354422748178188E-15, 0.03489949670250153124, 0.9993908270190956511 ) ) ;
#92 = EDGE_LOOP ( 'NONE', ( #49, #141, #142, #189 ) ) ;
#93 =( GEOMETRIC_REPRESENTATION_CONTEXT ( 3 ) GLOBAL_UNCERTAINTY_ASSIGNED_CONTEXT ( ( #263 ) ) GLOBAL_UNIT_ASSIGNED_CONTEXT ( ( #51, #230, #96 ) ) REPRESENTATION_CONTEXT ( 'NONE', 'WORKASPACE' ) );
#94 = DIRECTION ( 'NONE',  ( -3.491481338843133355E-15, 1.224646799147353207E-16, -1.000000000000000000 ) ) ;
#95 = DIRECTION ( 'NONE',  ( 0.0000000000000000000, -1.000000000000000000, 0.0000000000000000000 ) ) ;
#96 =( NAMED_UNIT ( * ) SI_UNIT ( $, .STERADIAN. ) SOLID_ANGLE_UNIT ( ) );
#97 = ORIENTED_EDGE ( 'NONE', *, *, #278, .F. ) ;
#98 = CARTESIAN_POINT ( 'NONE',  ( 1.047444401652938823E-15, 0.1395237691524754131, 0.2999999999999996558 ) ) ;
#99 = PLANE ( 'NONE',  #35 ) ;
#100 = MECHANICAL_CONTEXT ( 'NONE', #237, 'mechanical' ) ;
#101 = DIRECTION ( 'NONE',  ( 0.0000000000000000000, 1.000000000000000000, 0.0000000000000000000 ) ) ;
#102 = AXIS2_PLACEMENT_3D ( 'NONE', #166, #226, #252 ) ;
#103 = FACE_OUTER_BOUND ( 'NONE', #188, .T. ) ;
#104 = AXIS2_PLACEMENT_3D ( 'NONE', #55, #79, #101 ) ;
#105 = ADVANCED_FACE ( 'NONE', ( #255 ), #238, .T. ) ;
#106 = ORIENTED_EDGE ( 'NONE', *, *, #37, .T. ) ;
#107 = CARTESIAN_POINT ( 'NONE',  ( 1.047444401652938823E-15, -3.673940397442055800E-17, 0.2999999999999996558 ) ) ;
#108 = AXIS2_PLACEMENT_3D ( 'NONE', #27, #300, #95 ) ;
#109 = DATE_AND_TIME ( #54, #191 ) ;
#110 = CARTESIAN_POINT ( 'NONE',  ( 4.189777606611759237E-15, 0.1395237691524753021, 1.199999999999999956 ) ) ;
#111 = FACE_BOUND ( 'NONE', #65, .T. ) ;
#112 = EDGE_CURVE ( 'NONE', #264, #264, #221, .T. ) ;
#113 = ORIENTED_EDGE ( 'NONE', *, *, #236, .T. ) ;
#114 = PERSON_AND_ORGANIZATION ( #3, #240 ) ;
#115 = DIRECTION ( 'NONE',  ( 0.0000000000000000000, 1.000000000000000000, 0.0000000000000000000 ) ) ;
#116 = AXIS2_PLACEMENT_3D ( 'NONE', #73, #276, #283 ) ;
#117 = CC_DESIGN_APPROVAL ( #62, ( #284 ) ) ;
#118 = ADVANCED_FACE ( 'NONE', ( #103, #123 ), #5, .F. ) ;
#119 = EDGE_LOOP ( 'NONE', ( #138 ) ) ;
#120 = CARTESIAN_POINT ( 'NONE',  ( 5.935518276033329859E-15, -2.081899558550501512E-16, 1.700000000000001066 ) ) ;
#121 = CIRCLE ( 'NONE', #48, 1.200000000000005063 ) ;
#122 = FACE_OUTER_BOUND ( 'NONE', #119, .T. ) ;
#123 = FACE_OUTER_BOUND ( 'NONE', #2, .T. ) ;
#124 = DIRECTION ( 'NONE',  ( 4.337890336726151247E-31, 1.000000000000000000, 1.224646799147353207E-16 ) ) ;
#125 = CALENDAR_DATE ( 2021, 3, 12 ) ;
#126 = LOCAL_TIME ( 15, 5, 20.00000000000000000, #294 ) ;
#127 = LINE ( 'NONE', #233, #10 ) ;
#128 = CARTESIAN_POINT ( 'NONE',  ( 1.047444401652938823E-15, 0.1395237691524754131, 0.2999999999999996558 ) ) ;
#129 = EDGE_CURVE ( 'NONE', #156, #156, #175, .T. ) ;
#130 = AXIS2_PLACEMENT_3D ( 'NONE', #81, #36, #133 ) ;
#131 = CC_DESIGN_PERSON_AND_ORGANIZATION_ASSIGNMENT ( #177, #182, ( #171 ) ) ;
#132 = CARTESIAN_POINT ( 'NONE',  ( 0.0000000000000000000, 0.0000000000000000000, 0.0000000000000000000 ) ) ;
#133 = DIRECTION ( 'NONE',  ( 4.275831445896958607E-31, 1.000000000000000000, 1.224646799147353207E-16 ) ) ;
#134 = VECTOR ( 'NONE', #91, 1000.000000000000227 ) ;
#135 = ADVANCED_FACE ( 'NONE', ( #193 ), #78, .F. ) ;
#136 = EDGE_LOOP ( 'NONE', ( #162 ) ) ;
#137 = FACE_OUTER_BOUND ( 'NONE', #206, .T. ) ;
#138 = ORIENTED_EDGE ( 'NONE', *, *, #278, .T. ) ;
#139 = ADVANCED_FACE ( 'NONE', ( #196 ), #232, .T. ) ;
#140 = APPROVAL_PERSON_ORGANIZATION ( #170, #62, #218 ) ;
#141 = ORIENTED_EDGE ( 'NONE', *, *, #37, .F. ) ;
#142 = ORIENTED_EDGE ( 'NONE', *, *, #301, .F. ) ;
#143 = CARTESIAN_POINT ( 'NONE',  ( 1.047444401652939021E-15, 1.046260688501398192E-33, 0.2999999999999997113 ) ) ;
#144 = CLOSED_SHELL ( 'NONE', ( #192, #105, #139, #185 ) ) ;
#145 = VECTOR ( 'NONE', #261, 1000.000000000000000 ) ;
#146 = FACE_OUTER_BOUND ( 'NONE', #1, .T. ) ;
#147 = COORDINATED_UNIVERSAL_TIME_OFFSET ( 1, 0, .AHEAD. ) ;
#148 = DIRECTION ( 'NONE',  ( -3.489354422748178188E-15, 0.03489949670250178104, -0.9993908270190956511 ) ) ;
#149 = PERSON_AND_ORGANIZATION_ROLE ( 'design_owner' ) ;
#150 = DIRECTION ( 'NONE',  ( -3.491481338843133355E-15, 1.224646799147353207E-16, -1.000000000000000000 ) ) ;
#151 = AXIS2_PLACEMENT_3D ( 'NONE', #260, #152, #213 ) ;
#152 = DIRECTION ( 'NONE',  ( 3.491481338843133355E-15, -1.224646799147353207E-16, 1.000000000000000000 ) ) ;
#153 = ADVANCED_BREP_SHAPE_REPRESENTATION ( '997950', ( #248, #241, #102 ), #93 ) ;
#154 = DIRECTION ( 'NONE',  ( -3.491481338843133355E-15, 1.224646799147353207E-16, -1.000000000000000000 ) ) ;
#155 = DESIGN_CONTEXT ( 'detailed design', #165, 'design' ) ;
#156 = VERTEX_POINT ( 'NONE', #110 ) ;
#157 = FACE_OUTER_BOUND ( 'NONE', #163, .T. ) ;
#158 = ORIENTED_EDGE ( 'NONE', *, *, #256, .F. ) ;
#159 = AXIS2_PLACEMENT_3D ( 'NONE', #205, #203, #115 ) ;
#160 = PERSON_AND_ORGANIZATION ( #3, #240 ) ;
#161 = CARTESIAN_POINT ( 'NONE',  ( 0.0000000000000000000, 0.1499999999999999667, 0.0000000000000000000 ) ) ;
#162 = ORIENTED_EDGE ( 'NONE', *, *, #80, .T. ) ;
#163 = EDGE_LOOP ( 'NONE', ( #47 ) ) ;
#164 = APPROVAL_PERSON_ORGANIZATION ( #160, #200, #291 ) ;
#165 = APPLICATION_CONTEXT ( 'configuration controlled 3d designs of mechanical parts and assemblies' ) ;
#166 = CARTESIAN_POINT ( 'NONE',  ( 0.0000000000000000000, 0.0000000000000000000, 0.0000000000000000000 ) ) ;
#167 = VERTEX_POINT ( 'NONE', #9 ) ;
#168 = CARTESIAN_POINT ( 'NONE',  ( 1.606081415867841091E-13, 8.998558695971099120E-33, 46.00000000000000000 ) ) ;
#169 = ADVANCED_FACE ( 'NONE', ( #122 ), #174, .F. ) ;
#170 = PERSON_AND_ORGANIZATION ( #3, #240 ) ;
#171 = PRODUCT_DEFINITION_FORMATION_WITH_SPECIFIED_SOURCE ( 'ANY', '', #288, .NOT_KNOWN. ) ;
#172 = CARTESIAN_POINT ( 'NONE',  ( 1.047444401652939218E-15, -0.1395237691524754409, 0.2999999999999998224 ) ) ;
#173 = EDGE_CURVE ( 'NONE', #88, #88, #209, .T. ) ;
#174 = PLANE ( 'NONE',  #151 ) ;
#175 = CIRCLE ( 'NONE', #43, 0.1395237691524754409 ) ;
#176 = CARTESIAN_POINT ( 'NONE',  ( 1.047444401652938823E-15, -3.673940397442055800E-17, 0.2999999999999996558 ) ) ;
#177 = PERSON_AND_ORGANIZATION ( #3, #240 ) ;
#178 = CARTESIAN_POINT ( 'NONE',  ( 1.595606971851311880E-13, 1.499999999999999334, 45.69999999999999574 ) ) ;
#179 = COORDINATED_UNIVERSAL_TIME_OFFSET ( 1, 0, .AHEAD. ) ;
#180 = CARTESIAN_POINT ( 'NONE',  ( 5.935518276033329859E-15, 0.2734983653680372884, 1.700000000000001066 ) ) ;
#181 = EDGE_LOOP ( 'NONE', ( #244 ) ) ;
#182 = PERSON_AND_ORGANIZATION_ROLE ( 'creator' ) ;
#183 = LINE ( 'NONE', #286, #145 ) ;
#184 = VERTEX_POINT ( 'NONE', #172 ) ;
#185 = ADVANCED_FACE ( 'NONE', ( #258 ), #99, .T. ) ;
#186 = SECURITY_CLASSIFICATION ( '', '', #202 ) ;
#187 = LINE ( 'NONE', #272, #271 ) ;
#188 = EDGE_LOOP ( 'NONE', ( #251 ) ) ;
#189 = ORIENTED_EDGE ( 'NONE', *, *, #214, .F. ) ;
#190 = AXIS2_PLACEMENT_3D ( 'NONE', #215, #259, #195 ) ;
#191 = LOCAL_TIME ( 15, 5, 20.00000000000000000, #14 ) ;
#192 = ADVANCED_FACE ( 'NONE', ( #137 ), #266, .T. ) ;
#193 = FACE_OUTER_BOUND ( 'NONE', #268, .T. ) ;
#194 = CARTESIAN_POINT ( 'NONE',  ( 0.0000000000000000000, 0.0000000000000000000, 0.0000000000000000000 ) ) ;
#195 = DIRECTION ( 'NONE',  ( 0.0000000000000000000, 1.000000000000000000, 0.0000000000000000000 ) ) ;
#196 = FACE_OUTER_BOUND ( 'NONE', #290, .T. ) ;
#197 = DIRECTION ( 'NONE',  ( 4.275831445896958607E-31, 1.000000000000000000, 1.224646799147353207E-16 ) ) ;
#198 = APPROVAL_DATE_TIME ( #58, #62 ) ;
#199 = ORIENTED_EDGE ( 'NONE', *, *, #214, .T. ) ;
#200 = APPROVAL ( #22, 'UNSPECIFIED' ) ;
#201 = VERTEX_POINT ( 'NONE', #178 ) ;
#202 = SECURITY_CLASSIFICATION_LEVEL ( 'unclassified' ) ;
#203 = DIRECTION ( 'NONE',  ( -3.491481338843133355E-15, 1.224646799147353207E-16, -1.000000000000000000 ) ) ;
#204 = CALENDAR_DATE ( 2021, 3, 12 ) ;
#205 = CARTESIAN_POINT ( 'NONE',  ( 1.606081415867841091E-13, -5.633375276077824704E-15, 46.00000000000000000 ) ) ;
#206 = EDGE_LOOP ( 'NONE', ( #208, #50 ) ) ;
#207 = VERTEX_POINT ( 'NONE', #299 ) ;
#208 = ORIENTED_EDGE ( 'NONE', *, *, #225, .T. ) ;
#209 = CIRCLE ( 'NONE', #224, 0.2734983653680375104 ) ;
#210 = ORIENTED_EDGE ( 'NONE', *, *, #129, .T. ) ;
#211 = ADVANCED_FACE ( 'NONE', ( #157, #64 ), #44, .T. ) ;
#212 = DIRECTION ( 'NONE',  ( 4.275831445896958607E-31, 1.000000000000000000, 1.224646799147353207E-16 ) ) ;
#213 = DIRECTION ( 'NONE',  ( -4.275831445896958607E-31, -1.000000000000000000, -1.224646799147353207E-16 ) ) ;
#214 = EDGE_CURVE ( 'NONE', #167, #184, #42, .T. ) ;
#215 = CARTESIAN_POINT ( 'NONE',  ( 1.595606971851311880E-13, -5.596635872103403844E-15, 45.69999999999999574 ) ) ;
#216 = CARTESIAN_POINT ( 'NONE',  ( 4.189777606611759237E-15, -1.469576158976823553E-16, 1.199999999999999956 ) ) ;
#217 = DIRECTION ( 'NONE',  ( 4.275831445896959482E-31, 1.000000000000000000, 1.224646799147353207E-16 ) ) ;
#218 = APPROVAL_ROLE ( '' ) ;
#219 = AXIS2_PLACEMENT_3D ( 'NONE', #107, #68, #18 ) ;
#220 = CARTESIAN_POINT ( 'NONE',  ( -3.206873584422718079E-32, 1.124819836996392864E-33, -9.184850993605147205E-18 ) ) ;
#221 = CIRCLE ( 'NONE', #104, 1.499999999999994893 ) ;
#222 = DIRECTION ( 'NONE',  ( -3.491481338843133355E-15, 0.0000000000000000000, -1.000000000000000000 ) ) ;
#223 = DATE_AND_TIME ( #38, #126 ) ;
#224 = AXIS2_PLACEMENT_3D ( 'NONE', #120, #277, #7 ) ;
#225 = EDGE_CURVE ( 'NONE', #167, #296, #243, .T. ) ;
#226 = DIRECTION ( 'NONE',  ( 0.0000000000000000000, 0.0000000000000000000, 1.000000000000000000 ) ) ;
#227 = EDGE_LOOP ( 'NONE', ( #249, #199, #113, #106 ) ) ;
#228 = DIRECTION ( 'NONE',  ( -3.491481338843133355E-15, 1.224646799147353207E-16, -1.000000000000000000 ) ) ;
#229 = CIRCLE ( 'NONE', #219, 0.1395237691524754409 ) ;
#230 =( NAMED_UNIT ( * ) PLANE_ANGLE_UNIT ( ) SI_UNIT ( $, .RADIAN. ) );
#231 = APPROVAL ( #87, 'UNSPECIFIED' ) ;
#232 = PLANE ( 'NONE',  #60 ) ;
#233 = CARTESIAN_POINT ( 'NONE',  ( 1.499744159275248786E-14, -5.260394388374216316E-16, 4.295437992437254771 ) ) ;
#234 = CC_DESIGN_APPROVAL ( #231, ( #186 ) ) ;
#235 = CARTESIAN_POINT ( 'NONE',  ( 1.499744159275248786E-14, -5.260394388374216316E-16, 4.295437992437254771 ) ) ;
#236 = EDGE_CURVE ( 'NONE', #184, #29, #72, .T. ) ;
#237 = APPLICATION_CONTEXT ( 'configuration controlled 3d designs of mechanical parts and assemblies' ) ;
#238 = CONICAL_SURFACE ( 'NONE', #116, 0.1499999999999999667, 0.03490658503988727790 ) ;
#239 = EDGE_CURVE ( 'NONE', #296, #167, #183, .T. ) ;
#240 = ORGANIZATION ( 'UNSPECIFIED', 'UNSPECIFIED', '' ) ;
#241 = MANIFOLD_SOLID_BREP ( 'Corps-Déplacer/Copier1[2]', #144 ) ;
#242 = DIRECTION ( 'NONE',  ( 0.0000000000000000000, 1.000000000000000000, 0.0000000000000000000 ) ) ;
#243 = CIRCLE ( 'NONE', #130, 0.1499999999999999667 ) ;
#244 = ORIENTED_EDGE ( 'NONE', *, *, #256, .T. ) ;
#245 = PERSON_AND_ORGANIZATION_ROLE ( 'design_supplier' ) ;
#246 = FACE_OUTER_BOUND ( 'NONE', #24, .T. ) ;
#247 = EDGE_LOOP ( 'NONE', ( #97 ) ) ;
#248 = MANIFOLD_SOLID_BREP ( 'Corps-Déplacer/Copier1[1]', #75 ) ;
#249 = ORIENTED_EDGE ( 'NONE', *, *, #225, .F. ) ;
#250 = CC_DESIGN_DATE_AND_TIME_ASSIGNMENT ( #109, #17, ( #284 ) ) ;
#251 = ORIENTED_EDGE ( 'NONE', *, *, #173, .T. ) ;
#252 = DIRECTION ( 'NONE',  ( 1.000000000000000000, 0.0000000000000000000, 0.0000000000000000000 ) ) ;
#253 = CC_DESIGN_DATE_AND_TIME_ASSIGNMENT ( #223, #25, ( #186 ) ) ;
#254 = EDGE_LOOP ( 'NONE', ( #275 ) ) ;
#255 = FACE_OUTER_BOUND ( 'NONE', #227, .T. ) ;
#256 = EDGE_CURVE ( 'NONE', #207, #207, #121, .T. ) ;
#257 = PERSON_AND_ORGANIZATION_ROLE ( 'creator' ) ;
#258 = FACE_OUTER_BOUND ( 'NONE', #92, .T. ) ;
#259 = DIRECTION ( 'NONE',  ( -3.491481338843133355E-15, 1.224646799147353207E-16, -1.000000000000000000 ) ) ;
#260 = CARTESIAN_POINT ( 'NONE',  ( 1.047444401652939021E-15, 1.046260688501398192E-33, 0.2999999999999997113 ) ) ;
#261 = DIRECTION ( 'NONE',  ( -4.275831445896959482E-31, -1.000000000000000000, -1.224646799147353454E-16 ) ) ;
#262 = PERSON_AND_ORGANIZATION_ROLE ( 'classification_officer' ) ;
#263 = UNCERTAINTY_MEASURE_WITH_UNIT (LENGTH_MEASURE( 1.000000000000000082E-05 ), #51, 'distance_accuracy_value', 'NONE');
#264 = VERTEX_POINT ( 'NONE', #63 ) ;
#265 = CALENDAR_DATE ( 2021, 3, 12 ) ;
#266 = PLANE ( 'NONE',  #67 ) ;
#267 = ADVANCED_FACE ( 'NONE', ( #246, #41 ), #293, .T. ) ;
#268 = EDGE_LOOP ( 'NONE', ( #158 ) ) ;
#269 = PERSON_AND_ORGANIZATION ( #3, #240 ) ;
#270 = DIRECTION ( 'NONE',  ( -3.491481338843133355E-15, 1.224646799147353207E-16, -1.000000000000000000 ) ) ;
#271 = VECTOR ( 'NONE', #21, 1000.000000000000000 ) ;
#272 = CARTESIAN_POINT ( 'NONE',  ( 1.047444401652939021E-15, 1.046260688501398192E-33, 0.2999999999999997113 ) ) ;
#273 = ORIENTED_EDGE ( 'NONE', *, *, #129, .F. ) ;
#274 = CIRCLE ( 'NONE', #190, 1.500000000000005107 ) ;
#275 = ORIENTED_EDGE ( 'NONE', *, *, #112, .T. ) ;
#276 = DIRECTION ( 'NONE',  ( -3.491481338843133355E-15, 1.224646799147353207E-16, -1.000000000000000000 ) ) ;
#277 = DIRECTION ( 'NONE',  ( -3.491481338843133355E-15, 1.224646799147353207E-16, -1.000000000000000000 ) ) ;
#278 = EDGE_CURVE ( 'NONE', #69, #69, #229, .T. ) ;
#279 = CYLINDRICAL_SURFACE ( 'NONE', #19, 0.1395237691524754409 ) ;
#280 = AXIS2_PLACEMENT_3D ( 'NONE', #76, #228, #124 ) ;
#281 = CC_DESIGN_SECURITY_CLASSIFICATION ( #186, ( #171 ) ) ;
#282 = APPROVAL_STATUS ( 'not_yet_approved' ) ;
#283 = DIRECTION ( 'NONE',  ( 4.275831445896958607E-31, 1.000000000000000000, 1.224646799147353207E-16 ) ) ;
#284 = PRODUCT_DEFINITION ( 'UNKNOWN', '', #171, #155 ) ;
#285 = DIRECTION ( 'NONE',  ( 3.491481338843133355E-15, -1.224646799147353207E-16, 1.000000000000000000 ) ) ;
#286 = CARTESIAN_POINT ( 'NONE',  ( 0.0000000000000000000, 0.1499999999999999667, 0.0000000000000000000 ) ) ;
#287 = AXIS2_PLACEMENT_3D ( 'NONE', #132, #86, #295 ) ;
#288 = PRODUCT ( '997950', '997950', '', ( #100 ) ) ;
#289 = APPROVAL_ROLE ( '' ) ;
#290 = EDGE_LOOP ( 'NONE', ( #71, #298 ) ) ;
#291 = APPROVAL_ROLE ( '' ) ;
#292 = DATE_AND_TIME ( #204, #20 ) ;
#293 = CYLINDRICAL_SURFACE ( 'NONE', #287, 1.500000000000000000 ) ;
#294 = COORDINATED_UNIVERSAL_TIME_OFFSET ( 1, 0, .AHEAD. ) ;
#295 = DIRECTION ( 'NONE',  ( 4.275831445896959482E-31, 1.000000000000000000, 1.224646799147353207E-16 ) ) ;
#296 = VERTEX_POINT ( 'NONE', #161 ) ;
#297 = DIRECTION ( 'NONE',  ( 0.0000000000000000000, 1.000000000000000000, 0.0000000000000000000 ) ) ;
#298 = ORIENTED_EDGE ( 'NONE', *, *, #301, .T. ) ;
#299 = CARTESIAN_POINT ( 'NONE',  ( 1.606081415867841091E-13, 1.199999999999999512, 46.00000000000000000 ) ) ;
#300 = DIRECTION ( 'NONE',  ( 3.491481338843133355E-15, -1.224646799147353207E-16, 1.000000000000000000 ) ) ;
#301 = EDGE_CURVE ( 'NONE', #184, #29, #187, .T. ) ;
ENDSEC;
END-ISO-10303-21;
