ISO-10303-21;
HEADER;
FILE_DESCRIPTION (( 'STEP AP203' ),
    '1' );
FILE_NAME ('997949.step',
    '2021-12-03T14:05:19',
    ( '' ),
    ( '' ),
    'SwSTEP 2.0',
    'SolidWorks 2019',
    '' );
FILE_SCHEMA (( 'CONFIG_CONTROL_DESIGN' ));
ENDSEC;

DATA;
#1 = DIRECTION ( 'NONE',  ( -3.491481338843133355E-15, 1.224646799147353207E-16, -1.000000000000000000 ) ) ;
#2 = EDGE_LOOP ( 'NONE', ( #48 ) ) ;
#3 = TOROIDAL_SURFACE ( 'NONE', #209, 1.139523769152475552, 1.000000000000000000 ) ;
#4 = DIRECTION ( 'NONE',  ( 0.0000000000000000000, 1.000000000000000000, 0.0000000000000000000 ) ) ;
#5 = EDGE_LOOP ( 'NONE', ( #190 ) ) ;
#6 = CC_DESIGN_DATE_AND_TIME_ASSIGNMENT ( #224, #24, ( #127 ) ) ;
#7 = DIRECTION ( 'NONE',  ( 1.000000000000000000, 0.0000000000000000000, -3.491481338843133355E-15 ) ) ;
#8 = CARTESIAN_POINT ( 'NONE',  ( 1.595606971851311880E-13, 1.499999999999999334, 45.69999999999999574 ) ) ;
#9 = MANIFOLD_SOLID_BREP ( 'Corps-Déplacer/Copier1[1]', #258 ) ;
#10 = APPLICATION_PROTOCOL_DEFINITION ( 'international standard', 'config_control_design', 1994, #121 ) ;
#11 = DIRECTION ( 'NONE',  ( 0.0000000000000000000, 0.0000000000000000000, 1.000000000000000000 ) ) ;
#12 = EDGE_CURVE ( 'NONE', #23, #96, #292, .T. ) ;
#13 = PRODUCT_RELATED_PRODUCT_CATEGORY ( 'detail', '', ( #186 ) ) ;
#14 = COORDINATED_UNIVERSAL_TIME_OFFSET ( 1, 0, .AHEAD. ) ;
#15 = CARTESIAN_POINT ( 'NONE',  ( 3.142333204958820020E-15, -2.168404344971008868E-16, 0.9000000000000000222 ) ) ;
#16 = CIRCLE ( 'NONE', #259, 1.200000000000005063 ) ;
#17 = PERSON_AND_ORGANIZATION ( #283, #50 ) ;
#18 = FACE_OUTER_BOUND ( 'NONE', #158, .T. ) ;
#19 = PERSON_AND_ORGANIZATION ( #283, #50 ) ;
#20 = DIRECTION ( 'NONE',  ( 3.489354422748178188E-15, 0.03489949670250153124, 0.9993908270190956511 ) ) ;
#21 = DIRECTION ( 'NONE',  ( 3.491481338843133355E-15, -1.224646799147353207E-16, 1.000000000000000000 ) ) ;
#22 = CARTESIAN_POINT ( 'NONE',  ( 1.047444401652938823E-15, -3.673940397442055800E-17, 0.2999999999999996558 ) ) ;
#23 = VERTEX_POINT ( 'NONE', #36 ) ;
#24 = DATE_TIME_ROLE ( 'classification_date' ) ;
#25 = CARTESIAN_POINT ( 'NONE',  ( 1.606081415867841091E-13, -5.633375276077824704E-15, 46.00000000000000000 ) ) ;
#26 = EDGE_LOOP ( 'NONE', ( #71 ) ) ;
#27 = APPROVAL_PERSON_ORGANIZATION ( #61, #49, #110 ) ;
#28 = EDGE_LOOP ( 'NONE', ( #206 ) ) ;
#29 = CARTESIAN_POINT ( 'NONE',  ( 3.142333204958820020E-15, 0.1395237691524753298, 0.9000000000000000222 ) ) ;
#30 = ADVANCED_FACE ( 'NONE', ( #18 ), #200, .T. ) ;
#31 = MECHANICAL_CONTEXT ( 'NONE', #121, 'mechanical' ) ;
#32 = CARTESIAN_POINT ( 'NONE',  ( 1.047444401652938823E-15, 0.1395237691524754131, 0.2999999999999996558 ) ) ;
#33 = CONICAL_SURFACE ( 'NONE', #264, 1.200000000000005063, 0.7853981633974453924 ) ;
#34 = ORIENTED_EDGE ( 'NONE', *, *, #77, .F. ) ;
#35 = EDGE_CURVE ( 'NONE', #198, #198, #65, .T. ) ;
#36 = CARTESIAN_POINT ( 'NONE',  ( 0.0000000000000000000, 0.1499999999999999667, 0.0000000000000000000 ) ) ;
#37 = COORDINATED_UNIVERSAL_TIME_OFFSET ( 1, 0, .AHEAD. ) ;
#38 = DIRECTION ( 'NONE',  ( -3.491481338843133355E-15, 1.224646799147353207E-16, -1.000000000000000000 ) ) ;
#39 = CALENDAR_DATE ( 2021, 3, 12 ) ;
#40 = APPROVAL_DATE_TIME ( #177, #282 ) ;
#41 = CARTESIAN_POINT ( 'NONE',  ( 1.595606971851311880E-13, -5.596635872103403844E-15, 45.69999999999999574 ) ) ;
#42 = CALENDAR_DATE ( 2021, 3, 12 ) ;
#43 = DIRECTION ( 'NONE',  ( -3.491481338843133355E-15, 1.224646799147353207E-16, -1.000000000000000000 ) ) ;
#44 = EDGE_LOOP ( 'NONE', ( #66 ) ) ;
#45 = PLANE ( 'NONE',  #196 ) ;
#46 = FACE_OUTER_BOUND ( 'NONE', #277, .T. ) ;
#47 = AXIS2_PLACEMENT_3D ( 'NONE', #271, #62, #204 ) ;
#48 = ORIENTED_EDGE ( 'NONE', *, *, #35, .T. ) ;
#49 = APPROVAL ( #207, 'UNSPECIFIED' ) ;
#50 = ORGANIZATION ( 'UNSPECIFIED', 'UNSPECIFIED', '' ) ;
#51 = LOCAL_TIME ( 15, 5, 19.00000000000000000, #14 ) ;
#52 = CARTESIAN_POINT ( 'NONE',  ( -3.206873584422718079E-32, 1.124819836996392864E-33, -9.184850993605147205E-18 ) ) ;
#53 = CARTESIAN_POINT ( 'NONE',  ( 1.499744159275248786E-14, -5.260394388374216316E-16, 4.295437992437254771 ) ) ;
#54 = AXIS2_PLACEMENT_3D ( 'NONE', #263, #152, #148 ) ;
#55 = VERTEX_POINT ( 'NONE', #99 ) ;
#56 = CARTESIAN_POINT ( 'NONE',  ( 1.230524815817998948E-14, -4.316100046698843175E-16, 3.524363146748825670 ) ) ;
#57 = CC_DESIGN_APPROVAL ( #282, ( #213 ) ) ;
#58 = CC_DESIGN_PERSON_AND_ORGANIZATION_ASSIGNMENT ( #133, #67, ( #127 ) ) ;
#59 = CARTESIAN_POINT ( 'NONE',  ( 1.047444401652938823E-15, -3.673940397442055800E-17, 0.2999999999999996558 ) ) ;
#60 = COORDINATED_UNIVERSAL_TIME_OFFSET ( 1, 0, .AHEAD. ) ;
#61 = PERSON_AND_ORGANIZATION ( #283, #50 ) ;
#62 = DIRECTION ( 'NONE',  ( 3.491481338843133355E-15, -1.224646799147353207E-16, 1.000000000000000000 ) ) ;
#63 = DATE_AND_TIME ( #42, #69 ) ;
#64 = DIRECTION ( 'NONE',  ( 0.0000000000000000000, 1.000000000000000000, 0.0000000000000000000 ) ) ;
#65 = CIRCLE ( 'NONE', #72, 0.2734983653680376214 ) ;
#66 = ORIENTED_EDGE ( 'NONE', *, *, #231, .F. ) ;
#67 = PERSON_AND_ORGANIZATION_ROLE ( 'classification_officer' ) ;
#68 = CYLINDRICAL_SURFACE ( 'NONE', #115, 0.1395237691524754409 ) ;
#69 = LOCAL_TIME ( 15, 5, 19.00000000000000000, #272 ) ;
#70 = VERTEX_POINT ( 'NONE', #243 ) ;
#71 = ORIENTED_EDGE ( 'NONE', *, *, #73, .F. ) ;
#72 = AXIS2_PLACEMENT_3D ( 'NONE', #287, #268, #125 ) ;
#73 = EDGE_CURVE ( 'NONE', #76, #76, #138, .T. ) ;
#74 = AXIS2_PLACEMENT_3D ( 'NONE', #41, #205, #4 ) ;
#75 = CIRCLE ( 'NONE', #98, 1.499999999999994893 ) ;
#76 = VERTEX_POINT ( 'NONE', #32 ) ;
#77 = EDGE_CURVE ( 'NONE', #96, #90, #221, .T. ) ;
#78 = DIRECTION ( 'NONE',  ( 1.000000000000000000, 0.0000000000000000000, 0.0000000000000000000 ) ) ;
#79 = DIRECTION ( 'NONE',  ( -3.491481338843133355E-15, 1.224646799147353207E-16, -1.000000000000000000 ) ) ;
#80 = APPROVAL_ROLE ( '' ) ;
#81 = LINE ( 'NONE', #174, #222 ) ;
#82 = APPROVAL ( #185, 'UNSPECIFIED' ) ;
#83 = ADVANCED_FACE ( 'NONE', ( #197, #216 ), #3, .F. ) ;
#84 = CARTESIAN_POINT ( 'NONE',  ( 0.0000000000000000000, 0.1499999999999999667, 0.0000000000000000000 ) ) ;
#85 = SECURITY_CLASSIFICATION_LEVEL ( 'unclassified' ) ;
#86 = FACE_BOUND ( 'NONE', #28, .T. ) ;
#87 = FACE_OUTER_BOUND ( 'NONE', #139, .T. ) ;
#88 = PERSON_AND_ORGANIZATION ( #283, #50 ) ;
#89 = DIRECTION ( 'NONE',  ( -4.275831445896958607E-31, -1.000000000000000000, -1.224646799147353207E-16 ) ) ;
#90 = VERTEX_POINT ( 'NONE', #235 ) ;
#91 = APPROVAL_DATE_TIME ( #301, #49 ) ;
#92 = ORIENTED_EDGE ( 'NONE', *, *, #122, .T. ) ;
#93 = DIRECTION ( 'NONE',  ( 4.275831445896958607E-31, 1.000000000000000000, 1.224646799147353207E-16 ) ) ;
#94 = EDGE_LOOP ( 'NONE', ( #171 ) ) ;
#95 = PRODUCT_DEFINITION_FORMATION_WITH_SPECIFIED_SOURCE ( 'ANY', '', #186, .NOT_KNOWN. ) ;
#96 = VERTEX_POINT ( 'NONE', #232 ) ;
#97 = CIRCLE ( 'NONE', #241, 0.1395237691524754409 ) ;
#98 = AXIS2_PLACEMENT_3D ( 'NONE', #56, #151, #238 ) ;
#99 = CARTESIAN_POINT ( 'NONE',  ( 1.606081415867841091E-13, 1.199999999999999512, 46.00000000000000000 ) ) ;
#100 = APPROVAL_STATUS ( 'not_yet_approved' ) ;
#101 = ADVANCED_BREP_SHAPE_REPRESENTATION ( '997949', ( #9, #105, #191 ), #132 ) ;
#102 = CC_DESIGN_PERSON_AND_ORGANIZATION_ASSIGNMENT ( #19, #106, ( #213 ) ) ;
#103 = DIRECTION ( 'NONE',  ( 4.337890336726151247E-31, 1.000000000000000000, 1.224646799147353207E-16 ) ) ;
#104 = PLANE ( 'NONE',  #265 ) ;
#105 = MANIFOLD_SOLID_BREP ( 'Corps-Déplacer/Copier1[2]', #269 ) ;
#106 = PERSON_AND_ORGANIZATION_ROLE ( 'creator' ) ;
#107 = DIRECTION ( 'NONE',  ( 4.275831445896958607E-31, 1.000000000000000000, 1.224646799147353207E-16 ) ) ;
#108 = CC_DESIGN_PERSON_AND_ORGANIZATION_ASSIGNMENT ( #218, #288, ( #186 ) ) ;
#109 = LINE ( 'NONE', #182, #295 ) ;
#110 = APPROVAL_ROLE ( '' ) ;
#111 = CC_DESIGN_PERSON_AND_ORGANIZATION_ASSIGNMENT ( #275, #159, ( #95 ) ) ;
#112 = CARTESIAN_POINT ( 'NONE',  ( -6.413747168845436158E-32, 2.249639673992785728E-33, -1.836970198721029441E-17 ) ) ;
#113 = ORIENTED_EDGE ( 'NONE', *, *, #250, .F. ) ;
#114 = VERTEX_POINT ( 'NONE', #234 ) ;
#115 = AXIS2_PLACEMENT_3D ( 'NONE', #254, #43, #163 ) ;
#116 = AXIS2_PLACEMENT_3D ( 'NONE', #52, #38, #156 ) ;
#117 = DIRECTION ( 'NONE',  ( -4.275831445896959482E-31, -1.000000000000000000, -1.224646799147353454E-16 ) ) ;
#118 = EDGE_CURVE ( 'NONE', #96, #23, #281, .T. ) ;
#119 =( NAMED_UNIT ( * ) PLANE_ANGLE_UNIT ( ) SI_UNIT ( $, .RADIAN. ) );
#120 = EDGE_LOOP ( 'NONE', ( #187 ) ) ;
#121 = APPLICATION_CONTEXT ( 'configuration controlled 3d designs of mechanical parts and assemblies' ) ;
#122 = EDGE_CURVE ( 'NONE', #70, #23, #81, .T. ) ;
#123 = EDGE_LOOP ( 'NONE', ( #208, #194 ) ) ;
#124 = CALENDAR_DATE ( 2021, 3, 12 ) ;
#125 = DIRECTION ( 'NONE',  ( 0.0000000000000000000, 1.000000000000000000, 0.0000000000000000000 ) ) ;
#126 = EDGE_CURVE ( 'NONE', #114, #114, #75, .T. ) ;
#127 = SECURITY_CLASSIFICATION ( '', '', #85 ) ;
#128 = APPROVAL_DATE_TIME ( #63, #82 ) ;
#129 = DIRECTION ( 'NONE',  ( 0.0000000000000000000, 1.000000000000000000, 0.0000000000000000000 ) ) ;
#130 = DATE_TIME_ROLE ( 'creation_date' ) ;
#131 = FACE_OUTER_BOUND ( 'NONE', #164, .T. ) ;
#132 =( GEOMETRIC_REPRESENTATION_CONTEXT ( 3 ) GLOBAL_UNCERTAINTY_ASSIGNED_CONTEXT ( ( #141 ) ) GLOBAL_UNIT_ASSIGNED_CONTEXT ( ( #173, #119, #150 ) ) REPRESENTATION_CONTEXT ( 'NONE', 'WORKASPACE' ) );
#133 = PERSON_AND_ORGANIZATION ( #283, #50 ) ;
#134 = ADVANCED_FACE ( 'NONE', ( #219 ), #104, .T. ) ;
#135 = EDGE_LOOP ( 'NONE', ( #212 ) ) ;
#136 = FACE_BOUND ( 'NONE', #167, .T. ) ;
#137 = DIRECTION ( 'NONE',  ( -3.491481338843133355E-15, 1.224646799147353207E-16, -1.000000000000000000 ) ) ;
#138 = CIRCLE ( 'NONE', #155, 0.1395237691524754409 ) ;
#139 = EDGE_LOOP ( 'NONE', ( #297 ) ) ;
#140 = LOCAL_TIME ( 15, 5, 19.00000000000000000, #154 ) ;
#141 = UNCERTAINTY_MEASURE_WITH_UNIT (LENGTH_MEASURE( 1.000000000000000082E-05 ), #173, 'distance_accuracy_value', 'NONE');
#142 = DIRECTION ( 'NONE',  ( -3.491481338843133355E-15, 0.0000000000000000000, -1.000000000000000000 ) ) ;
#143 = AXIS2_PLACEMENT_3D ( 'NONE', #298, #137, #129 ) ;
#144 = APPLICATION_PROTOCOL_DEFINITION ( 'international standard', 'config_control_design', 1994, #179 ) ;
#145 = CC_DESIGN_SECURITY_CLASSIFICATION ( #127, ( #95 ) ) ;
#146 = VERTEX_POINT ( 'NONE', #29 ) ;
#147 = AXIS2_PLACEMENT_3D ( 'NONE', #217, #153, #289 ) ;
#148 = DIRECTION ( 'NONE',  ( 4.275831445896959482E-31, 1.000000000000000000, 1.224646799147353207E-16 ) ) ;
#149 = DIRECTION ( 'NONE',  ( -3.491481338843133355E-15, 1.224646799147353207E-16, -1.000000000000000000 ) ) ;
#150 =( NAMED_UNIT ( * ) SI_UNIT ( $, .STERADIAN. ) SOLID_ANGLE_UNIT ( ) );
#151 = DIRECTION ( 'NONE',  ( -3.491481338843133355E-15, 1.224646799147353207E-16, -1.000000000000000000 ) ) ;
#152 = DIRECTION ( 'NONE',  ( -3.491481338843133355E-15, 1.224646799147353207E-16, -1.000000000000000000 ) ) ;
#153 = DIRECTION ( 'NONE',  ( -3.491481338843133355E-15, 1.224646799147353207E-16, -1.000000000000000000 ) ) ;
#154 = COORDINATED_UNIVERSAL_TIME_OFFSET ( 1, 0, .AHEAD. ) ;
#155 = AXIS2_PLACEMENT_3D ( 'NONE', #59, #79, #199 ) ;
#156 = DIRECTION ( 'NONE',  ( 4.275831445896958607E-31, 1.000000000000000000, 1.224646799147353207E-16 ) ) ;
#157 = FACE_OUTER_BOUND ( 'NONE', #228, .T. ) ;
#158 = EDGE_LOOP ( 'NONE', ( #273, #176 ) ) ;
#159 = PERSON_AND_ORGANIZATION_ROLE ( 'design_supplier' ) ;
#160 = DIRECTION ( 'NONE',  ( -3.491481338843133355E-15, 1.224646799147353207E-16, -1.000000000000000000 ) ) ;
#161 = CARTESIAN_POINT ( 'NONE',  ( 1.606081415867841091E-13, 8.998558695971099120E-33, 46.00000000000000000 ) ) ;
#162 = ORIENTED_EDGE ( 'NONE', *, *, #270, .F. ) ;
#163 = DIRECTION ( 'NONE',  ( 4.275831445896959482E-31, 1.000000000000000000, 1.224646799147353207E-16 ) ) ;
#164 = EDGE_LOOP ( 'NONE', ( #280, #300, #225, #92 ) ) ;
#165 = CIRCLE ( 'NONE', #74, 1.500000000000005107 ) ;
#166 = EDGE_CURVE ( 'NONE', #90, #70, #97, .T. ) ;
#167 = EDGE_LOOP ( 'NONE', ( #255 ) ) ;
#168 = CC_DESIGN_PERSON_AND_ORGANIZATION_ASSIGNMENT ( #17, #202, ( #95 ) ) ;
#169 = CARTESIAN_POINT ( 'NONE',  ( 4.888073874380390642E-15, 0.2734983653680374549, 1.400000000000001243 ) ) ;
#170 = APPROVAL_PERSON_ORGANIZATION ( #230, #282, #80 ) ;
#171 = ORIENTED_EDGE ( 'NONE', *, *, #126, .T. ) ;
#172 = VECTOR ( 'NONE', #117, 1000.000000000000000 ) ;
#173 =( LENGTH_UNIT ( ) NAMED_UNIT ( * ) SI_UNIT ( .MILLI., .METRE. ) );
#174 = CARTESIAN_POINT ( 'NONE',  ( 1.499744159275248786E-14, -5.260394388374216316E-16, 4.295437992437254771 ) ) ;
#175 = DIRECTION ( 'NONE',  ( 0.0000000000000000000, 1.000000000000000000, 0.0000000000000000000 ) ) ;
#176 = ORIENTED_EDGE ( 'NONE', *, *, #12, .T. ) ;
#177 = DATE_AND_TIME ( #39, #51 ) ;
#178 = CONICAL_SURFACE ( 'NONE', #47, 0.2734983653680376214, 0.5235987755982999259 ) ;
#179 = APPLICATION_CONTEXT ( 'configuration controlled 3d designs of mechanical parts and assemblies' ) ;
#180 = FACE_OUTER_BOUND ( 'NONE', #26, .T. ) ;
#181 = APPROVAL_ROLE ( '' ) ;
#182 = CARTESIAN_POINT ( 'NONE',  ( 1.047444401652939021E-15, 1.046260688501398192E-33, 0.2999999999999997113 ) ) ;
#183 = ADVANCED_FACE ( 'NONE', ( #131 ), #247, .T. ) ;
#184 = ORIENTED_EDGE ( 'NONE', *, *, #73, .T. ) ;
#185 = APPROVAL_STATUS ( 'not_yet_approved' ) ;
#186 = PRODUCT ( '997949', '997949', '', ( #31 ) ) ;
#187 = ORIENTED_EDGE ( 'NONE', *, *, #126, .F. ) ;
#188 = DATE_AND_TIME ( #248, #261 ) ;
#189 = DIRECTION ( 'NONE',  ( -3.491481338843133355E-15, 1.224646799147353207E-16, -1.000000000000000000 ) ) ;
#190 = ORIENTED_EDGE ( 'NONE', *, *, #226, .T. ) ;
#191 = AXIS2_PLACEMENT_3D ( 'NONE', #237, #11, #78 ) ;
#192 = FACE_OUTER_BOUND ( 'NONE', #246, .T. ) ;
#193 = ADVANCED_FACE ( 'NONE', ( #276, #180 ), #68, .T. ) ;
#194 = ORIENTED_EDGE ( 'NONE', *, *, #250, .T. ) ;
#195 = FACE_OUTER_BOUND ( 'NONE', #120, .T. ) ;
#196 = AXIS2_PLACEMENT_3D ( 'NONE', #161, #251, #93 ) ;
#197 = FACE_OUTER_BOUND ( 'NONE', #2, .T. ) ;
#198 = VERTEX_POINT ( 'NONE', #169 ) ;
#199 = DIRECTION ( 'NONE',  ( 0.0000000000000000000, 1.000000000000000000, 0.0000000000000000000 ) ) ;
#200 = PLANE ( 'NONE',  #116 ) ;
#201 = ADVANCED_FACE ( 'NONE', ( #46 ), #45, .F. ) ;
#202 = PERSON_AND_ORGANIZATION_ROLE ( 'creator' ) ;
#203 = AXIS2_PLACEMENT_3D ( 'NONE', #296, #7, #142 ) ;
#204 = DIRECTION ( 'NONE',  ( 0.0000000000000000000, -1.000000000000000000, 0.0000000000000000000 ) ) ;
#205 = DIRECTION ( 'NONE',  ( -3.491481338843133355E-15, 1.224646799147353207E-16, -1.000000000000000000 ) ) ;
#206 = ORIENTED_EDGE ( 'NONE', *, *, #35, .F. ) ;
#207 = APPROVAL_STATUS ( 'not_yet_approved' ) ;
#208 = ORIENTED_EDGE ( 'NONE', *, *, #166, .F. ) ;
#209 = AXIS2_PLACEMENT_3D ( 'NONE', #15, #149, #103 ) ;
#210 = DIRECTION ( 'NONE',  ( 0.0000000000000000000, 1.000000000000000000, 0.0000000000000000000 ) ) ;
#211 = ADVANCED_FACE ( 'NONE', ( #87, #136 ), #33, .T. ) ;
#212 = ORIENTED_EDGE ( 'NONE', *, *, #231, .T. ) ;
#213 = PRODUCT_DEFINITION ( 'UNKNOWN', '', #95, #214 ) ;
#214 = DESIGN_CONTEXT ( 'detailed design', #179, 'design' ) ;
#215 = FACE_OUTER_BOUND ( 'NONE', #5, .T. ) ;
#216 = FACE_OUTER_BOUND ( 'NONE', #44, .T. ) ;
#217 = CARTESIAN_POINT ( 'NONE',  ( -6.413747168845436158E-32, 2.249639673992785728E-33, -1.836970198721029441E-17 ) ) ;
#218 = PERSON_AND_ORGANIZATION ( #283, #50 ) ;
#219 = FACE_OUTER_BOUND ( 'NONE', #123, .T. ) ;
#220 = AXIS2_PLACEMENT_3D ( 'NONE', #227, #21, #89 ) ;
#221 = LINE ( 'NONE', #53, #233 ) ;
#222 = VECTOR ( 'NONE', #266, 1000.000000000000227 ) ;
#223 = ORIENTED_EDGE ( 'NONE', *, *, #12, .F. ) ;
#224 = DATE_AND_TIME ( #124, #252 ) ;
#225 = ORIENTED_EDGE ( 'NONE', *, *, #166, .T. ) ;
#226 = EDGE_CURVE ( 'NONE', #262, #262, #165, .T. ) ;
#227 = CARTESIAN_POINT ( 'NONE',  ( 1.047444401652939021E-15, 1.046260688501398192E-33, 0.2999999999999997113 ) ) ;
#228 = EDGE_LOOP ( 'NONE', ( #223, #279, #113, #34 ) ) ;
#229 = CC_DESIGN_APPROVAL ( #82, ( #95 ) ) ;
#230 = PERSON_AND_ORGANIZATION ( #283, #50 ) ;
#231 = EDGE_CURVE ( 'NONE', #146, #146, #274, .T. ) ;
#232 = CARTESIAN_POINT ( 'NONE',  ( -1.282749433769087451E-31, -0.1499999999999999667, -3.673940397442058882E-17 ) ) ;
#233 = VECTOR ( 'NONE', #20, 1000.000000000000227 ) ;
#234 = CARTESIAN_POINT ( 'NONE',  ( 1.230524815817998948E-14, 1.499999999999994449, 3.524363146748825670 ) ) ;
#235 = CARTESIAN_POINT ( 'NONE',  ( 1.047444401652939218E-15, -0.1395237691524754409, 0.2999999999999998224 ) ) ;
#236 = ADVANCED_FACE ( 'NONE', ( #192 ), #278, .F. ) ;
#237 = CARTESIAN_POINT ( 'NONE',  ( 0.0000000000000000000, 0.0000000000000000000, 0.0000000000000000000 ) ) ;
#238 = DIRECTION ( 'NONE',  ( 0.0000000000000000000, 1.000000000000000000, 0.0000000000000000000 ) ) ;
#239 = SHAPE_DEFINITION_REPRESENTATION ( #293, #101 ) ;
#240 = DIRECTION ( 'NONE',  ( 3.491481338843133355E-15, -1.224646799147353207E-16, 1.000000000000000000 ) ) ;
#241 = AXIS2_PLACEMENT_3D ( 'NONE', #22, #1, #64 ) ;
#242 = CALENDAR_DATE ( 2021, 3, 12 ) ;
#243 = CARTESIAN_POINT ( 'NONE',  ( 1.047444401652938823E-15, 0.1395237691524754131, 0.2999999999999996558 ) ) ;
#244 = PLANE ( 'NONE',  #203 ) ;
#245 = DIRECTION ( 'NONE',  ( -4.275831445896958607E-31, -1.000000000000000000, -1.224646799147353207E-16 ) ) ;
#246 = EDGE_LOOP ( 'NONE', ( #184 ) ) ;
#247 = CONICAL_SURFACE ( 'NONE', #256, 0.1499999999999999667, 0.03490658503988727790 ) ;
#248 = CALENDAR_DATE ( 2021, 3, 12 ) ;
#249 = DIRECTION ( 'NONE',  ( 4.275831445896958607E-31, 1.000000000000000000, 1.224646799147353207E-16 ) ) ;
#250 = EDGE_CURVE ( 'NONE', #90, #70, #109, .T. ) ;
#251 = DIRECTION ( 'NONE',  ( -3.491481338843133355E-15, 1.224646799147353207E-16, -1.000000000000000000 ) ) ;
#252 = LOCAL_TIME ( 15, 5, 19.00000000000000000, #60 ) ;
#253 = ADVANCED_FACE ( 'NONE', ( #294, #86 ), #178, .T. ) ;
#254 = CARTESIAN_POINT ( 'NONE',  ( 0.0000000000000000000, 0.0000000000000000000, 0.0000000000000000000 ) ) ;
#255 = ORIENTED_EDGE ( 'NONE', *, *, #270, .T. ) ;
#256 = AXIS2_PLACEMENT_3D ( 'NONE', #112, #189, #249 ) ;
#257 = ADVANCED_FACE ( 'NONE', ( #157 ), #244, .T. ) ;
#258 = CLOSED_SHELL ( 'NONE', ( #236, #193, #83, #253, #286, #211, #201 ) ) ;
#259 = AXIS2_PLACEMENT_3D ( 'NONE', #284, #290, #175 ) ;
#260 = APPROVAL_PERSON_ORGANIZATION ( #88, #82, #181 ) ;
#261 = LOCAL_TIME ( 15, 5, 19.00000000000000000, #37 ) ;
#262 = VERTEX_POINT ( 'NONE', #8 ) ;
#263 = CARTESIAN_POINT ( 'NONE',  ( 0.0000000000000000000, 0.0000000000000000000, 0.0000000000000000000 ) ) ;
#264 = AXIS2_PLACEMENT_3D ( 'NONE', #25, #160, #210 ) ;
#265 = AXIS2_PLACEMENT_3D ( 'NONE', #291, #240, #245 ) ;
#266 = DIRECTION ( 'NONE',  ( -3.489354422748178188E-15, 0.03489949670250178104, -0.9993908270190956511 ) ) ;
#267 = CYLINDRICAL_SURFACE ( 'NONE', #54, 1.500000000000000000 ) ;
#268 = DIRECTION ( 'NONE',  ( -3.491481338843133355E-15, 1.224646799147353207E-16, -1.000000000000000000 ) ) ;
#269 = CLOSED_SHELL ( 'NONE', ( #30, #183, #134, #257 ) ) ;
#270 = EDGE_CURVE ( 'NONE', #55, #55, #16, .T. ) ;
#271 = CARTESIAN_POINT ( 'NONE',  ( 4.888073874380390642E-15, -1.714505518806296117E-16, 1.400000000000001243 ) ) ;
#272 = COORDINATED_UNIVERSAL_TIME_OFFSET ( 1, 0, .AHEAD. ) ;
#273 = ORIENTED_EDGE ( 'NONE', *, *, #118, .T. ) ;
#274 = CIRCLE ( 'NONE', #143, 0.1395237691524754409 ) ;
#275 = PERSON_AND_ORGANIZATION ( #283, #50 ) ;
#276 = FACE_OUTER_BOUND ( 'NONE', #135, .T. ) ;
#277 = EDGE_LOOP ( 'NONE', ( #162 ) ) ;
#278 = PLANE ( 'NONE',  #220 ) ;
#279 = ORIENTED_EDGE ( 'NONE', *, *, #122, .F. ) ;
#280 = ORIENTED_EDGE ( 'NONE', *, *, #118, .F. ) ;
#281 = CIRCLE ( 'NONE', #147, 0.1499999999999999667 ) ;
#282 = APPROVAL ( #100, 'UNSPECIFIED' ) ;
#283 = PERSON ( 'UNSPECIFIED', 'UNSPECIFIED', 'UNSPECIFIED', ('UNSPECIFIED'), ('UNSPECIFIED'), ('UNSPECIFIED') ) ;
#284 = CARTESIAN_POINT ( 'NONE',  ( 1.606081415867841091E-13, -5.633375276077824704E-15, 46.00000000000000000 ) ) ;
#285 = CC_DESIGN_APPROVAL ( #49, ( #127 ) ) ;
#286 = ADVANCED_FACE ( 'NONE', ( #195, #215 ), #267, .T. ) ;
#287 = CARTESIAN_POINT ( 'NONE',  ( 4.888073874380390642E-15, -1.714505518806296117E-16, 1.400000000000001243 ) ) ;
#288 = PERSON_AND_ORGANIZATION_ROLE ( 'design_owner' ) ;
#289 = DIRECTION ( 'NONE',  ( 4.275831445896958607E-31, 1.000000000000000000, 1.224646799147353207E-16 ) ) ;
#290 = DIRECTION ( 'NONE',  ( -3.491481338843133355E-15, 1.224646799147353207E-16, -1.000000000000000000 ) ) ;
#291 = CARTESIAN_POINT ( 'NONE',  ( 1.047444401652939021E-15, 1.046260688501398192E-33, 0.2999999999999997113 ) ) ;
#292 = LINE ( 'NONE', #84, #172 ) ;
#293 = PRODUCT_DEFINITION_SHAPE ( 'NONE', 'NONE',  #213 ) ;
#294 = FACE_OUTER_BOUND ( 'NONE', #94, .T. ) ;
#295 = VECTOR ( 'NONE', #107, 1000.000000000000000 ) ;
#296 = CARTESIAN_POINT ( 'NONE',  ( 0.0000000000000000000, 0.0000000000000000000, 0.0000000000000000000 ) ) ;
#297 = ORIENTED_EDGE ( 'NONE', *, *, #226, .F. ) ;
#298 = CARTESIAN_POINT ( 'NONE',  ( 3.142333204958820020E-15, -1.102182119232617788E-16, 0.9000000000000000222 ) ) ;
#299 = CC_DESIGN_DATE_AND_TIME_ASSIGNMENT ( #188, #130, ( #213 ) ) ;
#300 = ORIENTED_EDGE ( 'NONE', *, *, #77, .T. ) ;
#301 = DATE_AND_TIME ( #242, #140 ) ;
ENDSEC;
END-ISO-10303-21;
