ISO-10303-21;
HEADER;
FILE_DESCRIPTION (( 'STEP AP203' ),
    '1' );
FILE_NAME ('997948.step',
    '2021-12-03T14:05:19',
    ( '' ),
    ( '' ),
    'SwSTEP 2.0',
    'SolidWorks 2019',
    '' );
FILE_SCHEMA (( 'CONFIG_CONTROL_DESIGN' ));
ENDSEC;

DATA;
#1 = EDGE_LOOP ( 'NONE', ( #300 ) ) ;
#2 = EDGE_LOOP ( 'NONE', ( #213, #53 ) ) ;
#3 = ADVANCED_FACE ( 'NONE', ( #101, #130 ), #192, .T. ) ;
#4 = AXIS2_PLACEMENT_3D ( 'NONE', #286, #87, #7 ) ;
#5 = APPROVAL_PERSON_ORGANIZATION ( #105, #236, #70 ) ;
#6 = CARTESIAN_POINT ( 'NONE',  ( 2.094888803305878830E-15, 0.0000000000000000000, 0.5999999999999997558 ) ) ;
#7 = DIRECTION ( 'NONE',  ( 0.0000000000000000000, 1.000000000000000000, 0.0000000000000000000 ) ) ;
#8 = CC_DESIGN_PERSON_AND_ORGANIZATION_ASSIGNMENT ( #248, #166, ( #202 ) ) ;
#9 = APPLICATION_PROTOCOL_DEFINITION ( 'international standard', 'config_control_design', 1994, #99 ) ;
#10 = PERSON_AND_ORGANIZATION_ROLE ( 'classification_officer' ) ;
#11 = DIRECTION ( 'NONE',  ( -3.491481338843133355E-15, 1.224646799147353207E-16, -1.000000000000000000 ) ) ;
#12 = ADVANCED_FACE ( 'NONE', ( #214 ), #282, .T. ) ;
#13 = DIRECTION ( 'NONE',  ( 0.0000000000000000000, 0.0000000000000000000, 1.000000000000000000 ) ) ;
#14 = APPROVAL_STATUS ( 'not_yet_approved' ) ;
#15 = FACE_OUTER_BOUND ( 'NONE', #220, .T. ) ;
#16 = CIRCLE ( 'NONE', #147, 0.1395237691524754409 ) ;
#17 = CARTESIAN_POINT ( 'NONE',  ( 1.606081415867841091E-13, 1.199999999999999512, 46.00000000000000000 ) ) ;
#18 = DATE_TIME_ROLE ( 'classification_date' ) ;
#19 = ADVANCED_FACE ( 'NONE', ( #179 ), #237, .T. ) ;
#20 = FACE_OUTER_BOUND ( 'NONE', #255, .T. ) ;
#21 = AXIS2_PLACEMENT_3D ( 'NONE', #52, #104, #283 ) ;
#22 = ORGANIZATION ( 'UNSPECIFIED', 'UNSPECIFIED', '' ) ;
#23 = CC_DESIGN_PERSON_AND_ORGANIZATION_ASSIGNMENT ( #291, #75, ( #209 ) ) ;
#24 = CARTESIAN_POINT ( 'NONE',  ( 0.0000000000000000000, 0.0000000000000000000, 0.0000000000000000000 ) ) ;
#25 = EDGE_LOOP ( 'NONE', ( #154 ) ) ;
#26 = DIRECTION ( 'NONE',  ( -3.491481338843133355E-15, 1.224646799147353207E-16, -1.000000000000000000 ) ) ;
#27 = EDGE_CURVE ( 'NONE', #50, #183, #261, .T. ) ;
#28 = AXIS2_PLACEMENT_3D ( 'NONE', #178, #26, #176 ) ;
#29 = CC_DESIGN_APPROVAL ( #95, ( #202 ) ) ;
#30 = DIRECTION ( 'NONE',  ( -3.491481338843133355E-15, 1.224646799147353207E-16, -1.000000000000000000 ) ) ;
#31 = DIRECTION ( 'NONE',  ( 0.0000000000000000000, -1.000000000000000000, 0.0000000000000000000 ) ) ;
#32 = CIRCLE ( 'NONE', #279, 0.1395237691524754409 ) ;
#33 = DIRECTION ( 'NONE',  ( -3.491481338843133355E-15, 1.224646799147353207E-16, -1.000000000000000000 ) ) ;
#34 = DIRECTION ( 'NONE',  ( 3.491481338843133355E-15, -1.224646799147353207E-16, 1.000000000000000000 ) ) ;
#35 = EDGE_CURVE ( 'NONE', #85, #50, #301, .T. ) ;
#36 = DIRECTION ( 'NONE',  ( -3.491481338843133355E-15, 1.224646799147353207E-16, -1.000000000000000000 ) ) ;
#37 = AXIS2_PLACEMENT_3D ( 'NONE', #123, #210, #45 ) ;
#38 = VERTEX_POINT ( 'NONE', #40 ) ;
#39 = EDGE_CURVE ( 'NONE', #275, #275, #229, .T. ) ;
#40 = CARTESIAN_POINT ( 'NONE',  ( 1.047444401652938823E-15, 0.1395237691524754131, 0.2999999999999996558 ) ) ;
#41 = VERTEX_POINT ( 'NONE', #17 ) ;
#42 = DIRECTION ( 'NONE',  ( -4.275831445896958607E-31, -1.000000000000000000, -1.224646799147353207E-16 ) ) ;
#43 = COORDINATED_UNIVERSAL_TIME_OFFSET ( 1, 0, .AHEAD. ) ;
#44 = ADVANCED_FACE ( 'NONE', ( #20 ), #191, .T. ) ;
#45 = DIRECTION ( 'NONE',  ( 4.275831445896959482E-31, 1.000000000000000000, 1.224646799147353207E-16 ) ) ;
#46 = DIRECTION ( 'NONE',  ( 0.0000000000000000000, 1.000000000000000000, 0.0000000000000000000 ) ) ;
#47 = DIRECTION ( 'NONE',  ( 0.0000000000000000000, 1.000000000000000000, 0.0000000000000000000 ) ) ;
#48 = DATE_AND_TIME ( #262, #148 ) ;
#49 = CARTESIAN_POINT ( 'NONE',  ( 1.499744159275248786E-14, -5.260394388374216316E-16, 4.295437992437254771 ) ) ;
#50 = VERTEX_POINT ( 'NONE', #150 ) ;
#51 = EDGE_LOOP ( 'NONE', ( #215 ) ) ;
#52 = CARTESIAN_POINT ( 'NONE',  ( -3.206873584422718079E-32, 1.124819836996392864E-33, -9.184850993605147205E-18 ) ) ;
#53 = ORIENTED_EDGE ( 'NONE', *, *, #35, .T. ) ;
#54 = CC_DESIGN_PERSON_AND_ORGANIZATION_ASSIGNMENT ( #172, #10, ( #274 ) ) ;
#55 = ORIENTED_EDGE ( 'NONE', *, *, #39, .F. ) ;
#56 = EDGE_CURVE ( 'NONE', #161, #161, #155, .T. ) ;
#57 = AXIS2_PLACEMENT_3D ( 'NONE', #58, #36, #200 ) ;
#58 = CARTESIAN_POINT ( 'NONE',  ( 1.606081415867841091E-13, 8.998558695971099120E-33, 46.00000000000000000 ) ) ;
#59 = PERSON ( 'UNSPECIFIED', 'UNSPECIFIED', 'UNSPECIFIED', ('UNSPECIFIED'), ('UNSPECIFIED'), ('UNSPECIFIED') ) ;
#60 = EDGE_LOOP ( 'NONE', ( #55 ) ) ;
#61 = PLANE ( 'NONE',  #107 ) ;
#62 = CALENDAR_DATE ( 2021, 3, 12 ) ;
#63 = DIRECTION ( 'NONE',  ( -3.491481338843133355E-15, 1.224646799147353207E-16, -1.000000000000000000 ) ) ;
#64 = COORDINATED_UNIVERSAL_TIME_OFFSET ( 1, 0, .AHEAD. ) ;
#65 = AXIS2_PLACEMENT_3D ( 'NONE', #189, #34, #31 ) ;
#66 = PERSON_AND_ORGANIZATION_ROLE ( 'design_supplier' ) ;
#67 = CC_DESIGN_SECURITY_CLASSIFICATION ( #274, ( #209 ) ) ;
#68 = EDGE_CURVE ( 'NONE', #38, #38, #16, .T. ) ;
#69 = CARTESIAN_POINT ( 'NONE',  ( 1.125780375652704317E-14, 1.499999999999994449, 3.224363146748824072 ) ) ;
#70 = APPROVAL_ROLE ( '' ) ;
#71 = CARTESIAN_POINT ( 'NONE',  ( 2.094888803305879224E-15, 0.1395237691524753854, 0.5999999999999998668 ) ) ;
#72 = DATE_AND_TIME ( #142, #181 ) ;
#73 = CARTESIAN_POINT ( 'NONE',  ( 1.047444401652939218E-15, -0.1395237691524754409, 0.2999999999999998224 ) ) ;
#74 = VERTEX_POINT ( 'NONE', #140 ) ;
#75 = PERSON_AND_ORGANIZATION_ROLE ( 'creator' ) ;
#76 = CARTESIAN_POINT ( 'NONE',  ( 1.047444401652938823E-15, 0.1395237691524754131, 0.2999999999999996558 ) ) ;
#77 = DATE_TIME_ROLE ( 'creation_date' ) ;
#78 = DIRECTION ( 'NONE',  ( 1.000000000000000000, 0.0000000000000000000, -3.491481338843133355E-15 ) ) ;
#79 = CC_DESIGN_PERSON_AND_ORGANIZATION_ASSIGNMENT ( #141, #169, ( #206 ) ) ;
#80 = EDGE_LOOP ( 'NONE', ( #265 ) ) ;
#81 = ORIENTED_EDGE ( 'NONE', *, *, #27, .T. ) ;
#82 = LOCAL_TIME ( 15, 5, 19.00000000000000000, #203 ) ;
#83 = EDGE_LOOP ( 'NONE', ( #146 ) ) ;
#84 = DIRECTION ( 'NONE',  ( 0.0000000000000000000, 1.000000000000000000, 0.0000000000000000000 ) ) ;
#85 = VERTEX_POINT ( 'NONE', #269 ) ;
#86 = FACE_OUTER_BOUND ( 'NONE', #80, .T. ) ;
#87 = DIRECTION ( 'NONE',  ( -3.491481338843133355E-15, 1.224646799147353207E-16, -1.000000000000000000 ) ) ;
#88 = EDGE_CURVE ( 'NONE', #50, #85, #232, .T. ) ;
#89 = ORIENTED_EDGE ( 'NONE', *, *, #27, .F. ) ;
#90 = DIRECTION ( 'NONE',  ( 4.337890336726151247E-31, 1.000000000000000000, 1.224646799147353207E-16 ) ) ;
#91 = UNCERTAINTY_MEASURE_WITH_UNIT (LENGTH_MEASURE( 1.000000000000000082E-05 ), #187, 'distance_accuracy_value', 'NONE');
#92 = APPROVAL_DATE_TIME ( #139, #95 ) ;
#93 = CYLINDRICAL_SURFACE ( 'NONE', #37, 0.1395237691524754409 ) ;
#94 = MECHANICAL_CONTEXT ( 'NONE', #99, 'mechanical' ) ;
#95 = APPROVAL ( #188, 'UNSPECIFIED' ) ;
#96 = DIRECTION ( 'NONE',  ( -3.491481338843133355E-15, 1.224646799147353207E-16, -1.000000000000000000 ) ) ;
#97 =( GEOMETRIC_REPRESENTATION_CONTEXT ( 3 ) GLOBAL_UNCERTAINTY_ASSIGNED_CONTEXT ( ( #91 ) ) GLOBAL_UNIT_ASSIGNED_CONTEXT ( ( #187, #119, #240 ) ) REPRESENTATION_CONTEXT ( 'NONE', 'WORKASPACE' ) );
#98 = ORIENTED_EDGE ( 'NONE', *, *, #106, .F. ) ;
#99 = APPLICATION_CONTEXT ( 'configuration controlled 3d designs of mechanical parts and assemblies' ) ;
#100 = COORDINATED_UNIVERSAL_TIME_OFFSET ( 1, 0, .AHEAD. ) ;
#101 = FACE_OUTER_BOUND ( 'NONE', #60, .T. ) ;
#102 = ORIENTED_EDGE ( 'NONE', *, *, #56, .F. ) ;
#103 = CIRCLE ( 'NONE', #212, 1.200000000000005063 ) ;
#104 = DIRECTION ( 'NONE',  ( -3.491481338843133355E-15, 1.224646799147353207E-16, -1.000000000000000000 ) ) ;
#105 = PERSON_AND_ORGANIZATION ( #59, #22 ) ;
#106 = EDGE_CURVE ( 'NONE', #278, #278, #120, .T. ) ;
#107 = AXIS2_PLACEMENT_3D ( 'NONE', #159, #239, #133 ) ;
#108 = APPROVAL_PERSON_ORGANIZATION ( #277, #95, #272 ) ;
#109 = EDGE_LOOP ( 'NONE', ( #102 ) ) ;
#110 = ADVANCED_FACE ( 'NONE', ( #112 ), #199, .F. ) ;
#111 = FACE_OUTER_BOUND ( 'NONE', #109, .T. ) ;
#112 = FACE_OUTER_BOUND ( 'NONE', #182, .T. ) ;
#113 = FACE_OUTER_BOUND ( 'NONE', #193, .T. ) ;
#114 = EDGE_CURVE ( 'NONE', #41, #41, #103, .T. ) ;
#115 = AXIS2_PLACEMENT_3D ( 'NONE', #6, #11, #90 ) ;
#116 = EDGE_CURVE ( 'NONE', #74, #74, #153, .T. ) ;
#117 = APPLICATION_CONTEXT ( 'configuration controlled 3d designs of mechanical parts and assemblies' ) ;
#118 = PRODUCT_DEFINITION_SHAPE ( 'NONE', 'NONE',  #202 ) ;
#119 =( NAMED_UNIT ( * ) PLANE_ANGLE_UNIT ( ) SI_UNIT ( $, .RADIAN. ) );
#120 = CIRCLE ( 'NONE', #251, 0.1395237691524754686 ) ;
#121 = DATE_AND_TIME ( #190, #285 ) ;
#122 = ADVANCED_FACE ( 'NONE', ( #86, #113 ), #177, .F. ) ;
#123 = CARTESIAN_POINT ( 'NONE',  ( 0.0000000000000000000, 0.0000000000000000000, 0.0000000000000000000 ) ) ;
#124 = CARTESIAN_POINT ( 'NONE',  ( 1.125780375652704317E-14, -3.948706006954635068E-16, 3.224363146748824072 ) ) ;
#125 = FACE_OUTER_BOUND ( 'NONE', #83, .T. ) ;
#126 = CARTESIAN_POINT ( 'NONE',  ( 0.0000000000000000000, 0.0000000000000000000, 0.0000000000000000000 ) ) ;
#127 = CC_DESIGN_APPROVAL ( #236, ( #209 ) ) ;
#128 = ORIENTED_EDGE ( 'NONE', *, *, #68, .T. ) ;
#129 = ORIENTED_EDGE ( 'NONE', *, *, #106, .T. ) ;
#130 = FACE_OUTER_BOUND ( 'NONE', #25, .T. ) ;
#131 = AXIS2_PLACEMENT_3D ( 'NONE', #297, #151, #231 ) ;
#132 = CC_DESIGN_DATE_AND_TIME_ASSIGNMENT ( #48, #77, ( #202 ) ) ;
#133 = DIRECTION ( 'NONE',  ( -4.275831445896958607E-31, -1.000000000000000000, -1.224646799147353207E-16 ) ) ;
#134 = VECTOR ( 'NONE', #256, 1000.000000000000227 ) ;
#135 = ORIENTED_EDGE ( 'NONE', *, *, #290, .T. ) ;
#136 = CARTESIAN_POINT ( 'NONE',  ( 2.094888803305879224E-15, -7.347880794884117764E-17, 0.5999999999999998668 ) ) ;
#137 = CONICAL_SURFACE ( 'NONE', #299, 1.200000000000005063, 0.7853981633974453924 ) ;
#138 = APPROVAL_PERSON_ORGANIZATION ( #288, #157, #225 ) ;
#139 = DATE_AND_TIME ( #245, #258 ) ;
#140 = CARTESIAN_POINT ( 'NONE',  ( 3.840629472727448269E-15, 0.2734983653680380655, 1.100000000000000533 ) ) ;
#141 = PERSON_AND_ORGANIZATION ( #59, #22 ) ;
#142 = CALENDAR_DATE ( 2021, 3, 12 ) ;
#143 = LINE ( 'NONE', #145, #180 ) ;
#144 = DIRECTION ( 'NONE',  ( -3.491481338843133355E-15, 1.224646799147353207E-16, -1.000000000000000000 ) ) ;
#145 = CARTESIAN_POINT ( 'NONE',  ( 1.499744159275248786E-14, -5.260394388374216316E-16, 4.295437992437254771 ) ) ;
#146 = ORIENTED_EDGE ( 'NONE', *, *, #39, .T. ) ;
#147 = AXIS2_PLACEMENT_3D ( 'NONE', #238, #30, #221 ) ;
#148 = LOCAL_TIME ( 15, 5, 19.00000000000000000, #100 ) ;
#149 = ORIENTED_EDGE ( 'NONE', *, *, #35, .F. ) ;
#150 = CARTESIAN_POINT ( 'NONE',  ( -1.282749433769087451E-31, -0.1499999999999999667, -3.673940397442058882E-17 ) ) ;
#151 = DIRECTION ( 'NONE',  ( -3.491481338843133355E-15, 1.224646799147353207E-16, -1.000000000000000000 ) ) ;
#152 = EDGE_CURVE ( 'NONE', #183, #235, #32, .T. ) ;
#153 = CIRCLE ( 'NONE', #4, 0.2734983653680381765 ) ;
#154 = ORIENTED_EDGE ( 'NONE', *, *, #56, .T. ) ;
#155 = CIRCLE ( 'NONE', #131, 1.500000000000005107 ) ;
#156 = CARTESIAN_POINT ( 'NONE',  ( 1.606081415867841091E-13, -5.633375276077824704E-15, 46.00000000000000000 ) ) ;
#157 = APPROVAL ( #249, 'UNSPECIFIED' ) ;
#158 = EDGE_LOOP ( 'NONE', ( #174, #197 ) ) ;
#159 = CARTESIAN_POINT ( 'NONE',  ( 1.047444401652939021E-15, 1.046260688501398192E-33, 0.2999999999999997113 ) ) ;
#160 = ADVANCED_BREP_SHAPE_REPRESENTATION ( '997948', ( #234, #230, #233 ), #97 ) ;
#161 = VERTEX_POINT ( 'NONE', #226 ) ;
#162 = ADVANCED_FACE ( 'NONE', ( #186 ), #61, .F. ) ;
#163 = CC_DESIGN_APPROVAL ( #157, ( #274 ) ) ;
#164 = DESIGN_CONTEXT ( 'detailed design', #117, 'design' ) ;
#165 = ADVANCED_FACE ( 'NONE', ( #111, #198 ), #137, .T. ) ;
#166 = PERSON_AND_ORGANIZATION_ROLE ( 'creator' ) ;
#167 = COORDINATED_UNIVERSAL_TIME_OFFSET ( 1, 0, .AHEAD. ) ;
#168 = DIRECTION ( 'NONE',  ( -3.491481338843133355E-15, 1.224646799147353207E-16, -1.000000000000000000 ) ) ;
#169 = PERSON_AND_ORGANIZATION_ROLE ( 'design_owner' ) ;
#170 = DIRECTION ( 'NONE',  ( 4.275831445896958607E-31, 1.000000000000000000, 1.224646799147353207E-16 ) ) ;
#171 = CLOSED_SHELL ( 'NONE', ( #12, #19, #207, #44 ) ) ;
#172 = PERSON_AND_ORGANIZATION ( #59, #22 ) ;
#173 = FACE_OUTER_BOUND ( 'NONE', #195, .T. ) ;
#174 = ORIENTED_EDGE ( 'NONE', *, *, #152, .F. ) ;
#175 = PRODUCT_RELATED_PRODUCT_CATEGORY ( 'detail', '', ( #206 ) ) ;
#176 = DIRECTION ( 'NONE',  ( 4.275831445896958607E-31, 1.000000000000000000, 1.224646799147353207E-16 ) ) ;
#177 = TOROIDAL_SURFACE ( 'NONE', #115, 1.139523769152475552, 0.9999999999999997780 ) ;
#178 = CARTESIAN_POINT ( 'NONE',  ( -6.413747168845436158E-32, 2.249639673992785728E-33, -1.836970198721029441E-17 ) ) ;
#179 = FACE_OUTER_BOUND ( 'NONE', #281, .T. ) ;
#180 = VECTOR ( 'NONE', #273, 1000.000000000000227 ) ;
#181 = LOCAL_TIME ( 15, 5, 19.00000000000000000, #43 ) ;
#182 = EDGE_LOOP ( 'NONE', ( #185 ) ) ;
#183 = VERTEX_POINT ( 'NONE', #73 ) ;
#184 = CARTESIAN_POINT ( 'NONE',  ( 1.606081415867841091E-13, -5.633375276077824704E-15, 46.00000000000000000 ) ) ;
#185 = ORIENTED_EDGE ( 'NONE', *, *, #114, .F. ) ;
#186 = FACE_OUTER_BOUND ( 'NONE', #287, .T. ) ;
#187 =( LENGTH_UNIT ( ) NAMED_UNIT ( * ) SI_UNIT ( .MILLI., .METRE. ) );
#188 = APPROVAL_STATUS ( 'not_yet_approved' ) ;
#189 = CARTESIAN_POINT ( 'NONE',  ( 3.840629472727448269E-15, -1.347111479062089243E-16, 1.100000000000000533 ) ) ;
#190 = CALENDAR_DATE ( 2021, 3, 12 ) ;
#191 = PLANE ( 'NONE',  #293 ) ;
#192 = CYLINDRICAL_SURFACE ( 'NONE', #257, 1.500000000000000000 ) ;
#193 = EDGE_LOOP ( 'NONE', ( #98 ) ) ;
#194 = DIRECTION ( 'NONE',  ( 4.275831445896959482E-31, 1.000000000000000000, 1.224646799147353207E-16 ) ) ;
#195 = EDGE_LOOP ( 'NONE', ( #270 ) ) ;
#196 = CONICAL_SURFACE ( 'NONE', #65, 0.2734983653680381765, 0.5235987755982998149 ) ;
#197 = ORIENTED_EDGE ( 'NONE', *, *, #217, .T. ) ;
#198 = FACE_BOUND ( 'NONE', #1, .T. ) ;
#199 = PLANE ( 'NONE',  #57 ) ;
#200 = DIRECTION ( 'NONE',  ( 4.275831445896958607E-31, 1.000000000000000000, 1.224646799147353207E-16 ) ) ;
#201 = VECTOR ( 'NONE', #280, 1000.000000000000000 ) ;
#202 = PRODUCT_DEFINITION ( 'UNKNOWN', '', #209, #164 ) ;
#203 = COORDINATED_UNIVERSAL_TIME_OFFSET ( 1, 0, .AHEAD. ) ;
#204 = DIRECTION ( 'NONE',  ( -3.491481338843133355E-15, 1.224646799147353207E-16, -1.000000000000000000 ) ) ;
#205 = DIRECTION ( 'NONE',  ( 0.0000000000000000000, 1.000000000000000000, 0.0000000000000000000 ) ) ;
#206 = PRODUCT ( '997948', '997948', '', ( #94 ) ) ;
#207 = ADVANCED_FACE ( 'NONE', ( #254 ), #247, .T. ) ;
#208 = CARTESIAN_POINT ( 'NONE',  ( 1.047444401652939021E-15, 1.046260688501398192E-33, 0.2999999999999997113 ) ) ;
#209 = PRODUCT_DEFINITION_FORMATION_WITH_SPECIFIED_SOURCE ( 'ANY', '', #206, .NOT_KNOWN. ) ;
#210 = DIRECTION ( 'NONE',  ( -3.491481338843133355E-15, 1.224646799147353207E-16, -1.000000000000000000 ) ) ;
#211 = APPROVAL_DATE_TIME ( #295, #236 ) ;
#212 = AXIS2_PLACEMENT_3D ( 'NONE', #156, #63, #84 ) ;
#213 = ORIENTED_EDGE ( 'NONE', *, *, #88, .T. ) ;
#214 = FACE_OUTER_BOUND ( 'NONE', #2, .T. ) ;
#215 = ORIENTED_EDGE ( 'NONE', *, *, #116, .F. ) ;
#216 = CARTESIAN_POINT ( 'NONE',  ( 0.0000000000000000000, 0.1499999999999999667, 0.0000000000000000000 ) ) ;
#217 = EDGE_CURVE ( 'NONE', #183, #235, #227, .T. ) ;
#218 = CC_DESIGN_PERSON_AND_ORGANIZATION_ASSIGNMENT ( #292, #66, ( #209 ) ) ;
#219 = CLOSED_SHELL ( 'NONE', ( #162, #244, #122, #296, #3, #165, #110 ) ) ;
#220 = EDGE_LOOP ( 'NONE', ( #129 ) ) ;
#221 = DIRECTION ( 'NONE',  ( 0.0000000000000000000, 1.000000000000000000, 0.0000000000000000000 ) ) ;
#222 = DIRECTION ( 'NONE',  ( 0.0000000000000000000, 1.000000000000000000, 0.0000000000000000000 ) ) ;
#223 = CARTESIAN_POINT ( 'NONE',  ( 1.047444401652938823E-15, -3.673940397442055800E-17, 0.2999999999999996558 ) ) ;
#224 = AXIS2_PLACEMENT_3D ( 'NONE', #124, #96, #47 ) ;
#225 = APPROVAL_ROLE ( '' ) ;
#226 = CARTESIAN_POINT ( 'NONE',  ( 1.595606971851311880E-13, 1.499999999999999334, 45.69999999999999574 ) ) ;
#227 = LINE ( 'NONE', #208, #264 ) ;
#228 = CARTESIAN_POINT ( 'NONE',  ( 1.047444401652939021E-15, 1.046260688501398192E-33, 0.2999999999999997113 ) ) ;
#229 = CIRCLE ( 'NONE', #224, 1.499999999999994893 ) ;
#230 = MANIFOLD_SOLID_BREP ( 'Corps-Déplacer/Copier1[2]', #171 ) ;
#231 = DIRECTION ( 'NONE',  ( 0.0000000000000000000, 1.000000000000000000, 0.0000000000000000000 ) ) ;
#232 = CIRCLE ( 'NONE', #268, 0.1499999999999999667 ) ;
#233 = AXIS2_PLACEMENT_3D ( 'NONE', #252, #13, #294 ) ;
#234 = MANIFOLD_SOLID_BREP ( 'Corps-Déplacer/Copier1[1]', #219 ) ;
#235 = VERTEX_POINT ( 'NONE', #76 ) ;
#236 = APPROVAL ( #14, 'UNSPECIFIED' ) ;
#237 = CONICAL_SURFACE ( 'NONE', #28, 0.1499999999999999667, 0.03490658503988727790 ) ;
#238 = CARTESIAN_POINT ( 'NONE',  ( 1.047444401652938823E-15, -3.673940397442055800E-17, 0.2999999999999996558 ) ) ;
#239 = DIRECTION ( 'NONE',  ( 3.491481338843133355E-15, -1.224646799147353207E-16, 1.000000000000000000 ) ) ;
#240 =( NAMED_UNIT ( * ) SI_UNIT ( $, .STERADIAN. ) SOLID_ANGLE_UNIT ( ) );
#241 = SHAPE_DEFINITION_REPRESENTATION ( #118, #160 ) ;
#242 = DIRECTION ( 'NONE',  ( -3.491481338843133355E-15, 1.224646799147353207E-16, -1.000000000000000000 ) ) ;
#243 = AXIS2_PLACEMENT_3D ( 'NONE', #228, #250, #42 ) ;
#244 = ADVANCED_FACE ( 'NONE', ( #15, #173 ), #93, .T. ) ;
#245 = CALENDAR_DATE ( 2021, 3, 12 ) ;
#246 = CC_DESIGN_DATE_AND_TIME_ASSIGNMENT ( #121, #18, ( #274 ) ) ;
#247 = PLANE ( 'NONE',  #243 ) ;
#248 = PERSON_AND_ORGANIZATION ( #59, #22 ) ;
#249 = APPROVAL_STATUS ( 'not_yet_approved' ) ;
#250 = DIRECTION ( 'NONE',  ( 3.491481338843133355E-15, -1.224646799147353207E-16, 1.000000000000000000 ) ) ;
#251 = AXIS2_PLACEMENT_3D ( 'NONE', #136, #204, #222 ) ;
#252 = CARTESIAN_POINT ( 'NONE',  ( 0.0000000000000000000, 0.0000000000000000000, 0.0000000000000000000 ) ) ;
#253 = SECURITY_CLASSIFICATION_LEVEL ( 'unclassified' ) ;
#254 = FACE_OUTER_BOUND ( 'NONE', #158, .T. ) ;
#255 = EDGE_LOOP ( 'NONE', ( #149, #266, #259, #89 ) ) ;
#256 = DIRECTION ( 'NONE',  ( 3.489354422748178188E-15, 0.03489949670250153124, 0.9993908270190956511 ) ) ;
#257 = AXIS2_PLACEMENT_3D ( 'NONE', #24, #144, #194 ) ;
#258 = LOCAL_TIME ( 15, 5, 19.00000000000000000, #64 ) ;
#259 = ORIENTED_EDGE ( 'NONE', *, *, #217, .F. ) ;
#260 = ORIENTED_EDGE ( 'NONE', *, *, #88, .F. ) ;
#261 = LINE ( 'NONE', #49, #134 ) ;
#262 = CALENDAR_DATE ( 2021, 3, 12 ) ;
#263 = DIRECTION ( 'NONE',  ( -3.491481338843133355E-15, 0.0000000000000000000, -1.000000000000000000 ) ) ;
#264 = VECTOR ( 'NONE', #170, 1000.000000000000000 ) ;
#265 = ORIENTED_EDGE ( 'NONE', *, *, #116, .T. ) ;
#266 = ORIENTED_EDGE ( 'NONE', *, *, #290, .F. ) ;
#267 = CARTESIAN_POINT ( 'NONE',  ( -6.413747168845436158E-32, 2.249639673992785728E-33, -1.836970198721029441E-17 ) ) ;
#268 = AXIS2_PLACEMENT_3D ( 'NONE', #267, #33, #271 ) ;
#269 = CARTESIAN_POINT ( 'NONE',  ( 0.0000000000000000000, 0.1499999999999999667, 0.0000000000000000000 ) ) ;
#270 = ORIENTED_EDGE ( 'NONE', *, *, #68, .F. ) ;
#271 = DIRECTION ( 'NONE',  ( 4.275831445896958607E-31, 1.000000000000000000, 1.224646799147353207E-16 ) ) ;
#272 = APPROVAL_ROLE ( '' ) ;
#273 = DIRECTION ( 'NONE',  ( -3.489354422748178188E-15, 0.03489949670250178104, -0.9993908270190956511 ) ) ;
#274 = SECURITY_CLASSIFICATION ( '', '', #253 ) ;
#275 = VERTEX_POINT ( 'NONE', #69 ) ;
#276 = APPROVAL_DATE_TIME ( #72, #157 ) ;
#277 = PERSON_AND_ORGANIZATION ( #59, #22 ) ;
#278 = VERTEX_POINT ( 'NONE', #71 ) ;
#279 = AXIS2_PLACEMENT_3D ( 'NONE', #223, #242, #205 ) ;
#280 = DIRECTION ( 'NONE',  ( -4.275831445896959482E-31, -1.000000000000000000, -1.224646799147353454E-16 ) ) ;
#281 = EDGE_LOOP ( 'NONE', ( #260, #81, #284, #135 ) ) ;
#282 = PLANE ( 'NONE',  #21 ) ;
#283 = DIRECTION ( 'NONE',  ( 4.275831445896958607E-31, 1.000000000000000000, 1.224646799147353207E-16 ) ) ;
#284 = ORIENTED_EDGE ( 'NONE', *, *, #152, .T. ) ;
#285 = LOCAL_TIME ( 15, 5, 19.00000000000000000, #167 ) ;
#286 = CARTESIAN_POINT ( 'NONE',  ( 3.840629472727448269E-15, -1.347111479062089243E-16, 1.100000000000000533 ) ) ;
#287 = EDGE_LOOP ( 'NONE', ( #128 ) ) ;
#288 = PERSON_AND_ORGANIZATION ( #59, #22 ) ;
#289 = APPLICATION_PROTOCOL_DEFINITION ( 'international standard', 'config_control_design', 1994, #117 ) ;
#290 = EDGE_CURVE ( 'NONE', #235, #85, #143, .T. ) ;
#291 = PERSON_AND_ORGANIZATION ( #59, #22 ) ;
#292 = PERSON_AND_ORGANIZATION ( #59, #22 ) ;
#293 = AXIS2_PLACEMENT_3D ( 'NONE', #126, #78, #263 ) ;
#294 = DIRECTION ( 'NONE',  ( 1.000000000000000000, 0.0000000000000000000, 0.0000000000000000000 ) ) ;
#295 = DATE_AND_TIME ( #62, #82 ) ;
#296 = ADVANCED_FACE ( 'NONE', ( #125, #298 ), #196, .T. ) ;
#297 = CARTESIAN_POINT ( 'NONE',  ( 1.595606971851311880E-13, -5.596635872103403844E-15, 45.69999999999999574 ) ) ;
#298 = FACE_BOUND ( 'NONE', #51, .T. ) ;
#299 = AXIS2_PLACEMENT_3D ( 'NONE', #184, #168, #46 ) ;
#300 = ORIENTED_EDGE ( 'NONE', *, *, #114, .T. ) ;
#301 = LINE ( 'NONE', #216, #201 ) ;
ENDSEC;
END-ISO-10303-21;
