ISO-10303-21;
HEADER;
FILE_DESCRIPTION (( 'STEP AP203' ),
    '1' );
FILE_NAME ('997947.step',
    '2021-11-18T08:57:00',
    ( '' ),
    ( '' ),
    'SwSTEP 2.0',
    'SolidWorks 2019',
    '' );
FILE_SCHEMA (( 'CONFIG_CONTROL_DESIGN' ));
ENDSEC;

DATA;
#1 = APPROVAL_DATE_TIME ( #65, #175 ) ;
#2 = CC_DESIGN_PERSON_AND_ORGANIZATION_ASSIGNMENT ( #186, #29, ( #70 ) ) ;
#3 = AXIS2_PLACEMENT_3D ( 'NONE', #23, #56, #57 ) ;
#4 = FACE_OUTER_BOUND ( 'NONE', #127, .T. ) ;
#5 = CARTESIAN_POINT ( 'NONE',  ( 0.0000000000000000000, 0.0000000000000000000, 0.0000000000000000000 ) ) ;
#6 = CARTESIAN_POINT ( 'NONE',  ( -1.282749433769087757E-30, 4.499279347985572824E-32, -3.673940397442059868E-16 ) ) ;
#7 = CARTESIAN_POINT ( 'NONE',  ( 3.491481338843133355E-15, 0.0000000000000000000, 1.000000000000000000 ) ) ;
#8 = DIRECTION ( 'NONE',  ( -3.491481338843133355E-15, 1.224646799147353207E-16, -1.000000000000000000 ) ) ;
#9 = AXIS2_PLACEMENT_3D ( 'NONE', #6, #8, #211 ) ;
#10 = DATE_TIME_ROLE ( 'classification_date' ) ;
#11 = EDGE_LOOP ( 'NONE', ( #103 ) ) ;
#12 = ADVANCED_FACE ( 'NONE', ( #171, #53 ), #196, .T. ) ;
#13 = APPROVAL_ROLE ( '' ) ;
#14 = EDGE_LOOP ( 'NONE', ( #150 ) ) ;
#15 = DATE_AND_TIME ( #49, #141 ) ;
#16 = CLOSED_SHELL ( 'NONE', ( #130, #80, #12, #152 ) ) ;
#17 = DIRECTION ( 'NONE',  ( -3.491481338843133355E-15, 1.224646799147353207E-16, -1.000000000000000000 ) ) ;
#18 = DIRECTION ( 'NONE',  ( 3.491481338843133355E-15, -1.224646799147353207E-16, 1.000000000000000000 ) ) ;
#19 = EDGE_LOOP ( 'NONE', ( #69 ) ) ;
#20 = DIRECTION ( 'NONE',  ( 1.000000000000000000, 0.0000000000000000000, -3.491481338843133355E-15 ) ) ;
#21 = DIRECTION ( 'NONE',  ( 0.0000000000000000000, 1.000000000000000000, 0.0000000000000000000 ) ) ;
#22 = CC_DESIGN_DATE_AND_TIME_ASSIGNMENT ( #133, #10, ( #70 ) ) ;
#23 = CARTESIAN_POINT ( 'NONE',  ( 0.0000000000000000000, 0.0000000000000000000, 0.0000000000000000000 ) ) ;
#24 = FACE_OUTER_BOUND ( 'NONE', #162, .T. ) ;
#25 = CIRCLE ( 'NONE', #43, 5.500000000000000000 ) ;
#26 = APPROVAL ( #149, 'UNSPECIFIED' ) ;
#27 = VERTEX_POINT ( 'NONE', #91 ) ;
#28 = VERTEX_POINT ( 'NONE', #93 ) ;
#29 = PERSON_AND_ORGANIZATION_ROLE ( 'classification_officer' ) ;
#30 = MANIFOLD_SOLID_BREP ( 'Corps-Déplacer/Copier1[2]', #16 ) ;
#31 = PERSON_AND_ORGANIZATION ( #111, #184 ) ;
#32 = ORIENTED_EDGE ( 'NONE', *, *, #190, .F. ) ;
#33 = CALENDAR_DATE ( 2021, 18, 11 ) ;
#34 = AXIS2_PLACEMENT_3D ( 'NONE', #7, #142, #194 ) ;
#35 = CARTESIAN_POINT ( 'NONE',  ( 0.0000000000000000000, 0.0000000000000000000, 0.0000000000000000000 ) ) ;
#36 = CARTESIAN_POINT ( 'NONE',  ( 2.897929511239800811E-13, -1.016456843292303150E-14, 83.00000000000000000 ) ) ;
#37 = DIRECTION ( 'NONE',  ( -4.275831445896958607E-31, -1.000000000000000000, -1.224646799147353207E-16 ) ) ;
#38 = ORIENTED_EDGE ( 'NONE', *, *, #107, .F. ) ;
#39 = DIRECTION ( 'NONE',  ( 3.491481338843133355E-15, -0.0000000000000000000, 1.000000000000000000 ) ) ;
#40 = DIRECTION ( 'NONE',  ( 3.491481338843133355E-15, -1.224646799147353207E-16, 1.000000000000000000 ) ) ;
#41 = CC_DESIGN_PERSON_AND_ORGANIZATION_ASSIGNMENT ( #100, #129, ( #76 ) ) ;
#42 = AXIS2_PLACEMENT_3D ( 'NONE', #5, #39, #20 ) ;
#43 = AXIS2_PLACEMENT_3D ( 'NONE', #36, #101, #169 ) ;
#44 = EDGE_LOOP ( 'NONE', ( #110 ) ) ;
#45 = EDGE_CURVE ( 'NONE', #27, #27, #199, .T. ) ;
#46 = CC_DESIGN_APPROVAL ( #175, ( #218 ) ) ;
#47 = SECURITY_CLASSIFICATION_LEVEL ( 'unclassified' ) ;
#48 = CALENDAR_DATE ( 2021, 18, 11 ) ;
#49 = CALENDAR_DATE ( 2021, 18, 11 ) ;
#50 = EDGE_LOOP ( 'NONE', ( #74 ) ) ;
#51 = DIRECTION ( 'NONE',  ( -3.491481338843133355E-15, 1.224646799147353207E-16, -1.000000000000000000 ) ) ;
#52 = AXIS2_PLACEMENT_3D ( 'NONE', #193, #17, #86 ) ;
#53 = FACE_OUTER_BOUND ( 'NONE', #200, .T. ) ;
#54 =( LENGTH_UNIT ( ) NAMED_UNIT ( * ) SI_UNIT ( .MILLI., .METRE. ) );
#55 = CONICAL_SURFACE ( 'NONE', #208, 5.999999999999999112, 0.7853981633974473908 ) ;
#56 = DIRECTION ( 'NONE',  ( -3.491481338843133355E-15, 1.224646799147353207E-16, -1.000000000000000000 ) ) ;
#57 = DIRECTION ( 'NONE',  ( 4.275831445896959482E-31, 1.000000000000000000, 1.224646799147353207E-16 ) ) ;
#58 = APPROVAL_PERSON_ORGANIZATION ( #132, #175, #164 ) ;
#59 = ORIENTED_EDGE ( 'NONE', *, *, #154, .T. ) ;
#60 = CC_DESIGN_PERSON_AND_ORGANIZATION_ASSIGNMENT ( #97, #128, ( #76 ) ) ;
#61 = DATE_AND_TIME ( #220, #114 ) ;
#62 = LOCAL_TIME ( 9, 57, 0.0000000000000000000, #99 ) ;
#63 = PERSON_AND_ORGANIZATION ( #111, #184 ) ;
#64 = COORDINATED_UNIVERSAL_TIME_OFFSET ( 1, 0, .AHEAD. ) ;
#65 = DATE_AND_TIME ( #166, #62 ) ;
#66 = CIRCLE ( 'NONE', #212, 6.000000000000000000 ) ;
#67 = DIRECTION ( 'NONE',  ( -3.491481338843133355E-15, 1.224646799147353207E-16, -1.000000000000000000 ) ) ;
#68 = FACE_OUTER_BOUND ( 'NONE', #50, .T. ) ;
#69 = ORIENTED_EDGE ( 'NONE', *, *, #109, .T. ) ;
#70 = SECURITY_CLASSIFICATION ( '', '', #47 ) ;
#71 = DIRECTION ( 'NONE',  ( 0.0000000000000000000, 1.000000000000000000, 0.0000000000000000000 ) ) ;
#72 = CARTESIAN_POINT ( 'NONE',  ( 6.000000000000003553, 0.0000000000000000000, 0.9999999999999792388 ) ) ;
#73 = DESIGN_CONTEXT ( 'detailed design', #146, 'design' ) ;
#74 = ORIENTED_EDGE ( 'NONE', *, *, #213, .T. ) ;
#75 = CARTESIAN_POINT ( 'NONE',  ( 3.491481338843134144E-15, 0.0000000000000000000, 1.000000000000000222 ) ) ;
#76 = PRODUCT_DEFINITION_FORMATION_WITH_SPECIFIED_SOURCE ( 'ANY', '', #131, .NOT_KNOWN. ) ;
#77 = CC_DESIGN_PERSON_AND_ORGANIZATION_ASSIGNMENT ( #31, #187, ( #218 ) ) ;
#78 = PERSON_AND_ORGANIZATION ( #111, #184 ) ;
#79 = APPLICATION_PROTOCOL_DEFINITION ( 'international standard', 'config_control_design', 1994, #134 ) ;
#80 = ADVANCED_FACE ( 'NONE', ( #105 ), #176, .T. ) ;
#81 = FACE_BOUND ( 'NONE', #192, .T. ) ;
#82 = ORIENTED_EDGE ( 'NONE', *, *, #45, .F. ) ;
#83 = FACE_OUTER_BOUND ( 'NONE', #14, .T. ) ;
#84 = AXIS2_PLACEMENT_3D ( 'NONE', #137, #18, #37 ) ;
#85 = CC_DESIGN_APPROVAL ( #26, ( #70 ) ) ;
#86 = DIRECTION ( 'NONE',  ( 4.275831445896959482E-31, 1.000000000000000000, 1.224646799147353207E-16 ) ) ;
#87 = CARTESIAN_POINT ( 'NONE',  ( 2.897929511239800811E-13, 5.499999999999989342, 83.00000000000000000 ) ) ;
#88 = UNCERTAINTY_MEASURE_WITH_UNIT (LENGTH_MEASURE( 1.000000000000000082E-05 ), #54, 'distance_accuracy_value', 'NONE');
#89 = ADVANCED_FACE ( 'NONE', ( #83 ), #120, .F. ) ;
#90 = VERTEX_POINT ( 'NONE', #144 ) ;
#91 = CARTESIAN_POINT ( 'NONE',  ( 9.077851480992146724E-14, 5.999999999999996447, 26.00000000000000000 ) ) ;
#92 = CC_DESIGN_DATE_AND_TIME_ASSIGNMENT ( #206, #113, ( #218 ) ) ;
#93 = CARTESIAN_POINT ( 'NONE',  ( 2.880472104545584703E-13, 5.999999999999988454, 82.50000000000000000 ) ) ;
#94 = CC_DESIGN_SECURITY_CLASSIFICATION ( #70, ( #76 ) ) ;
#95 = APPROVAL_STATUS ( 'not_yet_approved' ) ;
#96 = COORDINATED_UNIVERSAL_TIME_OFFSET ( 1, 0, .AHEAD. ) ;
#97 = PERSON_AND_ORGANIZATION ( #111, #184 ) ;
#98 = AXIS2_PLACEMENT_3D ( 'NONE', #35, #116, #185 ) ;
#99 = COORDINATED_UNIVERSAL_TIME_OFFSET ( 1, 0, .AHEAD. ) ;
#100 = PERSON_AND_ORGANIZATION ( #111, #184 ) ;
#101 = DIRECTION ( 'NONE',  ( -3.491481338843133355E-15, 1.224646799147353207E-16, -1.000000000000000000 ) ) ;
#102 = CIRCLE ( 'NONE', #125, 5.999999999999999112 ) ;
#103 = ORIENTED_EDGE ( 'NONE', *, *, #154, .F. ) ;
#104 = FACE_OUTER_BOUND ( 'NONE', #195, .T. ) ;
#105 = FACE_OUTER_BOUND ( 'NONE', #216, .T. ) ;
#106 = DIRECTION ( 'NONE',  ( -3.491481338843133355E-15, 1.224646799147353207E-16, -1.000000000000000000 ) ) ;
#107 = EDGE_CURVE ( 'NONE', #90, #90, #203, .T. ) ;
#108 = ORIENTED_EDGE ( 'NONE', *, *, #109, .F. ) ;
#109 = EDGE_CURVE ( 'NONE', #198, #198, #66, .T. ) ;
#110 = ORIENTED_EDGE ( 'NONE', *, *, #107, .T. ) ;
#111 = PERSON ( 'UNSPECIFIED', 'UNSPECIFIED', 'UNSPECIFIED', ('UNSPECIFIED'), ('UNSPECIFIED'), ('UNSPECIFIED') ) ;
#112 = CARTESIAN_POINT ( 'NONE',  ( 9.077851480992146724E-14, 5.999999999999996447, 26.00000000000000000 ) ) ;
#113 = DATE_TIME_ROLE ( 'creation_date' ) ;
#114 = LOCAL_TIME ( 9, 57, 0.0000000000000000000, #183 ) ;
#115 = PRODUCT_RELATED_PRODUCT_CATEGORY ( 'detail', '', ( #131 ) ) ;
#116 = DIRECTION ( 'NONE',  ( 0.0000000000000000000, 0.0000000000000000000, 1.000000000000000000 ) ) ;
#117 = COORDINATED_UNIVERSAL_TIME_OFFSET ( 1, 0, .AHEAD. ) ;
#118 =( GEOMETRIC_REPRESENTATION_CONTEXT ( 3 ) GLOBAL_UNCERTAINTY_ASSIGNED_CONTEXT ( ( #88 ) ) GLOBAL_UNIT_ASSIGNED_CONTEXT ( ( #54, #217, #197 ) ) REPRESENTATION_CONTEXT ( 'NONE', 'WORKASPACE' ) );
#119 = APPROVAL_DATE_TIME ( #15, #209 ) ;
#120 = PLANE ( 'NONE',  #223 ) ;
#121 = PLANE ( 'NONE',  #136 ) ;
#122 = AXIS2_PLACEMENT_3D ( 'NONE', #156, #106, #71 ) ;
#123 = DIRECTION ( 'NONE',  ( 4.275831445896958607E-31, 1.000000000000000000, 1.224646799147353207E-16 ) ) ;
#124 = DIRECTION ( 'NONE',  ( -4.275831445896958607E-31, -1.000000000000000000, -1.224646799147353207E-16 ) ) ;
#125 = AXIS2_PLACEMENT_3D ( 'NONE', #179, #201, #177 ) ;
#126 = DIRECTION ( 'NONE',  ( 3.491481338843133355E-15, -0.0000000000000000000, 1.000000000000000000 ) ) ;
#127 = EDGE_LOOP ( 'NONE', ( #32 ) ) ;
#128 = PERSON_AND_ORGANIZATION_ROLE ( 'creator' ) ;
#129 = PERSON_AND_ORGANIZATION_ROLE ( 'design_supplier' ) ;
#130 = ADVANCED_FACE ( 'NONE', ( #68, #189 ), #172, .T. ) ;
#131 = PRODUCT ( '997947', '997947', '', ( #222 ) ) ;
#132 = PERSON_AND_ORGANIZATION ( #111, #184 ) ;
#133 = DATE_AND_TIME ( #33, #219 ) ;
#134 = APPLICATION_CONTEXT ( 'configuration controlled 3d designs of mechanical parts and assemblies' ) ;
#135 = PERSON_AND_ORGANIZATION ( #111, #184 ) ;
#136 = AXIS2_PLACEMENT_3D ( 'NONE', #191, #51, #123 ) ;
#137 = CARTESIAN_POINT ( 'NONE',  ( 9.077851480992146724E-14, 4.499279347985567350E-32, 26.00000000000000000 ) ) ;
#138 = DIRECTION ( 'NONE',  ( 0.0000000000000000000, 1.000000000000000000, 0.0000000000000000000 ) ) ;
#139 = FACE_OUTER_BOUND ( 'NONE', #182, .T. ) ;
#140 = CC_DESIGN_PERSON_AND_ORGANIZATION_ASSIGNMENT ( #63, #221, ( #131 ) ) ;
#141 = LOCAL_TIME ( 9, 57, 0.0000000000000000000, #96 ) ;
#142 = DIRECTION ( 'NONE',  ( 3.491481338843133355E-15, -0.0000000000000000000, 1.000000000000000000 ) ) ;
#143 = ORIENTED_EDGE ( 'NONE', *, *, #190, .T. ) ;
#144 = CARTESIAN_POINT ( 'NONE',  ( 5.000000000000000000, 0.0000000000000000000, -1.745740669421566678E-14 ) ) ;
#145 = CYLINDRICAL_SURFACE ( 'NONE', #3, 6.000000000000000000 ) ;
#146 = APPLICATION_CONTEXT ( 'configuration controlled 3d designs of mechanical parts and assemblies' ) ;
#147 = AXIS2_PLACEMENT_3D ( 'NONE', #75, #126, #180 ) ;
#148 = ORIENTED_EDGE ( 'NONE', *, *, #213, .F. ) ;
#149 = APPROVAL_STATUS ( 'not_yet_approved' ) ;
#150 = ORIENTED_EDGE ( 'NONE', *, *, #45, .T. ) ;
#151 = APPLICATION_PROTOCOL_DEFINITION ( 'international standard', 'config_control_design', 1994, #146 ) ;
#152 = ADVANCED_FACE ( 'NONE', ( #139 ), #159, .T. ) ;
#153 = CARTESIAN_POINT ( 'NONE',  ( 2.880472104545584703E-13, -1.010333609296566392E-14, 82.50000000000000000 ) ) ;
#154 = EDGE_CURVE ( 'NONE', #181, #181, #25, .T. ) ;
#155 = CARTESIAN_POINT ( 'NONE',  ( 9.077851480992146724E-14, 4.499279347985567350E-32, 26.00000000000000000 ) ) ;
#156 = CARTESIAN_POINT ( 'NONE',  ( 9.077851480992146724E-14, -3.184081677783118191E-15, 26.00000000000000000 ) ) ;
#157 = CIRCLE ( 'NONE', #147, 6.000000000000000000 ) ;
#158 = ADVANCED_FACE ( 'NONE', ( #81, #4 ), #55, .T. ) ;
#159 = PLANE ( 'NONE',  #9 ) ;
#160 = VERTEX_POINT ( 'NONE', #72 ) ;
#161 = CLOSED_SHELL ( 'NONE', ( #89, #178, #158, #167 ) ) ;
#162 = EDGE_LOOP ( 'NONE', ( #82 ) ) ;
#163 = SHAPE_DEFINITION_REPRESENTATION ( #165, #207 ) ;
#164 = APPROVAL_ROLE ( '' ) ;
#165 = PRODUCT_DEFINITION_SHAPE ( 'NONE', 'NONE',  #218 ) ;
#166 = CALENDAR_DATE ( 2021, 18, 11 ) ;
#167 = ADVANCED_FACE ( 'NONE', ( #210 ), #121, .F. ) ;
#168 = CC_DESIGN_APPROVAL ( #209, ( #76 ) ) ;
#169 = DIRECTION ( 'NONE',  ( 0.0000000000000000000, 1.000000000000000000, 0.0000000000000000000 ) ) ;
#170 = LOCAL_TIME ( 9, 57, 0.0000000000000000000, #117 ) ;
#171 = FACE_OUTER_BOUND ( 'NONE', #44, .T. ) ;
#172 = CYLINDRICAL_SURFACE ( 'NONE', #52, 6.000000000000000000 ) ;
#173 = MANIFOLD_SOLID_BREP ( 'Corps-Déplacer/Copier1[1]', #161 ) ;
#174 = DIRECTION ( 'NONE',  ( -3.491481338843133355E-15, 1.224646799147353207E-16, -1.000000000000000000 ) ) ;
#175 = APPROVAL ( #204, 'UNSPECIFIED' ) ;
#176 = PLANE ( 'NONE',  #84 ) ;
#177 = DIRECTION ( 'NONE',  ( 0.0000000000000000000, 1.000000000000000000, 0.0000000000000000000 ) ) ;
#178 = ADVANCED_FACE ( 'NONE', ( #104, #24 ), #145, .T. ) ;
#179 = CARTESIAN_POINT ( 'NONE',  ( 2.880472104545584703E-13, -1.010333609296566392E-14, 82.50000000000000000 ) ) ;
#180 = DIRECTION ( 'NONE',  ( 1.000000000000000000, 0.0000000000000000000, -3.505587024369797538E-15 ) ) ;
#181 = VERTEX_POINT ( 'NONE', #87 ) ;
#182 = EDGE_LOOP ( 'NONE', ( #38 ) ) ;
#183 = COORDINATED_UNIVERSAL_TIME_OFFSET ( 1, 0, .AHEAD. ) ;
#184 = ORGANIZATION ( 'UNSPECIFIED', 'UNSPECIFIED', '' ) ;
#185 = DIRECTION ( 'NONE',  ( 1.000000000000000000, 0.0000000000000000000, 0.0000000000000000000 ) ) ;
#186 = PERSON_AND_ORGANIZATION ( #111, #184 ) ;
#187 = PERSON_AND_ORGANIZATION_ROLE ( 'creator' ) ;
#188 = APPROVAL_PERSON_ORGANIZATION ( #135, #209, #13 ) ;
#189 = FACE_OUTER_BOUND ( 'NONE', #19, .T. ) ;
#190 = EDGE_CURVE ( 'NONE', #28, #28, #102, .T. ) ;
#191 = CARTESIAN_POINT ( 'NONE',  ( 2.897929511239800811E-13, 4.124339402320093095E-32, 83.00000000000000000 ) ) ;
#192 = EDGE_LOOP ( 'NONE', ( #59 ) ) ;
#193 = CARTESIAN_POINT ( 'NONE',  ( 0.0000000000000000000, 0.0000000000000000000, 0.0000000000000000000 ) ) ;
#194 = DIRECTION ( 'NONE',  ( 1.000000000000000000, 0.0000000000000000000, -3.491481338843133355E-15 ) ) ;
#195 = EDGE_LOOP ( 'NONE', ( #143 ) ) ;
#196 = TOROIDAL_SURFACE ( 'NONE', #34, 5.000000000000000000, 1.000000000000000000 ) ;
#197 =( NAMED_UNIT ( * ) SI_UNIT ( $, .STERADIAN. ) SOLID_ANGLE_UNIT ( ) );
#198 = VERTEX_POINT ( 'NONE', #112 ) ;
#199 = CIRCLE ( 'NONE', #122, 6.000000000000000000 ) ;
#200 = EDGE_LOOP ( 'NONE', ( #148 ) ) ;
#201 = DIRECTION ( 'NONE',  ( -3.491481338843133355E-15, 1.224646799147353207E-16, -1.000000000000000000 ) ) ;
#202 = APPROVAL_DATE_TIME ( #61, #26 ) ;
#203 = CIRCLE ( 'NONE', #42, 5.000000000000000000 ) ;
#204 = APPROVAL_STATUS ( 'not_yet_approved' ) ;
#205 = APPROVAL_ROLE ( '' ) ;
#206 = DATE_AND_TIME ( #48, #170 ) ;
#207 = ADVANCED_BREP_SHAPE_REPRESENTATION ( '997947', ( #173, #30, #98 ), #118 ) ;
#208 = AXIS2_PLACEMENT_3D ( 'NONE', #153, #67, #138 ) ;
#209 = APPROVAL ( #95, 'UNSPECIFIED' ) ;
#210 = FACE_OUTER_BOUND ( 'NONE', #11, .T. ) ;
#211 = DIRECTION ( 'NONE',  ( 4.275831445896958607E-31, 1.000000000000000000, 1.224646799147353207E-16 ) ) ;
#212 = AXIS2_PLACEMENT_3D ( 'NONE', #215, #174, #21 ) ;
#213 = EDGE_CURVE ( 'NONE', #160, #160, #157, .T. ) ;
#214 = APPROVAL_PERSON_ORGANIZATION ( #78, #26, #205 ) ;
#215 = CARTESIAN_POINT ( 'NONE',  ( 9.077851480992146724E-14, -3.184081677783118191E-15, 26.00000000000000000 ) ) ;
#216 = EDGE_LOOP ( 'NONE', ( #108 ) ) ;
#217 =( NAMED_UNIT ( * ) PLANE_ANGLE_UNIT ( ) SI_UNIT ( $, .RADIAN. ) );
#218 = PRODUCT_DEFINITION ( 'UNKNOWN', '', #76, #73 ) ;
#219 = LOCAL_TIME ( 9, 57, 0.0000000000000000000, #64 ) ;
#220 = CALENDAR_DATE ( 2021, 18, 11 ) ;
#221 = PERSON_AND_ORGANIZATION_ROLE ( 'design_owner' ) ;
#222 = MECHANICAL_CONTEXT ( 'NONE', #134, 'mechanical' ) ;
#223 = AXIS2_PLACEMENT_3D ( 'NONE', #155, #40, #124 ) ;
ENDSEC;
END-ISO-10303-21;
