ISO-10303-21;
HEADER;
FILE_DESCRIPTION (( 'STEP AP203' ),
    '1' );
FILE_NAME ('997946.step',
    '2021-11-18T08:56:59',
    ( '' ),
    ( '' ),
    'SwSTEP 2.0',
    'SolidWorks 2019',
    '' );
FILE_SCHEMA (( 'CONFIG_CONTROL_DESIGN' ));
ENDSEC;

DATA;
#1 = ORIENTED_EDGE ( 'NONE', *, *, #177, .F. ) ;
#2 = APPROVAL_STATUS ( 'not_yet_approved' ) ;
#3 = CC_DESIGN_PERSON_AND_ORGANIZATION_ASSIGNMENT ( #189, #69, ( #67 ) ) ;
#4 = CC_DESIGN_APPROVAL ( #92, ( #126 ) ) ;
#5 = FACE_OUTER_BOUND ( 'NONE', #173, .T. ) ;
#6 = FACE_OUTER_BOUND ( 'NONE', #53, .T. ) ;
#7 = CARTESIAN_POINT ( 'NONE',  ( 1.745740669421566678E-15, 0.0000000000000000000, 0.5000000000000000000 ) ) ;
#8 = PLANE ( 'NONE',  #179 ) ;
#9 = DIRECTION ( 'NONE',  ( 3.491481338843133355E-15, -0.0000000000000000000, 1.000000000000000000 ) ) ;
#10 =( NAMED_UNIT ( * ) PLANE_ANGLE_UNIT ( ) SI_UNIT ( $, .RADIAN. ) );
#11 = LOCAL_TIME ( 9, 56, 59.00000000000000000, #103 ) ;
#12 = COORDINATED_UNIVERSAL_TIME_OFFSET ( 1, 0, .AHEAD. ) ;
#13 = CLOSED_SHELL ( 'NONE', ( #87, #95, #27, #168 ) ) ;
#14 = AXIS2_PLACEMENT_3D ( 'NONE', #7, #54, #42 ) ;
#15 = DIRECTION ( 'NONE',  ( 0.0000000000000000000, 1.000000000000000000, 0.0000000000000000000 ) ) ;
#16 = PERSON_AND_ORGANIZATION_ROLE ( 'classification_officer' ) ;
#17 = APPROVAL ( #2, 'UNSPECIFIED' ) ;
#18 = APPROVAL_DATE_TIME ( #100, #43 ) ;
#19 = ORIENTED_EDGE ( 'NONE', *, *, #47, .T. ) ;
#20 = PERSON_AND_ORGANIZATION_ROLE ( 'design_supplier' ) ;
#21 = FACE_OUTER_BOUND ( 'NONE', #118, .T. ) ;
#22 = CARTESIAN_POINT ( 'NONE',  ( 0.0000000000000000000, 0.0000000000000000000, 0.0000000000000000000 ) ) ;
#23 = EDGE_LOOP ( 'NONE', ( #205 ) ) ;
#24 = CARTESIAN_POINT ( 'NONE',  ( 2.897929511239800811E-13, -1.016456843292303150E-14, 83.00000000000000000 ) ) ;
#25 = CARTESIAN_POINT ( 'NONE',  ( 2.880472104545584703E-13, 5.999999999999988454, 82.50000000000000000 ) ) ;
#26 = DIRECTION ( 'NONE',  ( 4.275831445896959482E-31, 1.000000000000000000, 1.224646799147353207E-16 ) ) ;
#27 = ADVANCED_FACE ( 'NONE', ( #203, #111 ), #29, .T. ) ;
#28 = VERTEX_POINT ( 'NONE', #184 ) ;
#29 = CONICAL_SURFACE ( 'NONE', #56, 5.999999999999999112, 0.7853981633974473908 ) ;
#30 = CARTESIAN_POINT ( 'NONE',  ( 0.0000000000000000000, 0.0000000000000000000, 0.0000000000000000000 ) ) ;
#31 = ORIENTED_EDGE ( 'NONE', *, *, #216, .T. ) ;
#32 = MANIFOLD_SOLID_BREP ( 'Corps-Déplacer/Copier1[1]', #13 ) ;
#33 = APPROVAL_DATE_TIME ( #122, #92 ) ;
#34 = ORIENTED_EDGE ( 'NONE', *, *, #138, .T. ) ;
#35 = CALENDAR_DATE ( 2021, 18, 11 ) ;
#36 = LOCAL_TIME ( 9, 56, 59.00000000000000000, #117 ) ;
#37 = DIRECTION ( 'NONE',  ( 4.275831445896959482E-31, 1.000000000000000000, 1.224646799147353207E-16 ) ) ;
#38 = ORIENTED_EDGE ( 'NONE', *, *, #211, .F. ) ;
#39 = CARTESIAN_POINT ( 'NONE',  ( 2.897929511239800811E-13, 4.124339402320093095E-32, 83.00000000000000000 ) ) ;
#40 = EDGE_LOOP ( 'NONE', ( #34 ) ) ;
#41 = DIRECTION ( 'NONE',  ( 1.000000000000000000, 0.0000000000000000000, -3.487516988161705272E-15 ) ) ;
#42 = DIRECTION ( 'NONE',  ( 1.000000000000000000, 0.0000000000000000000, -3.491481338843133355E-15 ) ) ;
#43 = APPROVAL ( #170, 'UNSPECIFIED' ) ;
#44 = EDGE_LOOP ( 'NONE', ( #84 ) ) ;
#45 = PLANE ( 'NONE',  #112 ) ;
#46 = APPROVAL_DATE_TIME ( #123, #17 ) ;
#47 = EDGE_CURVE ( 'NONE', #107, #107, #128, .T. ) ;
#48 = AXIS2_PLACEMENT_3D ( 'NONE', #214, #106, #174 ) ;
#49 = ORIENTED_EDGE ( 'NONE', *, *, #47, .F. ) ;
#50 = PERSON_AND_ORGANIZATION ( #213, #200 ) ;
#51 = EDGE_LOOP ( 'NONE', ( #194 ) ) ;
#52 = CALENDAR_DATE ( 2021, 18, 11 ) ;
#53 = EDGE_LOOP ( 'NONE', ( #38 ) ) ;
#54 = DIRECTION ( 'NONE',  ( 3.491481338843133355E-15, -0.0000000000000000000, 1.000000000000000000 ) ) ;
#55 =( GEOMETRIC_REPRESENTATION_CONTEXT ( 3 ) GLOBAL_UNCERTAINTY_ASSIGNED_CONTEXT ( ( #80 ) ) GLOBAL_UNIT_ASSIGNED_CONTEXT ( ( #204, #10, #131 ) ) REPRESENTATION_CONTEXT ( 'NONE', 'WORKASPACE' ) );
#56 = AXIS2_PLACEMENT_3D ( 'NONE', #115, #218, #81 ) ;
#57 = CIRCLE ( 'NONE', #113, 5.999999999999999112 ) ;
#58 = DIRECTION ( 'NONE',  ( 4.275831445896958607E-31, 1.000000000000000000, 1.224646799147353207E-16 ) ) ;
#59 = CARTESIAN_POINT ( 'NONE',  ( 6.000000000000002665, 0.0000000000000000000, 0.4999999999999790723 ) ) ;
#60 = CC_DESIGN_APPROVAL ( #43, ( #67 ) ) ;
#61 = APPLICATION_PROTOCOL_DEFINITION ( 'international standard', 'config_control_design', 1994, #108 ) ;
#62 = AXIS2_PLACEMENT_3D ( 'NONE', #39, #104, #94 ) ;
#63 = PERSON_AND_ORGANIZATION ( #213, #200 ) ;
#64 = FACE_OUTER_BOUND ( 'NONE', #188, .T. ) ;
#65 = ADVANCED_FACE ( 'NONE', ( #64 ), #45, .T. ) ;
#66 = CALENDAR_DATE ( 2021, 18, 11 ) ;
#67 = PRODUCT_DEFINITION_FORMATION_WITH_SPECIFIED_SOURCE ( 'ANY', '', #121, .NOT_KNOWN. ) ;
#68 = ORIENTED_EDGE ( 'NONE', *, *, #177, .T. ) ;
#69 = PERSON_AND_ORGANIZATION_ROLE ( 'creator' ) ;
#70 = PRODUCT_DEFINITION_SHAPE ( 'NONE', 'NONE',  #114 ) ;
#71 = CLOSED_SHELL ( 'NONE', ( #153, #65, #158, #162 ) ) ;
#72 = ADVANCED_BREP_SHAPE_REPRESENTATION ( '997946', ( #32, #175, #215 ), #55 ) ;
#73 = DATE_TIME_ROLE ( 'classification_date' ) ;
#74 = PLANE ( 'NONE',  #143 ) ;
#75 = EDGE_LOOP ( 'NONE', ( #68 ) ) ;
#76 = APPROVAL_PERSON_ORGANIZATION ( #222, #43, #101 ) ;
#77 = DIRECTION ( 'NONE',  ( -3.491481338843133355E-15, 1.224646799147353207E-16, -1.000000000000000000 ) ) ;
#78 = CIRCLE ( 'NONE', #48, 6.000000000000000000 ) ;
#79 = DIRECTION ( 'NONE',  ( -4.275831445896958607E-31, -1.000000000000000000, -1.224646799147353207E-16 ) ) ;
#80 = UNCERTAINTY_MEASURE_WITH_UNIT (LENGTH_MEASURE( 1.000000000000000082E-05 ), #204, 'distance_accuracy_value', 'NONE');
#81 = DIRECTION ( 'NONE',  ( 0.0000000000000000000, 1.000000000000000000, 0.0000000000000000000 ) ) ;
#82 = CC_DESIGN_DATE_AND_TIME_ASSIGNMENT ( #206, #209, ( #114 ) ) ;
#83 = EDGE_LOOP ( 'NONE', ( #1 ) ) ;
#84 = ORIENTED_EDGE ( 'NONE', *, *, #211, .T. ) ;
#85 = APPROVAL_STATUS ( 'not_yet_approved' ) ;
#86 = PERSON_AND_ORGANIZATION ( #213, #200 ) ;
#87 = ADVANCED_FACE ( 'NONE', ( #21 ), #8, .F. ) ;
#88 = DIRECTION ( 'NONE',  ( 0.0000000000000000000, 1.000000000000000000, 0.0000000000000000000 ) ) ;
#89 = FACE_OUTER_BOUND ( 'NONE', #51, .T. ) ;
#90 = DIRECTION ( 'NONE',  ( 1.000000000000000000, 0.0000000000000000000, -3.491481338843133355E-15 ) ) ;
#91 = APPLICATION_CONTEXT ( 'configuration controlled 3d designs of mechanical parts and assemblies' ) ;
#92 = APPROVAL ( #85, 'UNSPECIFIED' ) ;
#93 = TOROIDAL_SURFACE ( 'NONE', #14, 5.500000000000000000, 0.5000000000000006661 ) ;
#94 = DIRECTION ( 'NONE',  ( 4.275831445896958607E-31, 1.000000000000000000, 1.224646799147353207E-16 ) ) ;
#95 = ADVANCED_FACE ( 'NONE', ( #198, #89 ), #176, .T. ) ;
#96 = CC_DESIGN_PERSON_AND_ORGANIZATION_ASSIGNMENT ( #63, #133, ( #121 ) ) ;
#97 = PRODUCT_RELATED_PRODUCT_CATEGORY ( 'detail', '', ( #121 ) ) ;
#98 = CIRCLE ( 'NONE', #156, 5.500000000000000000 ) ;
#99 = COORDINATED_UNIVERSAL_TIME_OFFSET ( 1, 0, .AHEAD. ) ;
#100 = DATE_AND_TIME ( #52, #141 ) ;
#101 = APPROVAL_ROLE ( '' ) ;
#102 = AXIS2_PLACEMENT_3D ( 'NONE', #24, #77, #88 ) ;
#103 = COORDINATED_UNIVERSAL_TIME_OFFSET ( 1, 0, .AHEAD. ) ;
#104 = DIRECTION ( 'NONE',  ( -3.491481338843133355E-15, 1.224646799147353207E-16, -1.000000000000000000 ) ) ;
#105 = VERTEX_POINT ( 'NONE', #116 ) ;
#106 = DIRECTION ( 'NONE',  ( -3.491481338843133355E-15, 1.224646799147353207E-16, -1.000000000000000000 ) ) ;
#107 = VERTEX_POINT ( 'NONE', #157 ) ;
#108 = APPLICATION_CONTEXT ( 'configuration controlled 3d designs of mechanical parts and assemblies' ) ;
#109 = CARTESIAN_POINT ( 'NONE',  ( 0.0000000000000000000, 0.0000000000000000000, 0.0000000000000000000 ) ) ;
#110 = CC_DESIGN_PERSON_AND_ORGANIZATION_ASSIGNMENT ( #140, #16, ( #126 ) ) ;
#111 = FACE_OUTER_BOUND ( 'NONE', #23, .T. ) ;
#112 = AXIS2_PLACEMENT_3D ( 'NONE', #150, #135, #193 ) ;
#113 = AXIS2_PLACEMENT_3D ( 'NONE', #161, #144, #212 ) ;
#114 = PRODUCT_DEFINITION ( 'UNKNOWN', '', #67, #199 ) ;
#115 = CARTESIAN_POINT ( 'NONE',  ( 2.880472104545584703E-13, -1.010333609296566392E-14, 82.50000000000000000 ) ) ;
#116 = CARTESIAN_POINT ( 'NONE',  ( 9.077851480992146724E-14, 5.999999999999996447, 26.00000000000000000 ) ) ;
#117 = COORDINATED_UNIVERSAL_TIME_OFFSET ( 1, 0, .AHEAD. ) ;
#118 = EDGE_LOOP ( 'NONE', ( #208 ) ) ;
#119 = APPROVAL_ROLE ( '' ) ;
#120 = CIRCLE ( 'NONE', #102, 5.500000000000000000 ) ;
#121 = PRODUCT ( '997946', '997946', '', ( #132 ) ) ;
#122 = DATE_AND_TIME ( #207, #36 ) ;
#123 = DATE_AND_TIME ( #35, #11 ) ;
#124 = FACE_OUTER_BOUND ( 'NONE', #139, .T. ) ;
#125 = VERTEX_POINT ( 'NONE', #25 ) ;
#126 = SECURITY_CLASSIFICATION ( '', '', #166 ) ;
#127 = DIRECTION ( 'NONE',  ( -3.491481338843133355E-15, 1.224646799147353207E-16, -1.000000000000000000 ) ) ;
#128 = CIRCLE ( 'NONE', #183, 6.000000000000000000 ) ;
#129 = CARTESIAN_POINT ( 'NONE',  ( 1.745740669421566678E-15, 0.0000000000000000000, 0.5000000000000000000 ) ) ;
#130 = CC_DESIGN_SECURITY_CLASSIFICATION ( #126, ( #67 ) ) ;
#131 =( NAMED_UNIT ( * ) SI_UNIT ( $, .STERADIAN. ) SOLID_ANGLE_UNIT ( ) );
#132 = MECHANICAL_CONTEXT ( 'NONE', #108, 'mechanical' ) ;
#133 = PERSON_AND_ORGANIZATION_ROLE ( 'design_owner' ) ;
#134 = CC_DESIGN_APPROVAL ( #17, ( #114 ) ) ;
#135 = DIRECTION ( 'NONE',  ( 3.491481338843133355E-15, -1.224646799147353207E-16, 1.000000000000000000 ) ) ;
#136 = PERSON_AND_ORGANIZATION ( #213, #200 ) ;
#137 = CALENDAR_DATE ( 2021, 18, 11 ) ;
#138 = EDGE_CURVE ( 'NONE', #125, #125, #57, .T. ) ;
#139 = EDGE_LOOP ( 'NONE', ( #154 ) ) ;
#140 = PERSON_AND_ORGANIZATION ( #213, #200 ) ;
#141 = LOCAL_TIME ( 9, 56, 59.00000000000000000, #167 ) ;
#142 = CARTESIAN_POINT ( 'NONE',  ( 9.077851480992146724E-14, 4.499279347985567350E-32, 26.00000000000000000 ) ) ;
#143 = AXIS2_PLACEMENT_3D ( 'NONE', #178, #127, #58 ) ;
#144 = DIRECTION ( 'NONE',  ( -3.491481338843133355E-15, 1.224646799147353207E-16, -1.000000000000000000 ) ) ;
#145 = FACE_OUTER_BOUND ( 'NONE', #83, .T. ) ;
#146 = CC_DESIGN_DATE_AND_TIME_ASSIGNMENT ( #187, #73, ( #126 ) ) ;
#147 = APPROVAL_PERSON_ORGANIZATION ( #136, #17, #119 ) ;
#148 = FACE_OUTER_BOUND ( 'NONE', #152, .T. ) ;
#149 = DIRECTION ( 'NONE',  ( 3.491481338843133355E-15, -1.224646799147353207E-16, 1.000000000000000000 ) ) ;
#150 = CARTESIAN_POINT ( 'NONE',  ( 9.077851480992146724E-14, 4.499279347985567350E-32, 26.00000000000000000 ) ) ;
#151 = SHAPE_DEFINITION_REPRESENTATION ( #70, #72 ) ;
#152 = EDGE_LOOP ( 'NONE', ( #31 ) ) ;
#153 = ADVANCED_FACE ( 'NONE', ( #148, #5 ), #217, .T. ) ;
#154 = ORIENTED_EDGE ( 'NONE', *, *, #216, .F. ) ;
#155 = PERSON_AND_ORGANIZATION ( #213, #200 ) ;
#156 = AXIS2_PLACEMENT_3D ( 'NONE', #163, #9, #90 ) ;
#157 = CARTESIAN_POINT ( 'NONE',  ( 9.077851480992146724E-14, 5.999999999999996447, 26.00000000000000000 ) ) ;
#158 = ADVANCED_FACE ( 'NONE', ( #160, #124 ), #93, .T. ) ;
#159 = DIRECTION ( 'NONE',  ( -3.491481338843133355E-15, 1.224646799147353207E-16, -1.000000000000000000 ) ) ;
#160 = FACE_OUTER_BOUND ( 'NONE', #44, .T. ) ;
#161 = CARTESIAN_POINT ( 'NONE',  ( 2.880472104545584703E-13, -1.010333609296566392E-14, 82.50000000000000000 ) ) ;
#162 = ADVANCED_FACE ( 'NONE', ( #6 ), #74, .T. ) ;
#163 = CARTESIAN_POINT ( 'NONE',  ( 0.0000000000000000000, 0.0000000000000000000, 0.0000000000000000000 ) ) ;
#164 = VERTEX_POINT ( 'NONE', #59 ) ;
#165 = CARTESIAN_POINT ( 'NONE',  ( 9.077851480992146724E-14, -3.184081677783118191E-15, 26.00000000000000000 ) ) ;
#166 = SECURITY_CLASSIFICATION_LEVEL ( 'unclassified' ) ;
#167 = COORDINATED_UNIVERSAL_TIME_OFFSET ( 1, 0, .AHEAD. ) ;
#168 = ADVANCED_FACE ( 'NONE', ( #145 ), #195, .F. ) ;
#169 = LOCAL_TIME ( 9, 56, 59.00000000000000000, #99 ) ;
#170 = APPROVAL_STATUS ( 'not_yet_approved' ) ;
#171 = CARTESIAN_POINT ( 'NONE',  ( 2.897929511239800811E-13, 5.499999999999989342, 83.00000000000000000 ) ) ;
#172 = DIRECTION ( 'NONE',  ( -3.491481338843133355E-15, 1.224646799147353207E-16, -1.000000000000000000 ) ) ;
#173 = EDGE_LOOP ( 'NONE', ( #19 ) ) ;
#174 = DIRECTION ( 'NONE',  ( 0.0000000000000000000, 1.000000000000000000, 0.0000000000000000000 ) ) ;
#175 = MANIFOLD_SOLID_BREP ( 'Corps-Déplacer/Copier1[2]', #71 ) ;
#176 = CYLINDRICAL_SURFACE ( 'NONE', #196, 6.000000000000000000 ) ;
#177 = EDGE_CURVE ( 'NONE', #191, #191, #120, .T. ) ;
#178 = CARTESIAN_POINT ( 'NONE',  ( -1.282749433769087757E-30, 4.499279347985572824E-32, -3.673940397442059868E-16 ) ) ;
#179 = AXIS2_PLACEMENT_3D ( 'NONE', #142, #149, #79 ) ;
#180 = DIRECTION ( 'NONE',  ( 1.000000000000000000, 0.0000000000000000000, 0.0000000000000000000 ) ) ;
#181 = EDGE_CURVE ( 'NONE', #105, #105, #78, .T. ) ;
#182 = AXIS2_PLACEMENT_3D ( 'NONE', #129, #197, #41 ) ;
#183 = AXIS2_PLACEMENT_3D ( 'NONE', #165, #185, #15 ) ;
#184 = CARTESIAN_POINT ( 'NONE',  ( 5.500000000000000000, 0.0000000000000000000, -1.920314736363723345E-14 ) ) ;
#185 = DIRECTION ( 'NONE',  ( -3.491481338843133355E-15, 1.224646799147353207E-16, -1.000000000000000000 ) ) ;
#186 = PERSON_AND_ORGANIZATION_ROLE ( 'creator' ) ;
#187 = DATE_AND_TIME ( #66, #169 ) ;
#188 = EDGE_LOOP ( 'NONE', ( #49 ) ) ;
#189 = PERSON_AND_ORGANIZATION ( #213, #200 ) ;
#190 = APPROVAL_ROLE ( '' ) ;
#191 = VERTEX_POINT ( 'NONE', #171 ) ;
#192 = CC_DESIGN_PERSON_AND_ORGANIZATION_ASSIGNMENT ( #155, #20, ( #67 ) ) ;
#193 = DIRECTION ( 'NONE',  ( -4.275831445896958607E-31, -1.000000000000000000, -1.224646799147353207E-16 ) ) ;
#194 = ORIENTED_EDGE ( 'NONE', *, *, #181, .F. ) ;
#195 = PLANE ( 'NONE',  #62 ) ;
#196 = AXIS2_PLACEMENT_3D ( 'NONE', #109, #172, #26 ) ;
#197 = DIRECTION ( 'NONE',  ( 3.491481338843133355E-15, -0.0000000000000000000, 1.000000000000000000 ) ) ;
#198 = FACE_OUTER_BOUND ( 'NONE', #40, .T. ) ;
#199 = DESIGN_CONTEXT ( 'detailed design', #91, 'design' ) ;
#200 = ORGANIZATION ( 'UNSPECIFIED', 'UNSPECIFIED', '' ) ;
#201 = APPLICATION_PROTOCOL_DEFINITION ( 'international standard', 'config_control_design', 1994, #91 ) ;
#202 = APPROVAL_PERSON_ORGANIZATION ( #86, #92, #190 ) ;
#203 = FACE_BOUND ( 'NONE', #75, .T. ) ;
#204 =( LENGTH_UNIT ( ) NAMED_UNIT ( * ) SI_UNIT ( .MILLI., .METRE. ) );
#205 = ORIENTED_EDGE ( 'NONE', *, *, #138, .F. ) ;
#206 = DATE_AND_TIME ( #137, #223 ) ;
#207 = CALENDAR_DATE ( 2021, 18, 11 ) ;
#208 = ORIENTED_EDGE ( 'NONE', *, *, #181, .T. ) ;
#209 = DATE_TIME_ROLE ( 'creation_date' ) ;
#210 = CIRCLE ( 'NONE', #182, 6.000000000000000888 ) ;
#211 = EDGE_CURVE ( 'NONE', #28, #28, #98, .T. ) ;
#212 = DIRECTION ( 'NONE',  ( 0.0000000000000000000, 1.000000000000000000, 0.0000000000000000000 ) ) ;
#213 = PERSON ( 'UNSPECIFIED', 'UNSPECIFIED', 'UNSPECIFIED', ('UNSPECIFIED'), ('UNSPECIFIED'), ('UNSPECIFIED') ) ;
#214 = CARTESIAN_POINT ( 'NONE',  ( 9.077851480992146724E-14, -3.184081677783118191E-15, 26.00000000000000000 ) ) ;
#215 = AXIS2_PLACEMENT_3D ( 'NONE', #30, #219, #180 ) ;
#216 = EDGE_CURVE ( 'NONE', #164, #164, #210, .T. ) ;
#217 = CYLINDRICAL_SURFACE ( 'NONE', #221, 6.000000000000000000 ) ;
#218 = DIRECTION ( 'NONE',  ( -3.491481338843133355E-15, 1.224646799147353207E-16, -1.000000000000000000 ) ) ;
#219 = DIRECTION ( 'NONE',  ( 0.0000000000000000000, 0.0000000000000000000, 1.000000000000000000 ) ) ;
#220 = CC_DESIGN_PERSON_AND_ORGANIZATION_ASSIGNMENT ( #50, #186, ( #114 ) ) ;
#221 = AXIS2_PLACEMENT_3D ( 'NONE', #22, #159, #37 ) ;
#222 = PERSON_AND_ORGANIZATION ( #213, #200 ) ;
#223 = LOCAL_TIME ( 9, 56, 59.00000000000000000, #12 ) ;
ENDSEC;
END-ISO-10303-21;
