ISO-10303-21;
HEADER;
FILE_DESCRIPTION (( 'STEP AP203' ),
    '1' );
FILE_NAME ('997945.step',
    '2021-11-18T08:56:59',
    ( '' ),
    ( '' ),
    'SwSTEP 2.0',
    'SolidWorks 2019',
    '' );
FILE_SCHEMA (( 'CONFIG_CONTROL_DESIGN' ));
ENDSEC;

DATA;
#1 = DIRECTION ( 'NONE',  ( -3.491481338843133355E-15, 1.224646799147353207E-16, -1.000000000000000000 ) ) ;
#2 = CARTESIAN_POINT ( 'NONE',  ( 7.681258945454893382E-14, 4.999999999999997335, 22.00000000000000000 ) ) ;
#3 = PRODUCT_DEFINITION ( 'UNKNOWN', '', #121, #60 ) ;
#4 = FACE_OUTER_BOUND ( 'NONE', #102, .T. ) ;
#5 =( LENGTH_UNIT ( ) NAMED_UNIT ( * ) SI_UNIT ( .MILLI., .METRE. ) );
#6 =( GEOMETRIC_REPRESENTATION_CONTEXT ( 3 ) GLOBAL_UNCERTAINTY_ASSIGNED_CONTEXT ( ( #47 ) ) GLOBAL_UNIT_ASSIGNED_CONTEXT ( ( #5, #208, #142 ) ) REPRESENTATION_CONTEXT ( 'NONE', 'WORKASPACE' ) );
#7 = ORIENTED_EDGE ( 'NONE', *, *, #168, .T. ) ;
#8 = APPLICATION_CONTEXT ( 'configuration controlled 3d designs of mechanical parts and assemblies' ) ;
#9 = CARTESIAN_POINT ( 'NONE',  ( 7.681258945454893382E-14, 3.749399456654640188E-32, 22.00000000000000000 ) ) ;
#10 = CIRCLE ( 'NONE', #141, 5.000000000000000888 ) ;
#11 = PERSON_AND_ORGANIZATION_ROLE ( 'classification_officer' ) ;
#12 = PRODUCT ( '997945', '997945', '', ( #199 ) ) ;
#13 = DIRECTION ( 'NONE',  ( 4.275831445896958607E-31, 1.000000000000000000, 1.224646799147353207E-16 ) ) ;
#14 = COORDINATED_UNIVERSAL_TIME_OFFSET ( 1, 0, .AHEAD. ) ;
#15 = EDGE_LOOP ( 'NONE', ( #7 ) ) ;
#16 = LOCAL_TIME ( 9, 56, 59.00000000000000000, #14 ) ;
#17 = COORDINATED_UNIVERSAL_TIME_OFFSET ( 1, 0, .AHEAD. ) ;
#18 = ORIENTED_EDGE ( 'NONE', *, *, #168, .F. ) ;
#19 = DIRECTION ( 'NONE',  ( 3.491481338843133355E-15, -0.0000000000000000000, 1.000000000000000000 ) ) ;
#20 = EDGE_CURVE ( 'NONE', #197, #197, #41, .T. ) ;
#21 = DIRECTION ( 'NONE',  ( 0.0000000000000000000, 1.000000000000000000, 0.0000000000000000000 ) ) ;
#22 = DIRECTION ( 'NONE',  ( -4.275831445896958607E-31, -1.000000000000000000, -1.224646799147353207E-16 ) ) ;
#23 = CARTESIAN_POINT ( 'NONE',  ( 7.681258945454893382E-14, 4.999999999999997335, 22.00000000000000000 ) ) ;
#24 = CC_DESIGN_APPROVAL ( #190, ( #3 ) ) ;
#25 = VERTEX_POINT ( 'NONE', #183 ) ;
#26 = PERSON_AND_ORGANIZATION ( #57, #159 ) ;
#27 = CALENDAR_DATE ( 2021, 18, 11 ) ;
#28 = AXIS2_PLACEMENT_3D ( 'NONE', #170, #123, #13 ) ;
#29 = CALENDAR_DATE ( 2021, 18, 11 ) ;
#30 = EDGE_CURVE ( 'NONE', #92, #92, #74, .T. ) ;
#31 = FACE_OUTER_BOUND ( 'NONE', #75, .T. ) ;
#32 = DATE_TIME_ROLE ( 'creation_date' ) ;
#33 = EDGE_LOOP ( 'NONE', ( #191 ) ) ;
#34 = AXIS2_PLACEMENT_3D ( 'NONE', #174, #19, #85 ) ;
#35 = FACE_OUTER_BOUND ( 'NONE', #173, .T. ) ;
#36 = FACE_OUTER_BOUND ( 'NONE', #15, .T. ) ;
#37 = ORIENTED_EDGE ( 'NONE', *, *, #122, .T. ) ;
#38 = MANIFOLD_SOLID_BREP ( 'Corps-Déplacer/Copier1[2]', #116 ) ;
#39 = VERTEX_POINT ( 'NONE', #162 ) ;
#40 = CARTESIAN_POINT ( 'NONE',  ( 0.0000000000000000000, 0.0000000000000000000, 0.0000000000000000000 ) ) ;
#41 = CIRCLE ( 'NONE', #223, 5.000000000000000000 ) ;
#42 = DATE_AND_TIME ( #137, #193 ) ;
#43 = ADVANCED_FACE ( 'NONE', ( #90, #4 ), #167, .T. ) ;
#44 = FACE_OUTER_BOUND ( 'NONE', #143, .T. ) ;
#45 = TOROIDAL_SURFACE ( 'NONE', #34, 4.000000000000000000, 1.000000000000000000 ) ;
#46 = DATE_AND_TIME ( #27, #196 ) ;
#47 = UNCERTAINTY_MEASURE_WITH_UNIT (LENGTH_MEASURE( 1.000000000000000082E-05 ), #5, 'distance_accuracy_value', 'NONE');
#48 = PERSON_AND_ORGANIZATION ( #57, #159 ) ;
#49 = ORIENTED_EDGE ( 'NONE', *, *, #103, .F. ) ;
#50 = AXIS2_PLACEMENT_3D ( 'NONE', #89, #220, #202 ) ;
#51 = APPROVAL ( #213, 'UNSPECIFIED' ) ;
#52 = FACE_OUTER_BOUND ( 'NONE', #127, .T. ) ;
#53 = ORIENTED_EDGE ( 'NONE', *, *, #30, .T. ) ;
#54 = AXIS2_PLACEMENT_3D ( 'NONE', #161, #1, #203 ) ;
#55 = APPROVAL_STATUS ( 'not_yet_approved' ) ;
#56 = AXIS2_PLACEMENT_3D ( 'NONE', #9, #110, #22 ) ;
#57 = PERSON ( 'UNSPECIFIED', 'UNSPECIFIED', 'UNSPECIFIED', ('UNSPECIFIED'), ('UNSPECIFIED'), ('UNSPECIFIED') ) ;
#58 = PERSON_AND_ORGANIZATION ( #57, #159 ) ;
#59 = CALENDAR_DATE ( 2021, 18, 11 ) ;
#60 = DESIGN_CONTEXT ( 'detailed design', #8, 'design' ) ;
#61 = APPROVAL_DATE_TIME ( #42, #190 ) ;
#62 = MANIFOLD_SOLID_BREP ( 'Corps-Déplacer/Copier1[1]', #151 ) ;
#63 = ORIENTED_EDGE ( 'NONE', *, *, #20, .T. ) ;
#64 = DIRECTION ( 'NONE',  ( 0.0000000000000000000, 1.000000000000000000, 0.0000000000000000000 ) ) ;
#65 = CIRCLE ( 'NONE', #54, 4.500000000000000888 ) ;
#66 = CIRCLE ( 'NONE', #131, 4.000000000000000000 ) ;
#67 = CARTESIAN_POINT ( 'NONE',  ( 0.0000000000000000000, 0.0000000000000000000, 0.0000000000000000000 ) ) ;
#68 = ADVANCED_FACE ( 'NONE', ( #189 ), #217, .T. ) ;
#69 = DIRECTION ( 'NONE',  ( -4.275831445896958607E-31, -1.000000000000000000, -1.224646799147353207E-16 ) ) ;
#70 = PLANE ( 'NONE',  #219 ) ;
#71 = EDGE_LOOP ( 'NONE', ( #49 ) ) ;
#72 = CC_DESIGN_SECURITY_CLASSIFICATION ( #82, ( #121 ) ) ;
#73 = CARTESIAN_POINT ( 'NONE',  ( 4.000000000000000000, 0.0000000000000000000, -1.396592535537253342E-14 ) ) ;
#74 = CIRCLE ( 'NONE', #93, 5.000000000000000000 ) ;
#75 = EDGE_LOOP ( 'NONE', ( #176 ) ) ;
#76 = ADVANCED_BREP_SHAPE_REPRESENTATION ( '997945', ( #62, #38, #129 ), #6 ) ;
#77 = APPLICATION_PROTOCOL_DEFINITION ( 'international standard', 'config_control_design', 1994, #8 ) ;
#78 = DIRECTION ( 'NONE',  ( 3.491481338843133355E-15, -0.0000000000000000000, 1.000000000000000000 ) ) ;
#79 = COORDINATED_UNIVERSAL_TIME_OFFSET ( 1, 0, .AHEAD. ) ;
#80 = PERSON_AND_ORGANIZATION_ROLE ( 'design_supplier' ) ;
#81 = CALENDAR_DATE ( 2021, 18, 11 ) ;
#82 = SECURITY_CLASSIFICATION ( '', '', #136 ) ;
#83 = ORIENTED_EDGE ( 'NONE', *, *, #103, .T. ) ;
#84 = EDGE_LOOP ( 'NONE', ( #53 ) ) ;
#85 = DIRECTION ( 'NONE',  ( 1.000000000000000000, 0.0000000000000000000, -3.491481338843133355E-15 ) ) ;
#86 = EDGE_CURVE ( 'NONE', #39, #39, #65, .T. ) ;
#87 = DIRECTION ( 'NONE',  ( -3.491481338843133355E-15, 1.224646799147353207E-16, -1.000000000000000000 ) ) ;
#88 = DIRECTION ( 'NONE',  ( 4.275831445896958607E-31, 1.000000000000000000, 1.224646799147353207E-16 ) ) ;
#89 = CARTESIAN_POINT ( 'NONE',  ( 3.491481338843134933E-15, 0.0000000000000000000, 1.000000000000000444 ) ) ;
#90 = FACE_BOUND ( 'NONE', #106, .T. ) ;
#91 = CC_DESIGN_DATE_AND_TIME_ASSIGNMENT ( #148, #32, ( #3 ) ) ;
#92 = VERTEX_POINT ( 'NONE', #2 ) ;
#93 = AXIS2_PLACEMENT_3D ( 'NONE', #158, #195, #21 ) ;
#94 = PERSON_AND_ORGANIZATION_ROLE ( 'design_owner' ) ;
#95 = CARTESIAN_POINT ( 'NONE',  ( 0.0000000000000000000, 0.0000000000000000000, 0.0000000000000000000 ) ) ;
#96 = CARTESIAN_POINT ( 'NONE',  ( -1.068957861474239564E-30, 3.749399456654644020E-32, -3.061616997868383141E-16 ) ) ;
#97 = PRODUCT_RELATED_PRODUCT_CATEGORY ( 'detail', '', ( #12 ) ) ;
#98 = APPROVAL_DATE_TIME ( #46, #51 ) ;
#99 = CC_DESIGN_PERSON_AND_ORGANIZATION_ASSIGNMENT ( #186, #11, ( #82 ) ) ;
#100 = APPROVAL_DATE_TIME ( #171, #182 ) ;
#101 = APPROVAL_PERSON_ORGANIZATION ( #58, #51, #146 ) ;
#102 = EDGE_LOOP ( 'NONE', ( #126 ) ) ;
#103 = EDGE_CURVE ( 'NONE', #112, #112, #66, .T. ) ;
#104 = FACE_OUTER_BOUND ( 'NONE', #140, .T. ) ;
#105 = DIRECTION ( 'NONE',  ( -3.491481338843133355E-15, 1.224646799147353207E-16, -1.000000000000000000 ) ) ;
#106 = EDGE_LOOP ( 'NONE', ( #204 ) ) ;
#107 = CIRCLE ( 'NONE', #50, 5.000000000000000000 ) ;
#108 = CARTESIAN_POINT ( 'NONE',  ( 2.496409157272839907E-13, -8.756224613903572559E-15, 71.49999999999998579 ) ) ;
#109 = DIRECTION ( 'NONE',  ( -3.491481338843133355E-15, 1.224646799147353207E-16, -1.000000000000000000 ) ) ;
#110 = DIRECTION ( 'NONE',  ( 3.491481338843133355E-15, -1.224646799147353207E-16, 1.000000000000000000 ) ) ;
#111 = AXIS2_PLACEMENT_3D ( 'NONE', #169, #132, #149 ) ;
#112 = VERTEX_POINT ( 'NONE', #73 ) ;
#113 = APPLICATION_CONTEXT ( 'configuration controlled 3d designs of mechanical parts and assemblies' ) ;
#114 = PERSON_AND_ORGANIZATION_ROLE ( 'creator' ) ;
#115 = APPROVAL_ROLE ( '' ) ;
#116 = CLOSED_SHELL ( 'NONE', ( #165, #119, #214, #68 ) ) ;
#117 = PLANE ( 'NONE',  #56 ) ;
#118 = APPROVAL_ROLE ( '' ) ;
#119 = ADVANCED_FACE ( 'NONE', ( #218 ), #70, .T. ) ;
#120 = PERSON_AND_ORGANIZATION_ROLE ( 'creator' ) ;
#121 = PRODUCT_DEFINITION_FORMATION_WITH_SPECIFIED_SOURCE ( 'ANY', '', #12, .NOT_KNOWN. ) ;
#122 = EDGE_CURVE ( 'NONE', #164, #164, #10, .T. ) ;
#123 = DIRECTION ( 'NONE',  ( -3.491481338843133355E-15, 1.224646799147353207E-16, -1.000000000000000000 ) ) ;
#124 = AXIS2_PLACEMENT_3D ( 'NONE', #157, #109, #222 ) ;
#125 = CYLINDRICAL_SURFACE ( 'NONE', #28, 5.000000000000000888 ) ;
#126 = ORIENTED_EDGE ( 'NONE', *, *, #122, .F. ) ;
#127 = EDGE_LOOP ( 'NONE', ( #37 ) ) ;
#128 = DIRECTION ( 'NONE',  ( -3.491481338843133355E-15, 1.224646799147353207E-16, -1.000000000000000000 ) ) ;
#129 = AXIS2_PLACEMENT_3D ( 'NONE', #40, #144, #211 ) ;
#130 = APPLICATION_PROTOCOL_DEFINITION ( 'international standard', 'config_control_design', 1994, #113 ) ;
#131 = AXIS2_PLACEMENT_3D ( 'NONE', #95, #78, #134 ) ;
#132 = DIRECTION ( 'NONE',  ( -3.491481338843133355E-15, 1.224646799147353207E-16, -1.000000000000000000 ) ) ;
#133 = PERSON_AND_ORGANIZATION ( #57, #159 ) ;
#134 = DIRECTION ( 'NONE',  ( 1.000000000000000000, 0.0000000000000000000, -3.491481338843133355E-15 ) ) ;
#135 = APPROVAL_STATUS ( 'not_yet_approved' ) ;
#136 = SECURITY_CLASSIFICATION_LEVEL ( 'unclassified' ) ;
#137 = CALENDAR_DATE ( 2021, 18, 11 ) ;
#138 = EDGE_LOOP ( 'NONE', ( #194 ) ) ;
#139 = CC_DESIGN_PERSON_AND_ORGANIZATION_ASSIGNMENT ( #133, #80, ( #121 ) ) ;
#140 = EDGE_LOOP ( 'NONE', ( #18 ) ) ;
#141 = AXIS2_PLACEMENT_3D ( 'NONE', #108, #87, #64 ) ;
#142 =( NAMED_UNIT ( * ) SI_UNIT ( $, .STERADIAN. ) SOLID_ANGLE_UNIT ( ) );
#143 = EDGE_LOOP ( 'NONE', ( #63 ) ) ;
#144 = DIRECTION ( 'NONE',  ( 0.0000000000000000000, 0.0000000000000000000, 1.000000000000000000 ) ) ;
#145 = CC_DESIGN_DATE_AND_TIME_ASSIGNMENT ( #201, #150, ( #82 ) ) ;
#146 = APPROVAL_ROLE ( '' ) ;
#147 = AXIS2_PLACEMENT_3D ( 'NONE', #96, #180, #88 ) ;
#148 = DATE_AND_TIME ( #59, #16 ) ;
#149 = DIRECTION ( 'NONE',  ( 0.0000000000000000000, 1.000000000000000000, 0.0000000000000000000 ) ) ;
#150 = DATE_TIME_ROLE ( 'classification_date' ) ;
#151 = CLOSED_SHELL ( 'NONE', ( #221, #160, #43, #178 ) ) ;
#152 = CYLINDRICAL_SURFACE ( 'NONE', #163, 5.000000000000000000 ) ;
#153 = FACE_OUTER_BOUND ( 'NONE', #84, .T. ) ;
#154 = APPROVAL_PERSON_ORGANIZATION ( #206, #190, #115 ) ;
#155 = DIRECTION ( 'NONE',  ( 4.275831445896958607E-31, 1.000000000000000000, 1.224646799147353207E-16 ) ) ;
#156 = PLANE ( 'NONE',  #124 ) ;
#157 = CARTESIAN_POINT ( 'NONE',  ( 2.513866563967056016E-13, 3.374459510989167028E-32, 72.00000000000000000 ) ) ;
#158 = CARTESIAN_POINT ( 'NONE',  ( 7.681258945454893382E-14, -2.694222958124176809E-15, 22.00000000000000000 ) ) ;
#159 = ORGANIZATION ( 'UNSPECIFIED', 'UNSPECIFIED', '' ) ;
#160 = ADVANCED_FACE ( 'NONE', ( #52, #31 ), #125, .T. ) ;
#161 = CARTESIAN_POINT ( 'NONE',  ( 2.513866563967056016E-13, -8.817456953860941711E-15, 72.00000000000000000 ) ) ;
#162 = CARTESIAN_POINT ( 'NONE',  ( 2.513866563967056016E-13, 4.499999999999992006, 72.00000000000000000 ) ) ;
#163 = AXIS2_PLACEMENT_3D ( 'NONE', #67, #105, #155 ) ;
#164 = VERTEX_POINT ( 'NONE', #179 ) ;
#165 = ADVANCED_FACE ( 'NONE', ( #36, #44 ), #152, .T. ) ;
#166 = SHAPE_DEFINITION_REPRESENTATION ( #212, #76 ) ;
#167 = CONICAL_SURFACE ( 'NONE', #111, 5.000000000000000888, 0.7853981633974344012 ) ;
#168 = EDGE_CURVE ( 'NONE', #25, #25, #107, .T. ) ;
#169 = CARTESIAN_POINT ( 'NONE',  ( 2.496409157272839907E-13, -8.756224613903572559E-15, 71.49999999999998579 ) ) ;
#170 = CARTESIAN_POINT ( 'NONE',  ( 0.0000000000000000000, 0.0000000000000000000, 0.0000000000000000000 ) ) ;
#171 = DATE_AND_TIME ( #81, #172 ) ;
#172 = LOCAL_TIME ( 9, 56, 59.00000000000000000, #79 ) ;
#173 = EDGE_LOOP ( 'NONE', ( #83 ) ) ;
#174 = CARTESIAN_POINT ( 'NONE',  ( 3.491481338843133355E-15, 0.0000000000000000000, 1.000000000000000000 ) ) ;
#175 = APPROVAL_PERSON_ORGANIZATION ( #26, #182, #118 ) ;
#176 = ORIENTED_EDGE ( 'NONE', *, *, #30, .F. ) ;
#177 = DIRECTION ( 'NONE',  ( 0.0000000000000000000, 1.000000000000000000, 0.0000000000000000000 ) ) ;
#178 = ADVANCED_FACE ( 'NONE', ( #192 ), #156, .F. ) ;
#179 = CARTESIAN_POINT ( 'NONE',  ( 2.496409157272839907E-13, 4.999999999999992006, 71.49999999999998579 ) ) ;
#180 = DIRECTION ( 'NONE',  ( -3.491481338843133355E-15, 1.224646799147353207E-16, -1.000000000000000000 ) ) ;
#181 = CARTESIAN_POINT ( 'NONE',  ( 7.681258945454893382E-14, 3.749399456654640188E-32, 22.00000000000000000 ) ) ;
#182 = APPROVAL ( #135, 'UNSPECIFIED' ) ;
#183 = CARTESIAN_POINT ( 'NONE',  ( 5.000000000000003553, 0.0000000000000000000, 0.9999999999999829026 ) ) ;
#184 = CC_DESIGN_APPROVAL ( #51, ( #121 ) ) ;
#185 = PERSON_AND_ORGANIZATION ( #57, #159 ) ;
#186 = PERSON_AND_ORGANIZATION ( #57, #159 ) ;
#187 = CC_DESIGN_PERSON_AND_ORGANIZATION_ASSIGNMENT ( #185, #94, ( #12 ) ) ;
#188 = COORDINATED_UNIVERSAL_TIME_OFFSET ( 1, 0, .AHEAD. ) ;
#189 = FACE_OUTER_BOUND ( 'NONE', #71, .T. ) ;
#190 = APPROVAL ( #55, 'UNSPECIFIED' ) ;
#191 = ORIENTED_EDGE ( 'NONE', *, *, #20, .F. ) ;
#192 = FACE_OUTER_BOUND ( 'NONE', #138, .T. ) ;
#193 = LOCAL_TIME ( 9, 56, 59.00000000000000000, #17 ) ;
#194 = ORIENTED_EDGE ( 'NONE', *, *, #86, .F. ) ;
#195 = DIRECTION ( 'NONE',  ( -3.491481338843133355E-15, 1.224646799147353207E-16, -1.000000000000000000 ) ) ;
#196 = LOCAL_TIME ( 9, 56, 59.00000000000000000, #216 ) ;
#197 = VERTEX_POINT ( 'NONE', #23 ) ;
#198 = CC_DESIGN_PERSON_AND_ORGANIZATION_ASSIGNMENT ( #215, #114, ( #121 ) ) ;
#199 = MECHANICAL_CONTEXT ( 'NONE', #113, 'mechanical' ) ;
#200 = CC_DESIGN_APPROVAL ( #182, ( #82 ) ) ;
#201 = DATE_AND_TIME ( #29, #205 ) ;
#202 = DIRECTION ( 'NONE',  ( 1.000000000000000000, 0.0000000000000000000, -3.512815038853034366E-15 ) ) ;
#203 = DIRECTION ( 'NONE',  ( 0.0000000000000000000, 1.000000000000000000, 0.0000000000000000000 ) ) ;
#204 = ORIENTED_EDGE ( 'NONE', *, *, #86, .T. ) ;
#205 = LOCAL_TIME ( 9, 56, 59.00000000000000000, #188 ) ;
#206 = PERSON_AND_ORGANIZATION ( #57, #159 ) ;
#207 = CARTESIAN_POINT ( 'NONE',  ( 7.681258945454893382E-14, -2.694222958124176809E-15, 22.00000000000000000 ) ) ;
#208 =( NAMED_UNIT ( * ) PLANE_ANGLE_UNIT ( ) SI_UNIT ( $, .RADIAN. ) );
#209 = DIRECTION ( 'NONE',  ( 3.491481338843133355E-15, -1.224646799147353207E-16, 1.000000000000000000 ) ) ;
#210 = CC_DESIGN_PERSON_AND_ORGANIZATION_ASSIGNMENT ( #48, #120, ( #3 ) ) ;
#211 = DIRECTION ( 'NONE',  ( 1.000000000000000000, 0.0000000000000000000, 0.0000000000000000000 ) ) ;
#212 = PRODUCT_DEFINITION_SHAPE ( 'NONE', 'NONE',  #3 ) ;
#213 = APPROVAL_STATUS ( 'not_yet_approved' ) ;
#214 = ADVANCED_FACE ( 'NONE', ( #35, #104 ), #45, .T. ) ;
#215 = PERSON_AND_ORGANIZATION ( #57, #159 ) ;
#216 = COORDINATED_UNIVERSAL_TIME_OFFSET ( 1, 0, .AHEAD. ) ;
#217 = PLANE ( 'NONE',  #147 ) ;
#218 = FACE_OUTER_BOUND ( 'NONE', #33, .T. ) ;
#219 = AXIS2_PLACEMENT_3D ( 'NONE', #181, #209, #69 ) ;
#220 = DIRECTION ( 'NONE',  ( 3.491481338843133355E-15, -0.0000000000000000000, 1.000000000000000000 ) ) ;
#221 = ADVANCED_FACE ( 'NONE', ( #153 ), #117, .F. ) ;
#222 = DIRECTION ( 'NONE',  ( 4.275831445896958607E-31, 1.000000000000000000, 1.224646799147353207E-16 ) ) ;
#223 = AXIS2_PLACEMENT_3D ( 'NONE', #207, #128, #177 ) ;
ENDSEC;
END-ISO-10303-21;
