ISO-10303-21;
HEADER;
FILE_DESCRIPTION (( 'STEP AP203' ),
    '1' );
FILE_NAME ('997944.step',
    '2021-11-18T08:56:58',
    ( '' ),
    ( '' ),
    'SwSTEP 2.0',
    'SolidWorks 2019',
    '' );
FILE_SCHEMA (( 'CONFIG_CONTROL_DESIGN' ));
ENDSEC;

DATA;
#1 = ADVANCED_FACE ( 'NONE', ( #196, #210 ), #19, .T. ) ;
#2 =( GEOMETRIC_REPRESENTATION_CONTEXT ( 3 ) GLOBAL_UNCERTAINTY_ASSIGNED_CONTEXT ( ( #73 ) ) GLOBAL_UNIT_ASSIGNED_CONTEXT ( ( #44, #68, #27 ) ) REPRESENTATION_CONTEXT ( 'NONE', 'WORKASPACE' ) );
#3 = CARTESIAN_POINT ( 'NONE',  ( 0.0000000000000000000, 0.0000000000000000000, 0.0000000000000000000 ) ) ;
#4 = CIRCLE ( 'NONE', #34, 5.000000000000000888 ) ;
#5 = APPROVAL_PERSON_ORGANIZATION ( #92, #8, #6 ) ;
#6 = APPROVAL_ROLE ( '' ) ;
#7 = EDGE_LOOP ( 'NONE', ( #212 ) ) ;
#8 = APPROVAL ( #162, 'UNSPECIFIED' ) ;
#9 = ORIENTED_EDGE ( 'NONE', *, *, #26, .F. ) ;
#10 = DATE_AND_TIME ( #94, #45 ) ;
#11 = CARTESIAN_POINT ( 'NONE',  ( 0.0000000000000000000, 0.0000000000000000000, 0.0000000000000000000 ) ) ;
#12 = DIRECTION ( 'NONE',  ( 4.275831445896958607E-31, 1.000000000000000000, 1.224646799147353207E-16 ) ) ;
#13 = FACE_OUTER_BOUND ( 'NONE', #110, .T. ) ;
#14 = DIRECTION ( 'NONE',  ( 3.491481338843133355E-15, -0.0000000000000000000, 1.000000000000000000 ) ) ;
#15 = CARTESIAN_POINT ( 'NONE',  ( 7.681258945454893382E-14, 4.999999999999997335, 22.00000000000000000 ) ) ;
#16 = PERSON_AND_ORGANIZATION_ROLE ( 'classification_officer' ) ;
#17 = COORDINATED_UNIVERSAL_TIME_OFFSET ( 1, 0, .AHEAD. ) ;
#18 = PRODUCT_DEFINITION ( 'UNKNOWN', '', #215, #204 ) ;
#19 = CYLINDRICAL_SURFACE ( 'NONE', #152, 5.000000000000000888 ) ;
#20 = AXIS2_PLACEMENT_3D ( 'NONE', #188, #14, #187 ) ;
#21 = PLANE ( 'NONE',  #133 ) ;
#22 = FACE_OUTER_BOUND ( 'NONE', #142, .T. ) ;
#23 = AXIS2_PLACEMENT_3D ( 'NONE', #3, #213, #193 ) ;
#24 = EDGE_LOOP ( 'NONE', ( #174 ) ) ;
#25 = DIRECTION ( 'NONE',  ( 0.0000000000000000000, 1.000000000000000000, 0.0000000000000000000 ) ) ;
#26 = EDGE_CURVE ( 'NONE', #216, #216, #55, .T. ) ;
#27 =( NAMED_UNIT ( * ) SI_UNIT ( $, .STERADIAN. ) SOLID_ANGLE_UNIT ( ) );
#28 = CARTESIAN_POINT ( 'NONE',  ( 2.496409157272839907E-13, 4.999999999999992006, 71.49999999999998579 ) ) ;
#29 = VERTEX_POINT ( 'NONE', #15 ) ;
#30 = FACE_OUTER_BOUND ( 'NONE', #149, .T. ) ;
#31 = APPROVAL_ROLE ( '' ) ;
#32 = PERSON_AND_ORGANIZATION ( #151, #153 ) ;
#33 = LOCAL_TIME ( 9, 56, 58.00000000000000000, #52 ) ;
#34 = AXIS2_PLACEMENT_3D ( 'NONE', #160, #57, #90 ) ;
#35 = CIRCLE ( 'NONE', #86, 5.000000000000000000 ) ;
#36 = DIRECTION ( 'NONE',  ( -3.491481338843133355E-15, 1.224646799147353207E-16, -1.000000000000000000 ) ) ;
#37 = ORIENTED_EDGE ( 'NONE', *, *, #178, .F. ) ;
#38 = DIRECTION ( 'NONE',  ( 4.275831445896958607E-31, 1.000000000000000000, 1.224646799147353207E-16 ) ) ;
#39 = DIRECTION ( 'NONE',  ( -4.275831445896958607E-31, -1.000000000000000000, -1.224646799147353207E-16 ) ) ;
#40 = CALENDAR_DATE ( 2021, 18, 11 ) ;
#41 = CARTESIAN_POINT ( 'NONE',  ( 1.745740669421567072E-15, 0.0000000000000000000, 0.5000000000000001110 ) ) ;
#42 = ORIENTED_EDGE ( 'NONE', *, *, #72, .T. ) ;
#43 = EDGE_CURVE ( 'NONE', #79, #79, #189, .T. ) ;
#44 =( LENGTH_UNIT ( ) NAMED_UNIT ( * ) SI_UNIT ( .MILLI., .METRE. ) );
#45 = LOCAL_TIME ( 9, 56, 58.00000000000000000, #198 ) ;
#46 = DATE_TIME_ROLE ( 'classification_date' ) ;
#47 = CARTESIAN_POINT ( 'NONE',  ( 7.681258945454893382E-14, 4.999999999999997335, 22.00000000000000000 ) ) ;
#48 = FACE_OUTER_BOUND ( 'NONE', #208, .T. ) ;
#49 = FACE_OUTER_BOUND ( 'NONE', #7, .T. ) ;
#50 = CC_DESIGN_SECURITY_CLASSIFICATION ( #134, ( #215 ) ) ;
#51 = DATE_AND_TIME ( #131, #145 ) ;
#52 = COORDINATED_UNIVERSAL_TIME_OFFSET ( 1, 0, .AHEAD. ) ;
#53 = CC_DESIGN_DATE_AND_TIME_ASSIGNMENT ( #221, #171, ( #18 ) ) ;
#54 = SHAPE_DEFINITION_REPRESENTATION ( #138, #141 ) ;
#55 = CIRCLE ( 'NONE', #103, 4.999999999999999112 ) ;
#56 = DIRECTION ( 'NONE',  ( -3.491481338843133355E-15, 1.224646799147353207E-16, -1.000000000000000000 ) ) ;
#57 = DIRECTION ( 'NONE',  ( -3.491481338843133355E-15, 1.224646799147353207E-16, -1.000000000000000000 ) ) ;
#58 = TOROIDAL_SURFACE ( 'NONE', #20, 4.500000000000000000, 0.4999999999999997780 ) ;
#59 = ORIENTED_EDGE ( 'NONE', *, *, #220, .F. ) ;
#60 = PERSON_AND_ORGANIZATION_ROLE ( 'creator' ) ;
#61 = PLANE ( 'NONE',  #218 ) ;
#62 = AXIS2_PLACEMENT_3D ( 'NONE', #107, #77, #39 ) ;
#63 = CALENDAR_DATE ( 2021, 18, 11 ) ;
#64 = AXIS2_PLACEMENT_3D ( 'NONE', #200, #95, #25 ) ;
#65 = APPLICATION_CONTEXT ( 'configuration controlled 3d designs of mechanical parts and assemblies' ) ;
#66 = MECHANICAL_CONTEXT ( 'NONE', #91, 'mechanical' ) ;
#67 = CARTESIAN_POINT ( 'NONE',  ( 7.681258945454893382E-14, -2.694222958124176809E-15, 22.00000000000000000 ) ) ;
#68 =( NAMED_UNIT ( * ) PLANE_ANGLE_UNIT ( ) SI_UNIT ( $, .RADIAN. ) );
#69 = AXIS2_PLACEMENT_3D ( 'NONE', #67, #148, #167 ) ;
#70 = APPROVAL_STATUS ( 'not_yet_approved' ) ;
#71 = MANIFOLD_SOLID_BREP ( 'Corps-Déplacer/Copier1[1]', #122 ) ;
#72 = EDGE_CURVE ( 'NONE', #99, #99, #4, .T. ) ;
#73 = UNCERTAINTY_MEASURE_WITH_UNIT (LENGTH_MEASURE( 1.000000000000000082E-05 ), #44, 'distance_accuracy_value', 'NONE');
#74 = CIRCLE ( 'NONE', #69, 5.000000000000000000 ) ;
#75 = PLANE ( 'NONE',  #62 ) ;
#76 = EDGE_LOOP ( 'NONE', ( #9 ) ) ;
#77 = DIRECTION ( 'NONE',  ( 3.491481338843133355E-15, -1.224646799147353207E-16, 1.000000000000000000 ) ) ;
#78 = EDGE_LOOP ( 'NONE', ( #139 ) ) ;
#79 = VERTEX_POINT ( 'NONE', #219 ) ;
#80 = DIRECTION ( 'NONE',  ( -4.275831445896958607E-31, -1.000000000000000000, -1.224646799147353207E-16 ) ) ;
#81 = PERSON_AND_ORGANIZATION ( #151, #153 ) ;
#82 = AXIS2_PLACEMENT_3D ( 'NONE', #209, #56, #93 ) ;
#83 = APPROVAL ( #190, 'UNSPECIFIED' ) ;
#84 = LOCAL_TIME ( 9, 56, 58.00000000000000000, #17 ) ;
#85 = PERSON_AND_ORGANIZATION ( #151, #153 ) ;
#86 = AXIS2_PLACEMENT_3D ( 'NONE', #130, #166, #184 ) ;
#87 = APPROVAL ( #70, 'UNSPECIFIED' ) ;
#88 = EDGE_LOOP ( 'NONE', ( #42 ) ) ;
#89 = DIRECTION ( 'NONE',  ( -3.491481338843133355E-15, 1.224646799147353207E-16, -1.000000000000000000 ) ) ;
#90 = DIRECTION ( 'NONE',  ( 0.0000000000000000000, 1.000000000000000000, 0.0000000000000000000 ) ) ;
#91 = APPLICATION_CONTEXT ( 'configuration controlled 3d designs of mechanical parts and assemblies' ) ;
#92 = PERSON_AND_ORGANIZATION ( #151, #153 ) ;
#93 = DIRECTION ( 'NONE',  ( 0.0000000000000000000, 1.000000000000000000, 0.0000000000000000000 ) ) ;
#94 = CALENDAR_DATE ( 2021, 18, 11 ) ;
#95 = DIRECTION ( 'NONE',  ( -3.491481338843133355E-15, 1.224646799147353207E-16, -1.000000000000000000 ) ) ;
#96 = PERSON_AND_ORGANIZATION_ROLE ( 'design_owner' ) ;
#97 = ADVANCED_FACE ( 'NONE', ( #135 ), #75, .F. ) ;
#98 = CC_DESIGN_PERSON_AND_ORGANIZATION_ASSIGNMENT ( #128, #96, ( #183 ) ) ;
#99 = VERTEX_POINT ( 'NONE', #28 ) ;
#100 = APPROVAL_DATE_TIME ( #126, #83 ) ;
#101 = CLOSED_SHELL ( 'NONE', ( #207, #154, #211, #114 ) ) ;
#102 = MANIFOLD_SOLID_BREP ( 'Corps-Déplacer/Copier1[2]', #101 ) ;
#103 = AXIS2_PLACEMENT_3D ( 'NONE', #41, #195, #156 ) ;
#104 = APPROVAL_PERSON_ORGANIZATION ( #182, #83, #31 ) ;
#105 = ORIENTED_EDGE ( 'NONE', *, *, #43, .T. ) ;
#106 = APPROVAL_PERSON_ORGANIZATION ( #129, #87, #117 ) ;
#107 = CARTESIAN_POINT ( 'NONE',  ( 7.681258945454893382E-14, 3.749399456654640188E-32, 22.00000000000000000 ) ) ;
#108 = EDGE_LOOP ( 'NONE', ( #59 ) ) ;
#109 = DIRECTION ( 'NONE',  ( 4.275831445896958607E-31, 1.000000000000000000, 1.224646799147353207E-16 ) ) ;
#110 = EDGE_LOOP ( 'NONE', ( #120 ) ) ;
#111 = PERSON_AND_ORGANIZATION_ROLE ( 'creator' ) ;
#112 = APPLICATION_PROTOCOL_DEFINITION ( 'international standard', 'config_control_design', 1994, #91 ) ;
#113 = COORDINATED_UNIVERSAL_TIME_OFFSET ( 1, 0, .AHEAD. ) ;
#114 = ADVANCED_FACE ( 'NONE', ( #140 ), #61, .T. ) ;
#115 = FACE_BOUND ( 'NONE', #177, .T. ) ;
#116 = EDGE_CURVE ( 'NONE', #201, #201, #118, .T. ) ;
#117 = APPROVAL_ROLE ( '' ) ;
#118 = CIRCLE ( 'NONE', #82, 4.500000000000000888 ) ;
#119 = CC_DESIGN_APPROVAL ( #8, ( #134 ) ) ;
#120 = ORIENTED_EDGE ( 'NONE', *, *, #26, .T. ) ;
#121 = ORIENTED_EDGE ( 'NONE', *, *, #178, .T. ) ;
#122 = CLOSED_SHELL ( 'NONE', ( #97, #1, #172, #132 ) ) ;
#123 = CARTESIAN_POINT ( 'NONE',  ( -1.068957861474239564E-30, 3.749399456654644020E-32, -3.061616997868383141E-16 ) ) ;
#124 = ORIENTED_EDGE ( 'NONE', *, *, #220, .T. ) ;
#125 = FACE_OUTER_BOUND ( 'NONE', #78, .T. ) ;
#126 = DATE_AND_TIME ( #63, #84 ) ;
#127 = CC_DESIGN_APPROVAL ( #87, ( #18 ) ) ;
#128 = PERSON_AND_ORGANIZATION ( #151, #153 ) ;
#129 = PERSON_AND_ORGANIZATION ( #151, #153 ) ;
#130 = CARTESIAN_POINT ( 'NONE',  ( 7.681258945454893382E-14, -2.694222958124176809E-15, 22.00000000000000000 ) ) ;
#131 = CALENDAR_DATE ( 2021, 18, 11 ) ;
#132 = ADVANCED_FACE ( 'NONE', ( #125 ), #175, .F. ) ;
#133 = AXIS2_PLACEMENT_3D ( 'NONE', #159, #180, #80 ) ;
#134 = SECURITY_CLASSIFICATION ( '', '', #169 ) ;
#135 = FACE_OUTER_BOUND ( 'NONE', #157, .T. ) ;
#136 = CC_DESIGN_DATE_AND_TIME_ASSIGNMENT ( #179, #46, ( #134 ) ) ;
#137 = CARTESIAN_POINT ( 'NONE',  ( 0.0000000000000000000, 0.0000000000000000000, 0.0000000000000000000 ) ) ;
#138 = PRODUCT_DEFINITION_SHAPE ( 'NONE', 'NONE',  #18 ) ;
#139 = ORIENTED_EDGE ( 'NONE', *, *, #116, .F. ) ;
#140 = FACE_OUTER_BOUND ( 'NONE', #24, .T. ) ;
#141 = ADVANCED_BREP_SHAPE_REPRESENTATION ( '997944', ( #71, #102, #191 ), #2 ) ;
#142 = EDGE_LOOP ( 'NONE', ( #37 ) ) ;
#143 = PERSON_AND_ORGANIZATION ( #151, #153 ) ;
#144 = DIRECTION ( 'NONE',  ( 1.000000000000000000, 0.0000000000000000000, 0.0000000000000000000 ) ) ;
#145 = LOCAL_TIME ( 9, 56, 58.00000000000000000, #203 ) ;
#146 = FACE_OUTER_BOUND ( 'NONE', #76, .T. ) ;
#147 = CARTESIAN_POINT ( 'NONE',  ( 2.513866563967056016E-13, 4.499999999999992006, 72.00000000000000000 ) ) ;
#148 = DIRECTION ( 'NONE',  ( -3.491481338843133355E-15, 1.224646799147353207E-16, -1.000000000000000000 ) ) ;
#149 = EDGE_LOOP ( 'NONE', ( #121 ) ) ;
#150 = CALENDAR_DATE ( 2021, 18, 11 ) ;
#151 = PERSON ( 'UNSPECIFIED', 'UNSPECIFIED', 'UNSPECIFIED', ('UNSPECIFIED'), ('UNSPECIFIED'), ('UNSPECIFIED') ) ;
#152 = AXIS2_PLACEMENT_3D ( 'NONE', #137, #89, #38 ) ;
#153 = ORGANIZATION ( 'UNSPECIFIED', 'UNSPECIFIED', '' ) ;
#154 = ADVANCED_FACE ( 'NONE', ( #22 ), #21, .T. ) ;
#155 = PRODUCT_RELATED_PRODUCT_CATEGORY ( 'detail', '', ( #183 ) ) ;
#156 = DIRECTION ( 'NONE',  ( 1.000000000000000000, 0.0000000000000000000, -3.491130995403325066E-15 ) ) ;
#157 = EDGE_LOOP ( 'NONE', ( #124 ) ) ;
#158 = CC_DESIGN_PERSON_AND_ORGANIZATION_ASSIGNMENT ( #81, #223, ( #215 ) ) ;
#159 = CARTESIAN_POINT ( 'NONE',  ( 7.681258945454893382E-14, 3.749399456654640188E-32, 22.00000000000000000 ) ) ;
#160 = CARTESIAN_POINT ( 'NONE',  ( 2.496409157272839907E-13, -8.756224613903572559E-15, 71.49999999999998579 ) ) ;
#161 = LOCAL_TIME ( 9, 56, 58.00000000000000000, #113 ) ;
#162 = APPROVAL_STATUS ( 'not_yet_approved' ) ;
#163 = CC_DESIGN_PERSON_AND_ORGANIZATION_ASSIGNMENT ( #143, #111, ( #18 ) ) ;
#164 = VERTEX_POINT ( 'NONE', #47 ) ;
#165 = APPLICATION_PROTOCOL_DEFINITION ( 'international standard', 'config_control_design', 1994, #65 ) ;
#166 = DIRECTION ( 'NONE',  ( -3.491481338843133355E-15, 1.224646799147353207E-16, -1.000000000000000000 ) ) ;
#167 = DIRECTION ( 'NONE',  ( 0.0000000000000000000, 1.000000000000000000, 0.0000000000000000000 ) ) ;
#168 = DIRECTION ( 'NONE',  ( -3.491481338843133355E-15, 1.224646799147353207E-16, -1.000000000000000000 ) ) ;
#169 = SECURITY_CLASSIFICATION_LEVEL ( 'unclassified' ) ;
#170 = ORIENTED_EDGE ( 'NONE', *, *, #116, .T. ) ;
#171 = DATE_TIME_ROLE ( 'creation_date' ) ;
#172 = ADVANCED_FACE ( 'NONE', ( #115, #49 ), #199, .T. ) ;
#173 = DIRECTION ( 'NONE',  ( 4.275831445896958607E-31, 1.000000000000000000, 1.224646799147353207E-16 ) ) ;
#174 = ORIENTED_EDGE ( 'NONE', *, *, #43, .F. ) ;
#175 = PLANE ( 'NONE',  #206 ) ;
#176 = DIRECTION ( 'NONE',  ( -3.491481338843133355E-15, 1.224646799147353207E-16, -1.000000000000000000 ) ) ;
#177 = EDGE_LOOP ( 'NONE', ( #170 ) ) ;
#178 = EDGE_CURVE ( 'NONE', #164, #164, #74, .T. ) ;
#179 = DATE_AND_TIME ( #40, #33 ) ;
#180 = DIRECTION ( 'NONE',  ( 3.491481338843133355E-15, -1.224646799147353207E-16, 1.000000000000000000 ) ) ;
#181 = AXIS2_PLACEMENT_3D ( 'NONE', #185, #168, #12 ) ;
#182 = PERSON_AND_ORGANIZATION ( #151, #153 ) ;
#183 = PRODUCT ( '997944', '997944', '', ( #66 ) ) ;
#184 = DIRECTION ( 'NONE',  ( 0.0000000000000000000, 1.000000000000000000, 0.0000000000000000000 ) ) ;
#185 = CARTESIAN_POINT ( 'NONE',  ( 0.0000000000000000000, 0.0000000000000000000, 0.0000000000000000000 ) ) ;
#186 = CC_DESIGN_PERSON_AND_ORGANIZATION_ASSIGNMENT ( #85, #16, ( #134 ) ) ;
#187 = DIRECTION ( 'NONE',  ( 1.000000000000000000, 0.0000000000000000000, -3.491481338843133355E-15 ) ) ;
#188 = CARTESIAN_POINT ( 'NONE',  ( 1.745740669421566678E-15, 0.0000000000000000000, 0.5000000000000000000 ) ) ;
#189 = CIRCLE ( 'NONE', #23, 4.500000000000000000 ) ;
#190 = APPROVAL_STATUS ( 'not_yet_approved' ) ;
#191 = AXIS2_PLACEMENT_3D ( 'NONE', #11, #217, #144 ) ;
#192 = CC_DESIGN_APPROVAL ( #83, ( #215 ) ) ;
#193 = DIRECTION ( 'NONE',  ( 1.000000000000000000, 0.0000000000000000000, -3.491481338843133355E-15 ) ) ;
#194 = CC_DESIGN_PERSON_AND_ORGANIZATION_ASSIGNMENT ( #32, #60, ( #215 ) ) ;
#195 = DIRECTION ( 'NONE',  ( 3.491481338843133355E-15, -0.0000000000000000000, 1.000000000000000000 ) ) ;
#196 = FACE_OUTER_BOUND ( 'NONE', #88, .T. ) ;
#197 = CARTESIAN_POINT ( 'NONE',  ( 2.513866563967056016E-13, 3.374459510989167028E-32, 72.00000000000000000 ) ) ;
#198 = COORDINATED_UNIVERSAL_TIME_OFFSET ( 1, 0, .AHEAD. ) ;
#199 = CONICAL_SURFACE ( 'NONE', #64, 5.000000000000000888, 0.7853981633974344012 ) ;
#200 = CARTESIAN_POINT ( 'NONE',  ( 2.496409157272839907E-13, -8.756224613903572559E-15, 71.49999999999998579 ) ) ;
#201 = VERTEX_POINT ( 'NONE', #147 ) ;
#202 = CARTESIAN_POINT ( 'NONE',  ( 5.000000000000000888, 0.0000000000000000000, 0.4999999999999826805 ) ) ;
#203 = COORDINATED_UNIVERSAL_TIME_OFFSET ( 1, 0, .AHEAD. ) ;
#204 = DESIGN_CONTEXT ( 'detailed design', #65, 'design' ) ;
#205 = APPROVAL_DATE_TIME ( #10, #8 ) ;
#206 = AXIS2_PLACEMENT_3D ( 'NONE', #197, #176, #109 ) ;
#207 = ADVANCED_FACE ( 'NONE', ( #13, #30 ), #214, .T. ) ;
#208 = EDGE_LOOP ( 'NONE', ( #105 ) ) ;
#209 = CARTESIAN_POINT ( 'NONE',  ( 2.513866563967056016E-13, -8.817456953860941711E-15, 72.00000000000000000 ) ) ;
#210 = FACE_OUTER_BOUND ( 'NONE', #108, .T. ) ;
#211 = ADVANCED_FACE ( 'NONE', ( #48, #146 ), #58, .T. ) ;
#212 = ORIENTED_EDGE ( 'NONE', *, *, #72, .F. ) ;
#213 = DIRECTION ( 'NONE',  ( 3.491481338843133355E-15, -0.0000000000000000000, 1.000000000000000000 ) ) ;
#214 = CYLINDRICAL_SURFACE ( 'NONE', #181, 5.000000000000000000 ) ;
#215 = PRODUCT_DEFINITION_FORMATION_WITH_SPECIFIED_SOURCE ( 'ANY', '', #183, .NOT_KNOWN. ) ;
#216 = VERTEX_POINT ( 'NONE', #202 ) ;
#217 = DIRECTION ( 'NONE',  ( 0.0000000000000000000, 0.0000000000000000000, 1.000000000000000000 ) ) ;
#218 = AXIS2_PLACEMENT_3D ( 'NONE', #123, #36, #173 ) ;
#219 = CARTESIAN_POINT ( 'NONE',  ( 4.500000000000000000, 0.0000000000000000000, -1.571166602479410010E-14 ) ) ;
#220 = EDGE_CURVE ( 'NONE', #29, #29, #35, .T. ) ;
#221 = DATE_AND_TIME ( #150, #161 ) ;
#222 = APPROVAL_DATE_TIME ( #51, #87 ) ;
#223 = PERSON_AND_ORGANIZATION_ROLE ( 'design_supplier' ) ;
ENDSEC;
END-ISO-10303-21;
