ISO-10303-21;
HEADER;
FILE_DESCRIPTION (( 'STEP AP203' ),
    '1' );
FILE_NAME ('997943.step',
    '2021-11-18T08:56:58',
    ( '' ),
    ( '' ),
    'SwSTEP 2.0',
    'SolidWorks 2019',
    '' );
FILE_SCHEMA (( 'CONFIG_CONTROL_DESIGN' ));
ENDSEC;

DATA;
#1 = CARTESIAN_POINT ( 'NONE',  ( 0.0000000000000000000, 0.0000000000000000000, 0.0000000000000000000 ) ) ;
#2 = FACE_OUTER_BOUND ( 'NONE', #215, .T. ) ;
#3 = AXIS2_PLACEMENT_3D ( 'NONE', #129, #57, #112 ) ;
#4 = AXIS2_PLACEMENT_3D ( 'NONE', #28, #30, #93 ) ;
#5 = ADVANCED_FACE ( 'NONE', ( #223, #172 ), #16, .T. ) ;
#6 = DATE_TIME_ROLE ( 'creation_date' ) ;
#7 = PRODUCT_DEFINITION_SHAPE ( 'NONE', 'NONE',  #118 ) ;
#8 = PERSON_AND_ORGANIZATION ( #54, #162 ) ;
#9 = COORDINATED_UNIVERSAL_TIME_OFFSET ( 1, 0, .AHEAD. ) ;
#10 = CIRCLE ( 'NONE', #22, 4.000000000000000000 ) ;
#11 = DIRECTION ( 'NONE',  ( 4.275831445896958607E-31, 1.000000000000000000, 1.224646799147353207E-16 ) ) ;
#12 = VERTEX_POINT ( 'NONE', #98 ) ;
#13 = CARTESIAN_POINT ( 'NONE',  ( 2.199633243471174140E-13, 3.499999999999992006, 63.00000000000000000 ) ) ;
#14 = CARTESIAN_POINT ( 'NONE',  ( 2.199633243471174140E-13, -7.715274834628325378E-15, 63.00000000000000000 ) ) ;
#15 = ADVANCED_FACE ( 'NONE', ( #141, #18 ), #43, .T. ) ;
#16 = CYLINDRICAL_SURFACE ( 'NONE', #183, 4.000000000000000000 ) ;
#17 = FACE_OUTER_BOUND ( 'NONE', #47, .T. ) ;
#18 = FACE_OUTER_BOUND ( 'NONE', #36, .T. ) ;
#19 = LOCAL_TIME ( 9, 56, 58.00000000000000000, #147 ) ;
#20 = PERSON_AND_ORGANIZATION ( #54, #162 ) ;
#21 = CALENDAR_DATE ( 2021, 18, 11 ) ;
#22 = AXIS2_PLACEMENT_3D ( 'NONE', #168, #213, #185 ) ;
#23 = APPROVAL_STATUS ( 'not_yet_approved' ) ;
#24 = PERSON_AND_ORGANIZATION_ROLE ( 'design_supplier' ) ;
#25 = ADVANCED_FACE ( 'NONE', ( #189, #17 ), #51, .T. ) ;
#26 = DIRECTION ( 'NONE',  ( -4.275831445896958607E-31, -1.000000000000000000, -1.224646799147353207E-16 ) ) ;
#27 = CIRCLE ( 'NONE', #4, 3.999999999999999112 ) ;
#28 = CARTESIAN_POINT ( 'NONE',  ( 2.182175836776958284E-13, -7.654042494670957804E-15, 62.50000000000000000 ) ) ;
#29 = FACE_OUTER_BOUND ( 'NONE', #48, .T. ) ;
#30 = DIRECTION ( 'NONE',  ( -3.491481338843133355E-15, 1.224646799147353207E-16, -1.000000000000000000 ) ) ;
#31 = MANIFOLD_SOLID_BREP ( 'Corps-Déplacer/Copier1[1]', #134 ) ;
#32 = ORIENTED_EDGE ( 'NONE', *, *, #184, .F. ) ;
#33 = APPROVAL_ROLE ( '' ) ;
#34 = SECURITY_CLASSIFICATION ( '', '', #145 ) ;
#35 = CC_DESIGN_APPROVAL ( #53, ( #34 ) ) ;
#36 = EDGE_LOOP ( 'NONE', ( #32 ) ) ;
#37 = COORDINATED_UNIVERSAL_TIME_OFFSET ( 1, 0, .AHEAD. ) ;
#38 = PERSON_AND_ORGANIZATION ( #54, #162 ) ;
#39 = EDGE_LOOP ( 'NONE', ( #139 ) ) ;
#40 = LOCAL_TIME ( 9, 56, 58.00000000000000000, #37 ) ;
#41 = APPROVAL_STATUS ( 'not_yet_approved' ) ;
#42 = CC_DESIGN_DATE_AND_TIME_ASSIGNMENT ( #132, #6, ( #118 ) ) ;
#43 = CONICAL_SURFACE ( 'NONE', #120, 3.999999999999999112, 0.7853981633974473908 ) ;
#44 =( LENGTH_UNIT ( ) NAMED_UNIT ( * ) SI_UNIT ( .MILLI., .METRE. ) );
#45 = DIRECTION ( 'NONE',  ( -3.491481338843133355E-15, 1.224646799147353207E-16, -1.000000000000000000 ) ) ;
#46 = DIRECTION ( 'NONE',  ( 3.491481338843133355E-15, -0.0000000000000000000, 1.000000000000000000 ) ) ;
#47 = EDGE_LOOP ( 'NONE', ( #214 ) ) ;
#48 = EDGE_LOOP ( 'NONE', ( #188 ) ) ;
#49 = PRODUCT_DEFINITION_FORMATION_WITH_SPECIFIED_SOURCE ( 'ANY', '', #111, .NOT_KNOWN. ) ;
#50 = ADVANCED_FACE ( 'NONE', ( #2 ), #131, .F. ) ;
#51 = TOROIDAL_SURFACE ( 'NONE', #128, 3.000000000000000000, 1.000000000000000000 ) ;
#52 = DIRECTION ( 'NONE',  ( 1.000000000000000000, 0.0000000000000000000, -3.491481338843133355E-15 ) ) ;
#53 = APPROVAL ( #41, 'UNSPECIFIED' ) ;
#54 = PERSON ( 'UNSPECIFIED', 'UNSPECIFIED', 'UNSPECIFIED', ('UNSPECIFIED'), ('UNSPECIFIED'), ('UNSPECIFIED') ) ;
#55 = SHAPE_DEFINITION_REPRESENTATION ( #7, #99 ) ;
#56 = AXIS2_PLACEMENT_3D ( 'NONE', #60, #77, #181 ) ;
#57 = DIRECTION ( 'NONE',  ( 0.0000000000000000000, 0.0000000000000000000, 1.000000000000000000 ) ) ;
#58 = CALENDAR_DATE ( 2021, 18, 11 ) ;
#59 = CALENDAR_DATE ( 2021, 18, 11 ) ;
#60 = CARTESIAN_POINT ( 'NONE',  ( 6.633814543801952113E-14, -2.326828918379970970E-15, 19.00000000000000000 ) ) ;
#61 = EDGE_LOOP ( 'NONE', ( #102 ) ) ;
#62 = VERTEX_POINT ( 'NONE', #151 ) ;
#63 = VERTEX_POINT ( 'NONE', #13 ) ;
#64 = CYLINDRICAL_SURFACE ( 'NONE', #105, 4.000000000000000000 ) ;
#65 = MANIFOLD_SOLID_BREP ( 'Corps-Déplacer/Copier1[2]', #68 ) ;
#66 = EDGE_CURVE ( 'NONE', #12, #12, #89, .T. ) ;
#67 = DESIGN_CONTEXT ( 'detailed design', #197, 'design' ) ;
#68 = CLOSED_SHELL ( 'NONE', ( #5, #160, #25, #207 ) ) ;
#69 = APPROVAL_ROLE ( '' ) ;
#70 = CALENDAR_DATE ( 2021, 18, 11 ) ;
#71 = AXIS2_PLACEMENT_3D ( 'NONE', #14, #121, #96 ) ;
#72 = APPROVAL_DATE_TIME ( #113, #123 ) ;
#73 = PERSON_AND_ORGANIZATION_ROLE ( 'creator' ) ;
#74 = ORIENTED_EDGE ( 'NONE', *, *, #86, .F. ) ;
#75 = CC_DESIGN_APPROVAL ( #95, ( #49 ) ) ;
#76 = FACE_OUTER_BOUND ( 'NONE', #39, .T. ) ;
#77 = DIRECTION ( 'NONE',  ( -3.491481338843133355E-15, 1.224646799147353207E-16, -1.000000000000000000 ) ) ;
#78 = DIRECTION ( 'NONE',  ( -4.275831445896958607E-31, -1.000000000000000000, -1.224646799147353207E-16 ) ) ;
#79 = VERTEX_POINT ( 'NONE', #152 ) ;
#80 = EDGE_CURVE ( 'NONE', #62, #62, #218, .T. ) ;
#81 = DIRECTION ( 'NONE',  ( 3.491481338843133355E-15, -0.0000000000000000000, 1.000000000000000000 ) ) ;
#82 = APPROVAL_PERSON_ORGANIZATION ( #38, #95, #69 ) ;
#83 = DIRECTION ( 'NONE',  ( 4.275831445896958607E-31, 1.000000000000000000, 1.224646799147353207E-16 ) ) ;
#84 = EDGE_LOOP ( 'NONE', ( #74 ) ) ;
#85 = CARTESIAN_POINT ( 'NONE',  ( 2.182175836776958284E-13, -7.654042494670957804E-15, 62.50000000000000000 ) ) ;
#86 = EDGE_CURVE ( 'NONE', #216, #216, #149, .T. ) ;
#87 = APPROVAL_DATE_TIME ( #174, #53 ) ;
#88 = CARTESIAN_POINT ( 'NONE',  ( 2.199633243471174140E-13, 2.624579619658238771E-32, 63.00000000000000000 ) ) ;
#89 = CIRCLE ( 'NONE', #203, 3.000000000000000000 ) ;
#90 = EDGE_LOOP ( 'NONE', ( #190 ) ) ;
#91 = PERSON_AND_ORGANIZATION ( #54, #162 ) ;
#92 = CALENDAR_DATE ( 2021, 18, 11 ) ;
#93 = DIRECTION ( 'NONE',  ( 0.0000000000000000000, 1.000000000000000000, 0.0000000000000000000 ) ) ;
#94 = AXIS2_PLACEMENT_3D ( 'NONE', #88, #200, #124 ) ;
#95 = APPROVAL ( #178, 'UNSPECIFIED' ) ;
#96 = DIRECTION ( 'NONE',  ( 0.0000000000000000000, 1.000000000000000000, 0.0000000000000000000 ) ) ;
#97 = FACE_OUTER_BOUND ( 'NONE', #84, .T. ) ;
#98 = CARTESIAN_POINT ( 'NONE',  ( 3.000000000000000000, 0.0000000000000000000, -1.047444401652940007E-14 ) ) ;
#99 = ADVANCED_BREP_SHAPE_REPRESENTATION ( '997943', ( #31, #65, #3 ), #142 ) ;
#100 = CC_DESIGN_DATE_AND_TIME_ASSIGNMENT ( #133, #196, ( #34 ) ) ;
#101 = DIRECTION ( 'NONE',  ( -3.491481338843133355E-15, 1.224646799147353207E-16, -1.000000000000000000 ) ) ;
#102 = ORIENTED_EDGE ( 'NONE', *, *, #66, .T. ) ;
#103 = ORIENTED_EDGE ( 'NONE', *, *, #219, .T. ) ;
#104 =( NAMED_UNIT ( * ) SI_UNIT ( $, .STERADIAN. ) SOLID_ANGLE_UNIT ( ) );
#105 = AXIS2_PLACEMENT_3D ( 'NONE', #138, #101, #11 ) ;
#106 = APPROVAL_PERSON_ORGANIZATION ( #20, #53, #209 ) ;
#107 = DIRECTION ( 'NONE',  ( -3.491481338843133355E-15, 1.224646799147353207E-16, -1.000000000000000000 ) ) ;
#108 = APPROVAL_DATE_TIME ( #110, #95 ) ;
#109 = LOCAL_TIME ( 9, 56, 58.00000000000000000, #116 ) ;
#110 = DATE_AND_TIME ( #70, #173 ) ;
#111 = PRODUCT ( '997943', '997943', '', ( #177 ) ) ;
#112 = DIRECTION ( 'NONE',  ( 1.000000000000000000, 0.0000000000000000000, 0.0000000000000000000 ) ) ;
#113 = DATE_AND_TIME ( #21, #40 ) ;
#114 = AXIS2_PLACEMENT_3D ( 'NONE', #166, #45, #122 ) ;
#115 = EDGE_LOOP ( 'NONE', ( #163 ) ) ;
#116 = COORDINATED_UNIVERSAL_TIME_OFFSET ( 1, 0, .AHEAD. ) ;
#117 = DIRECTION ( 'NONE',  ( 1.000000000000000000, 0.0000000000000000000, -3.491481338843133355E-15 ) ) ;
#118 = PRODUCT_DEFINITION ( 'UNKNOWN', '', #49, #67 ) ;
#119 = DIRECTION ( 'NONE',  ( 3.491481338843133355E-15, -1.224646799147353207E-16, 1.000000000000000000 ) ) ;
#120 = AXIS2_PLACEMENT_3D ( 'NONE', #85, #204, #127 ) ;
#121 = DIRECTION ( 'NONE',  ( -3.491481338843133355E-15, 1.224646799147353207E-16, -1.000000000000000000 ) ) ;
#122 = DIRECTION ( 'NONE',  ( 4.275831445896958607E-31, 1.000000000000000000, 1.224646799147353207E-16 ) ) ;
#123 = APPROVAL ( #23, 'UNSPECIFIED' ) ;
#124 = DIRECTION ( 'NONE',  ( 4.275831445896958607E-31, 1.000000000000000000, 1.224646799147353207E-16 ) ) ;
#125 = APPROVAL_PERSON_ORGANIZATION ( #130, #123, #33 ) ;
#126 = EDGE_LOOP ( 'NONE', ( #103 ) ) ;
#127 = DIRECTION ( 'NONE',  ( 0.0000000000000000000, 1.000000000000000000, 0.0000000000000000000 ) ) ;
#128 = AXIS2_PLACEMENT_3D ( 'NONE', #143, #206, #52 ) ;
#129 = CARTESIAN_POINT ( 'NONE',  ( 0.0000000000000000000, 0.0000000000000000000, 0.0000000000000000000 ) ) ;
#130 = PERSON_AND_ORGANIZATION ( #54, #162 ) ;
#131 = PLANE ( 'NONE',  #94 ) ;
#132 = DATE_AND_TIME ( #58, #19 ) ;
#133 = DATE_AND_TIME ( #59, #222 ) ;
#134 = CLOSED_SHELL ( 'NONE', ( #171, #192, #15, #50 ) ) ;
#135 = VERTEX_POINT ( 'NONE', #136 ) ;
#136 = CARTESIAN_POINT ( 'NONE',  ( 6.633814543801952113E-14, 3.999999999999997335, 19.00000000000000000 ) ) ;
#137 = CARTESIAN_POINT ( 'NONE',  ( 6.633814543801952113E-14, 2.999519565323711931E-32, 19.00000000000000000 ) ) ;
#138 = CARTESIAN_POINT ( 'NONE',  ( 0.0000000000000000000, 0.0000000000000000000, 0.0000000000000000000 ) ) ;
#139 = ORIENTED_EDGE ( 'NONE', *, *, #66, .F. ) ;
#140 = CC_DESIGN_PERSON_AND_ORGANIZATION_ASSIGNMENT ( #144, #73, ( #118 ) ) ;
#141 = FACE_BOUND ( 'NONE', #211, .T. ) ;
#142 =( GEOMETRIC_REPRESENTATION_CONTEXT ( 3 ) GLOBAL_UNCERTAINTY_ASSIGNED_CONTEXT ( ( #201 ) ) GLOBAL_UNIT_ASSIGNED_CONTEXT ( ( #44, #221, #104 ) ) REPRESENTATION_CONTEXT ( 'NONE', 'WORKASPACE' ) );
#143 = CARTESIAN_POINT ( 'NONE',  ( 3.491481338843133355E-15, 0.0000000000000000000, 1.000000000000000000 ) ) ;
#144 = PERSON_AND_ORGANIZATION ( #54, #162 ) ;
#145 = SECURITY_CLASSIFICATION_LEVEL ( 'unclassified' ) ;
#146 = CC_DESIGN_PERSON_AND_ORGANIZATION_ASSIGNMENT ( #175, #148, ( #34 ) ) ;
#147 = COORDINATED_UNIVERSAL_TIME_OFFSET ( 1, 0, .AHEAD. ) ;
#148 = PERSON_AND_ORGANIZATION_ROLE ( 'classification_officer' ) ;
#149 = CIRCLE ( 'NONE', #56, 4.000000000000000000 ) ;
#150 = PLANE ( 'NONE',  #114 ) ;
#151 = CARTESIAN_POINT ( 'NONE',  ( 4.000000000000003553, 0.0000000000000000000, 0.9999999999999863443 ) ) ;
#152 = CARTESIAN_POINT ( 'NONE',  ( 2.182175836776958284E-13, 3.999999999999991562, 62.50000000000000000 ) ) ;
#153 = APPLICATION_CONTEXT ( 'configuration controlled 3d designs of mechanical parts and assemblies' ) ;
#154 = EDGE_CURVE ( 'NONE', #63, #63, #170, .T. ) ;
#155 = CC_DESIGN_APPROVAL ( #123, ( #118 ) ) ;
#156 = CC_DESIGN_PERSON_AND_ORGANIZATION_ASSIGNMENT ( #8, #24, ( #49 ) ) ;
#157 = PERSON_AND_ORGANIZATION ( #54, #162 ) ;
#158 = ORIENTED_EDGE ( 'NONE', *, *, #154, .T. ) ;
#159 = PERSON_AND_ORGANIZATION_ROLE ( 'creator' ) ;
#160 = ADVANCED_FACE ( 'NONE', ( #198 ), #164, .T. ) ;
#161 = FACE_OUTER_BOUND ( 'NONE', #115, .T. ) ;
#162 = ORGANIZATION ( 'UNSPECIFIED', 'UNSPECIFIED', '' ) ;
#163 = ORIENTED_EDGE ( 'NONE', *, *, #184, .T. ) ;
#164 = PLANE ( 'NONE',  #205 ) ;
#165 = CARTESIAN_POINT ( 'NONE',  ( 6.633814543801952113E-14, 3.999999999999997335, 19.00000000000000000 ) ) ;
#166 = CARTESIAN_POINT ( 'NONE',  ( -8.551662891793915461E-31, 2.999519565323715216E-32, -2.449293598294706414E-16 ) ) ;
#167 = AXIS2_PLACEMENT_3D ( 'NONE', #182, #217, #78 ) ;
#168 = CARTESIAN_POINT ( 'NONE',  ( 6.633814543801952113E-14, -2.326828918379970970E-15, 19.00000000000000000 ) ) ;
#169 = EDGE_LOOP ( 'NONE', ( #195 ) ) ;
#170 = CIRCLE ( 'NONE', #71, 3.499999999999999556 ) ;
#171 = ADVANCED_FACE ( 'NONE', ( #29 ), #186, .F. ) ;
#172 = FACE_OUTER_BOUND ( 'NONE', #126, .T. ) ;
#173 = LOCAL_TIME ( 9, 56, 58.00000000000000000, #9 ) ;
#174 = DATE_AND_TIME ( #92, #109 ) ;
#175 = PERSON_AND_ORGANIZATION ( #54, #162 ) ;
#176 = ORIENTED_EDGE ( 'NONE', *, *, #154, .F. ) ;
#177 = MECHANICAL_CONTEXT ( 'NONE', #153, 'mechanical' ) ;
#178 = APPROVAL_STATUS ( 'not_yet_approved' ) ;
#179 = CC_DESIGN_PERSON_AND_ORGANIZATION_ASSIGNMENT ( #91, #159, ( #49 ) ) ;
#180 = PERSON_AND_ORGANIZATION_ROLE ( 'design_owner' ) ;
#181 = DIRECTION ( 'NONE',  ( 0.0000000000000000000, 1.000000000000000000, 0.0000000000000000000 ) ) ;
#182 = CARTESIAN_POINT ( 'NONE',  ( 6.633814543801952113E-14, 2.999519565323711931E-32, 19.00000000000000000 ) ) ;
#183 = AXIS2_PLACEMENT_3D ( 'NONE', #1, #107, #83 ) ;
#184 = EDGE_CURVE ( 'NONE', #79, #79, #27, .T. ) ;
#185 = DIRECTION ( 'NONE',  ( 0.0000000000000000000, 1.000000000000000000, 0.0000000000000000000 ) ) ;
#186 = PLANE ( 'NONE',  #167 ) ;
#187 = CARTESIAN_POINT ( 'NONE',  ( 0.0000000000000000000, 0.0000000000000000000, 0.0000000000000000000 ) ) ;
#188 = ORIENTED_EDGE ( 'NONE', *, *, #86, .T. ) ;
#189 = FACE_OUTER_BOUND ( 'NONE', #61, .T. ) ;
#190 = ORIENTED_EDGE ( 'NONE', *, *, #219, .F. ) ;
#191 = APPLICATION_PROTOCOL_DEFINITION ( 'international standard', 'config_control_design', 1994, #197 ) ;
#192 = ADVANCED_FACE ( 'NONE', ( #161, #97 ), #64, .T. ) ;
#193 = CC_DESIGN_SECURITY_CLASSIFICATION ( #34, ( #49 ) ) ;
#194 = COORDINATED_UNIVERSAL_TIME_OFFSET ( 1, 0, .AHEAD. ) ;
#195 = ORIENTED_EDGE ( 'NONE', *, *, #80, .T. ) ;
#196 = DATE_TIME_ROLE ( 'classification_date' ) ;
#197 = APPLICATION_CONTEXT ( 'configuration controlled 3d designs of mechanical parts and assemblies' ) ;
#198 = FACE_OUTER_BOUND ( 'NONE', #90, .T. ) ;
#199 = AXIS2_PLACEMENT_3D ( 'NONE', #220, #81, #212 ) ;
#200 = DIRECTION ( 'NONE',  ( -3.491481338843133355E-15, 1.224646799147353207E-16, -1.000000000000000000 ) ) ;
#201 = UNCERTAINTY_MEASURE_WITH_UNIT (LENGTH_MEASURE( 1.000000000000000082E-05 ), #44, 'distance_accuracy_value', 'NONE');
#202 = APPLICATION_PROTOCOL_DEFINITION ( 'international standard', 'config_control_design', 1994, #153 ) ;
#203 = AXIS2_PLACEMENT_3D ( 'NONE', #187, #46, #117 ) ;
#204 = DIRECTION ( 'NONE',  ( -3.491481338843133355E-15, 1.224646799147353207E-16, -1.000000000000000000 ) ) ;
#205 = AXIS2_PLACEMENT_3D ( 'NONE', #137, #119, #26 ) ;
#206 = DIRECTION ( 'NONE',  ( 3.491481338843133355E-15, -0.0000000000000000000, 1.000000000000000000 ) ) ;
#207 = ADVANCED_FACE ( 'NONE', ( #76 ), #150, .T. ) ;
#208 = PRODUCT_RELATED_PRODUCT_CATEGORY ( 'detail', '', ( #111 ) ) ;
#209 = APPROVAL_ROLE ( '' ) ;
#210 = CC_DESIGN_PERSON_AND_ORGANIZATION_ASSIGNMENT ( #157, #180, ( #111 ) ) ;
#211 = EDGE_LOOP ( 'NONE', ( #158 ) ) ;
#212 = DIRECTION ( 'NONE',  ( 1.000000000000000000, 0.0000000000000000000, -3.469446951953614189E-15 ) ) ;
#213 = DIRECTION ( 'NONE',  ( -3.491481338843133355E-15, 1.224646799147353207E-16, -1.000000000000000000 ) ) ;
#214 = ORIENTED_EDGE ( 'NONE', *, *, #80, .F. ) ;
#215 = EDGE_LOOP ( 'NONE', ( #176 ) ) ;
#216 = VERTEX_POINT ( 'NONE', #165 ) ;
#217 = DIRECTION ( 'NONE',  ( 3.491481338843133355E-15, -1.224646799147353207E-16, 1.000000000000000000 ) ) ;
#218 = CIRCLE ( 'NONE', #199, 4.000000000000000000 ) ;
#219 = EDGE_CURVE ( 'NONE', #135, #135, #10, .T. ) ;
#220 = CARTESIAN_POINT ( 'NONE',  ( 3.491481338843134144E-15, 0.0000000000000000000, 1.000000000000000222 ) ) ;
#221 =( NAMED_UNIT ( * ) PLANE_ANGLE_UNIT ( ) SI_UNIT ( $, .RADIAN. ) );
#222 = LOCAL_TIME ( 9, 56, 58.00000000000000000, #194 ) ;
#223 = FACE_OUTER_BOUND ( 'NONE', #169, .T. ) ;
ENDSEC;
END-ISO-10303-21;
