ISO-10303-21;
HEADER;
FILE_DESCRIPTION (( 'STEP AP203' ),
    '1' );
FILE_NAME ('997942.step',
    '2021-11-18T08:56:57',
    ( '' ),
    ( '' ),
    'SwSTEP 2.0',
    'SolidWorks 2019',
    '' );
FILE_SCHEMA (( 'CONFIG_CONTROL_DESIGN' ));
ENDSEC;

DATA;
#1 = EDGE_LOOP ( 'NONE', ( #150 ) ) ;
#2 = APPROVAL_STATUS ( 'not_yet_approved' ) ;
#3 = PRODUCT_DEFINITION ( 'UNKNOWN', '', #16, #10 ) ;
#4 = PERSON_AND_ORGANIZATION ( #143, #59 ) ;
#5 = CARTESIAN_POINT ( 'NONE',  ( -8.551662891793915461E-31, 2.999519565323715216E-32, -2.449293598294706414E-16 ) ) ;
#6 = DIRECTION ( 'NONE',  ( -3.491481338843133355E-15, 1.224646799147353207E-16, -1.000000000000000000 ) ) ;
#7 = DATE_AND_TIME ( #113, #86 ) ;
#8 = CARTESIAN_POINT ( 'NONE',  ( 6.633814543801952113E-14, 2.999519565323711931E-32, 19.00000000000000000 ) ) ;
#9 = CYLINDRICAL_SURFACE ( 'NONE', #17, 4.000000000000000000 ) ;
#10 = DESIGN_CONTEXT ( 'detailed design', #199, 'design' ) ;
#11 = VERTEX_POINT ( 'NONE', #47 ) ;
#12 = EDGE_LOOP ( 'NONE', ( #204 ) ) ;
#13 = ORIENTED_EDGE ( 'NONE', *, *, #76, .T. ) ;
#14 = ADVANCED_FACE ( 'NONE', ( #101 ), #82, .T. ) ;
#15 = AXIS2_PLACEMENT_3D ( 'NONE', #218, #68, #56 ) ;
#16 = PRODUCT_DEFINITION_FORMATION_WITH_SPECIFIED_SOURCE ( 'ANY', '', #152, .NOT_KNOWN. ) ;
#17 = AXIS2_PLACEMENT_3D ( 'NONE', #197, #116, #40 ) ;
#18 = PERSON_AND_ORGANIZATION_ROLE ( 'design_owner' ) ;
#19 = PERSON_AND_ORGANIZATION ( #143, #59 ) ;
#20 = DIRECTION ( 'NONE',  ( 3.491481338843133355E-15, -1.224646799147353207E-16, 1.000000000000000000 ) ) ;
#21 = APPROVAL_ROLE ( '' ) ;
#22 = DIRECTION ( 'NONE',  ( 4.275831445896958607E-31, 1.000000000000000000, 1.224646799147353207E-16 ) ) ;
#23 = PERSON_AND_ORGANIZATION ( #143, #59 ) ;
#24 = FACE_OUTER_BOUND ( 'NONE', #141, .T. ) ;
#25 = AXIS2_PLACEMENT_3D ( 'NONE', #72, #194, #41 ) ;
#26 = CARTESIAN_POINT ( 'NONE',  ( 2.182175836776958284E-13, -7.654042494670957804E-15, 62.50000000000000000 ) ) ;
#27 = FACE_OUTER_BOUND ( 'NONE', #164, .T. ) ;
#28 = EDGE_CURVE ( 'NONE', #147, #147, #222, .T. ) ;
#29 = CIRCLE ( 'NONE', #71, 3.499999999999999556 ) ;
#30 = VERTEX_POINT ( 'NONE', #205 ) ;
#31 = VERTEX_POINT ( 'NONE', #124 ) ;
#32 = ORIENTED_EDGE ( 'NONE', *, *, #28, .F. ) ;
#33 = CC_DESIGN_APPROVAL ( #156, ( #3 ) ) ;
#34 = DATE_AND_TIME ( #49, #221 ) ;
#35 = EDGE_LOOP ( 'NONE', ( #130 ) ) ;
#36 = DATE_AND_TIME ( #83, #92 ) ;
#37 = SECURITY_CLASSIFICATION ( '', '', #214 ) ;
#38 = FACE_OUTER_BOUND ( 'NONE', #12, .T. ) ;
#39 = PERSON_AND_ORGANIZATION ( #143, #59 ) ;
#40 = DIRECTION ( 'NONE',  ( 4.275831445896958607E-31, 1.000000000000000000, 1.224646799147353207E-16 ) ) ;
#41 = DIRECTION ( 'NONE',  ( 1.000000000000000000, 0.0000000000000000000, -3.491481338843133355E-15 ) ) ;
#42 = DIRECTION ( 'NONE',  ( 4.275831445896958607E-31, 1.000000000000000000, 1.224646799147353207E-16 ) ) ;
#43 = CC_DESIGN_PERSON_AND_ORGANIZATION_ASSIGNMENT ( #66, #18, ( #152 ) ) ;
#44 = MECHANICAL_CONTEXT ( 'NONE', #139, 'mechanical' ) ;
#45 = CLOSED_SHELL ( 'NONE', ( #165, #91, #149, #14 ) ) ;
#46 = CC_DESIGN_PERSON_AND_ORGANIZATION_ASSIGNMENT ( #4, #127, ( #3 ) ) ;
#47 = CARTESIAN_POINT ( 'NONE',  ( 6.633814543801952113E-14, 3.999999999999997335, 19.00000000000000000 ) ) ;
#48 = APPROVAL_DATE_TIME ( #34, #121 ) ;
#49 = CALENDAR_DATE ( 2021, 18, 11 ) ;
#50 = CIRCLE ( 'NONE', #87, 4.000000000000000888 ) ;
#51 = EDGE_LOOP ( 'NONE', ( #110 ) ) ;
#52 = APPROVAL_STATUS ( 'not_yet_approved' ) ;
#53 = DIRECTION ( 'NONE',  ( -3.491481338843133355E-15, 1.224646799147353207E-16, -1.000000000000000000 ) ) ;
#54 = AXIS2_PLACEMENT_3D ( 'NONE', #57, #104, #67 ) ;
#55 = DIRECTION ( 'NONE',  ( 3.491481338843133355E-15, -0.0000000000000000000, 1.000000000000000000 ) ) ;
#56 = DIRECTION ( 'NONE',  ( 0.0000000000000000000, 1.000000000000000000, 0.0000000000000000000 ) ) ;
#57 = CARTESIAN_POINT ( 'NONE',  ( 6.633814543801952113E-14, -2.326828918379970970E-15, 19.00000000000000000 ) ) ;
#58 = CARTESIAN_POINT ( 'NONE',  ( 1.745740669421566678E-15, 0.0000000000000000000, 0.5000000000000000000 ) ) ;
#59 = ORGANIZATION ( 'UNSPECIFIED', 'UNSPECIFIED', '' ) ;
#60 = AXIS2_PLACEMENT_3D ( 'NONE', #89, #162, #134 ) ;
#61 = MANIFOLD_SOLID_BREP ( 'Corps-Déplacer/Copier1[2]', #45 ) ;
#62 = DIRECTION ( 'NONE',  ( -4.275831445896958607E-31, -1.000000000000000000, -1.224646799147353207E-16 ) ) ;
#63 = ADVANCED_FACE ( 'NONE', ( #195, #140 ), #196, .T. ) ;
#64 = EDGE_LOOP ( 'NONE', ( #97 ) ) ;
#65 = LOCAL_TIME ( 9, 56, 57.00000000000000000, #192 ) ;
#66 = PERSON_AND_ORGANIZATION ( #143, #59 ) ;
#67 = DIRECTION ( 'NONE',  ( 0.0000000000000000000, 1.000000000000000000, 0.0000000000000000000 ) ) ;
#68 = DIRECTION ( 'NONE',  ( -3.491481338843133355E-15, 1.224646799147353207E-16, -1.000000000000000000 ) ) ;
#69 = AXIS2_PLACEMENT_3D ( 'NONE', #58, #55, #114 ) ;
#70 = SHAPE_DEFINITION_REPRESENTATION ( #191, #182 ) ;
#71 = AXIS2_PLACEMENT_3D ( 'NONE', #168, #153, #155 ) ;
#72 = CARTESIAN_POINT ( 'NONE',  ( 0.0000000000000000000, 0.0000000000000000000, 0.0000000000000000000 ) ) ;
#73 = ORIENTED_EDGE ( 'NONE', *, *, #28, .T. ) ;
#74 = FACE_OUTER_BOUND ( 'NONE', #211, .T. ) ;
#75 =( NAMED_UNIT ( * ) PLANE_ANGLE_UNIT ( ) SI_UNIT ( $, .RADIAN. ) );
#76 = EDGE_CURVE ( 'NONE', #202, #202, #146, .T. ) ;
#77 = CARTESIAN_POINT ( 'NONE',  ( 0.0000000000000000000, 0.0000000000000000000, 0.0000000000000000000 ) ) ;
#78 = APPROVAL_STATUS ( 'not_yet_approved' ) ;
#79 = ORIENTED_EDGE ( 'NONE', *, *, #81, .F. ) ;
#80 = APPROVAL_DATE_TIME ( #7, #156 ) ;
#81 = EDGE_CURVE ( 'NONE', #31, #31, #29, .T. ) ;
#82 = PLANE ( 'NONE',  #190 ) ;
#83 = CALENDAR_DATE ( 2021, 18, 11 ) ;
#84 = CARTESIAN_POINT ( 'NONE',  ( 2.199633243471174140E-13, 2.624579619658238771E-32, 63.00000000000000000 ) ) ;
#85 = APPROVAL_ROLE ( '' ) ;
#86 = LOCAL_TIME ( 9, 56, 57.00000000000000000, #100 ) ;
#87 = AXIS2_PLACEMENT_3D ( 'NONE', #193, #103, #172 ) ;
#88 = ORIENTED_EDGE ( 'NONE', *, *, #216, .F. ) ;
#89 = CARTESIAN_POINT ( 'NONE',  ( 2.182175836776958284E-13, -7.654042494670957804E-15, 62.50000000000000000 ) ) ;
#90 = CC_DESIGN_DATE_AND_TIME_ASSIGNMENT ( #96, #187, ( #37 ) ) ;
#91 = ADVANCED_FACE ( 'NONE', ( #160 ), #189, .T. ) ;
#92 = LOCAL_TIME ( 9, 56, 57.00000000000000000, #151 ) ;
#93 = APPROVAL_PERSON_ORGANIZATION ( #23, #121, #85 ) ;
#94 = ORIENTED_EDGE ( 'NONE', *, *, #174, .F. ) ;
#95 = CIRCLE ( 'NONE', #60, 3.999999999999999112 ) ;
#96 = DATE_AND_TIME ( #102, #65 ) ;
#97 = ORIENTED_EDGE ( 'NONE', *, *, #174, .T. ) ;
#98 = DIRECTION ( 'NONE',  ( 4.275831445896958607E-31, 1.000000000000000000, 1.224646799147353207E-16 ) ) ;
#99 = CC_DESIGN_SECURITY_CLASSIFICATION ( #37, ( #16 ) ) ;
#100 = COORDINATED_UNIVERSAL_TIME_OFFSET ( 1, 0, .AHEAD. ) ;
#101 = FACE_OUTER_BOUND ( 'NONE', #185, .T. ) ;
#102 = CALENDAR_DATE ( 2021, 18, 11 ) ;
#103 = DIRECTION ( 'NONE',  ( 3.491481338843133355E-15, -0.0000000000000000000, 1.000000000000000000 ) ) ;
#104 = DIRECTION ( 'NONE',  ( -3.491481338843133355E-15, 1.224646799147353207E-16, -1.000000000000000000 ) ) ;
#105 = CYLINDRICAL_SURFACE ( 'NONE', #112, 4.000000000000000000 ) ;
#106 = APPROVAL ( #2, 'UNSPECIFIED' ) ;
#107 = EDGE_CURVE ( 'NONE', #11, #11, #159, .T. ) ;
#108 = CC_DESIGN_APPROVAL ( #121, ( #37 ) ) ;
#109 =( NAMED_UNIT ( * ) SI_UNIT ( $, .STERADIAN. ) SOLID_ANGLE_UNIT ( ) );
#110 = ORIENTED_EDGE ( 'NONE', *, *, #107, .F. ) ;
#111 = EDGE_LOOP ( 'NONE', ( #117 ) ) ;
#112 = AXIS2_PLACEMENT_3D ( 'NONE', #118, #175, #22 ) ;
#113 = CALENDAR_DATE ( 2021, 18, 11 ) ;
#114 = DIRECTION ( 'NONE',  ( 1.000000000000000000, 0.0000000000000000000, -3.491481338843133355E-15 ) ) ;
#115 = PERSON_AND_ORGANIZATION_ROLE ( 'classification_officer' ) ;
#116 = DIRECTION ( 'NONE',  ( -3.491481338843133355E-15, 1.224646799147353207E-16, -1.000000000000000000 ) ) ;
#117 = ORIENTED_EDGE ( 'NONE', *, *, #81, .T. ) ;
#118 = CARTESIAN_POINT ( 'NONE',  ( 0.0000000000000000000, 0.0000000000000000000, 0.0000000000000000000 ) ) ;
#119 = FACE_OUTER_BOUND ( 'NONE', #35, .T. ) ;
#120 = LOCAL_TIME ( 9, 56, 57.00000000000000000, #207 ) ;
#121 = APPROVAL ( #78, 'UNSPECIFIED' ) ;
#122 = CARTESIAN_POINT ( 'NONE',  ( 6.633814543801952113E-14, 2.999519565323711931E-32, 19.00000000000000000 ) ) ;
#123 = CARTESIAN_POINT ( 'NONE',  ( 2.182175836776958284E-13, 3.999999999999991562, 62.50000000000000000 ) ) ;
#124 = CARTESIAN_POINT ( 'NONE',  ( 2.199633243471174140E-13, 3.499999999999992006, 63.00000000000000000 ) ) ;
#125 = CC_DESIGN_PERSON_AND_ORGANIZATION_ASSIGNMENT ( #39, #154, ( #16 ) ) ;
#126 = DIRECTION ( 'NONE',  ( 3.491481338843133355E-15, -1.224646799147353207E-16, 1.000000000000000000 ) ) ;
#127 = PERSON_AND_ORGANIZATION_ROLE ( 'creator' ) ;
#128 = MANIFOLD_SOLID_BREP ( 'Corps-Déplacer/Copier1[1]', #209 ) ;
#129 = APPROVAL_ROLE ( '' ) ;
#130 = ORIENTED_EDGE ( 'NONE', *, *, #76, .F. ) ;
#131 = DATE_AND_TIME ( #171, #120 ) ;
#132 = EDGE_LOOP ( 'NONE', ( #88 ) ) ;
#133 = PERSON_AND_ORGANIZATION_ROLE ( 'design_supplier' ) ;
#134 = DIRECTION ( 'NONE',  ( 0.0000000000000000000, 1.000000000000000000, 0.0000000000000000000 ) ) ;
#135 =( GEOMETRIC_REPRESENTATION_CONTEXT ( 3 ) GLOBAL_UNCERTAINTY_ASSIGNED_CONTEXT ( ( #177 ) ) GLOBAL_UNIT_ASSIGNED_CONTEXT ( ( #181, #75, #109 ) ) REPRESENTATION_CONTEXT ( 'NONE', 'WORKASPACE' ) );
#136 = CC_DESIGN_APPROVAL ( #106, ( #16 ) ) ;
#137 = CC_DESIGN_PERSON_AND_ORGANIZATION_ASSIGNMENT ( #166, #133, ( #16 ) ) ;
#138 = AXIS2_PLACEMENT_3D ( 'NONE', #26, #217, #157 ) ;
#139 = APPLICATION_CONTEXT ( 'configuration controlled 3d designs of mechanical parts and assemblies' ) ;
#140 = FACE_OUTER_BOUND ( 'NONE', #183, .T. ) ;
#141 = EDGE_LOOP ( 'NONE', ( #13 ) ) ;
#142 = FACE_OUTER_BOUND ( 'NONE', #1, .T. ) ;
#143 = PERSON ( 'UNSPECIFIED', 'UNSPECIFIED', 'UNSPECIFIED', ('UNSPECIFIED'), ('UNSPECIFIED'), ('UNSPECIFIED') ) ;
#144 = AXIS2_PLACEMENT_3D ( 'NONE', #122, #126, #62 ) ;
#145 = VERTEX_POINT ( 'NONE', #123 ) ;
#146 = CIRCLE ( 'NONE', #15, 4.000000000000000000 ) ;
#147 = VERTEX_POINT ( 'NONE', #203 ) ;
#148 = COORDINATED_UNIVERSAL_TIME_OFFSET ( 1, 0, .AHEAD. ) ;
#149 = ADVANCED_FACE ( 'NONE', ( #74, #173 ), #178, .T. ) ;
#150 = ORIENTED_EDGE ( 'NONE', *, *, #107, .T. ) ;
#151 = COORDINATED_UNIVERSAL_TIME_OFFSET ( 1, 0, .AHEAD. ) ;
#152 = PRODUCT ( '997942', '997942', '', ( #44 ) ) ;
#153 = DIRECTION ( 'NONE',  ( -3.491481338843133355E-15, 1.224646799147353207E-16, -1.000000000000000000 ) ) ;
#154 = PERSON_AND_ORGANIZATION_ROLE ( 'creator' ) ;
#155 = DIRECTION ( 'NONE',  ( 0.0000000000000000000, 1.000000000000000000, 0.0000000000000000000 ) ) ;
#156 = APPROVAL ( #52, 'UNSPECIFIED' ) ;
#157 = DIRECTION ( 'NONE',  ( 0.0000000000000000000, 1.000000000000000000, 0.0000000000000000000 ) ) ;
#158 = AXIS2_PLACEMENT_3D ( 'NONE', #77, #220, #223 ) ;
#159 = CIRCLE ( 'NONE', #54, 4.000000000000000000 ) ;
#160 = FACE_OUTER_BOUND ( 'NONE', #51, .T. ) ;
#161 = ADVANCED_FACE ( 'NONE', ( #27 ), #213, .F. ) ;
#162 = DIRECTION ( 'NONE',  ( -3.491481338843133355E-15, 1.224646799147353207E-16, -1.000000000000000000 ) ) ;
#163 = APPROVAL_PERSON_ORGANIZATION ( #206, #106, #129 ) ;
#164 = EDGE_LOOP ( 'NONE', ( #79 ) ) ;
#165 = ADVANCED_FACE ( 'NONE', ( #38, #142 ), #105, .T. ) ;
#166 = PERSON_AND_ORGANIZATION ( #143, #59 ) ;
#167 = DATE_TIME_ROLE ( 'creation_date' ) ;
#168 = CARTESIAN_POINT ( 'NONE',  ( 2.199633243471174140E-13, -7.715274834628325378E-15, 63.00000000000000000 ) ) ;
#169 = APPROVAL_DATE_TIME ( #36, #106 ) ;
#170 = DIRECTION ( 'NONE',  ( -4.275831445896958607E-31, -1.000000000000000000, -1.224646799147353207E-16 ) ) ;
#171 = CALENDAR_DATE ( 2021, 18, 11 ) ;
#172 = DIRECTION ( 'NONE',  ( 1.000000000000000000, 0.0000000000000000000, -3.496552006265751011E-15 ) ) ;
#173 = FACE_OUTER_BOUND ( 'NONE', #132, .T. ) ;
#174 = EDGE_CURVE ( 'NONE', #145, #145, #95, .T. ) ;
#175 = DIRECTION ( 'NONE',  ( -3.491481338843133355E-15, 1.224646799147353207E-16, -1.000000000000000000 ) ) ;
#176 = APPLICATION_PROTOCOL_DEFINITION ( 'international standard', 'config_control_design', 1994, #139 ) ;
#177 = UNCERTAINTY_MEASURE_WITH_UNIT (LENGTH_MEASURE( 1.000000000000000082E-05 ), #181, 'distance_accuracy_value', 'NONE');
#178 = TOROIDAL_SURFACE ( 'NONE', #69, 3.499999999999999556, 0.5000000000000006661 ) ;
#179 = CC_DESIGN_PERSON_AND_ORGANIZATION_ASSIGNMENT ( #210, #115, ( #37 ) ) ;
#180 = PLANE ( 'NONE',  #144 ) ;
#181 =( LENGTH_UNIT ( ) NAMED_UNIT ( * ) SI_UNIT ( .MILLI., .METRE. ) );
#182 = ADVANCED_BREP_SHAPE_REPRESENTATION ( '997942', ( #128, #61, #158 ), #135 ) ;
#183 = EDGE_LOOP ( 'NONE', ( #94 ) ) ;
#184 = APPROVAL_PERSON_ORGANIZATION ( #19, #156, #21 ) ;
#185 = EDGE_LOOP ( 'NONE', ( #32 ) ) ;
#186 = APPLICATION_PROTOCOL_DEFINITION ( 'international standard', 'config_control_design', 1994, #199 ) ;
#187 = DATE_TIME_ROLE ( 'classification_date' ) ;
#188 = CC_DESIGN_DATE_AND_TIME_ASSIGNMENT ( #131, #167, ( #3 ) ) ;
#189 = PLANE ( 'NONE',  #208 ) ;
#190 = AXIS2_PLACEMENT_3D ( 'NONE', #5, #53, #98 ) ;
#191 = PRODUCT_DEFINITION_SHAPE ( 'NONE', 'NONE',  #3 ) ;
#192 = COORDINATED_UNIVERSAL_TIME_OFFSET ( 1, 0, .AHEAD. ) ;
#193 = CARTESIAN_POINT ( 'NONE',  ( 1.745740669421567467E-15, 0.0000000000000000000, 0.5000000000000002220 ) ) ;
#194 = DIRECTION ( 'NONE',  ( 3.491481338843133355E-15, -0.0000000000000000000, 1.000000000000000000 ) ) ;
#195 = FACE_BOUND ( 'NONE', #111, .T. ) ;
#196 = CONICAL_SURFACE ( 'NONE', #138, 3.999999999999999112, 0.7853981633974473908 ) ;
#197 = CARTESIAN_POINT ( 'NONE',  ( 0.0000000000000000000, 0.0000000000000000000, 0.0000000000000000000 ) ) ;
#198 = AXIS2_PLACEMENT_3D ( 'NONE', #84, #6, #42 ) ;
#199 = APPLICATION_CONTEXT ( 'configuration controlled 3d designs of mechanical parts and assemblies' ) ;
#200 = CARTESIAN_POINT ( 'NONE',  ( 6.633814543801952113E-14, 3.999999999999997335, 19.00000000000000000 ) ) ;
#201 = PRODUCT_RELATED_PRODUCT_CATEGORY ( 'detail', '', ( #152 ) ) ;
#202 = VERTEX_POINT ( 'NONE', #200 ) ;
#203 = CARTESIAN_POINT ( 'NONE',  ( 3.499999999999999556, 0.0000000000000000000, -1.222018468595096517E-14 ) ) ;
#204 = ORIENTED_EDGE ( 'NONE', *, *, #216, .T. ) ;
#205 = CARTESIAN_POINT ( 'NONE',  ( 4.000000000000002665, 0.0000000000000000000, 0.4999999999999862332 ) ) ;
#206 = PERSON_AND_ORGANIZATION ( #143, #59 ) ;
#207 = COORDINATED_UNIVERSAL_TIME_OFFSET ( 1, 0, .AHEAD. ) ;
#208 = AXIS2_PLACEMENT_3D ( 'NONE', #8, #20, #170 ) ;
#209 = CLOSED_SHELL ( 'NONE', ( #219, #212, #63, #161 ) ) ;
#210 = PERSON_AND_ORGANIZATION ( #143, #59 ) ;
#211 = EDGE_LOOP ( 'NONE', ( #73 ) ) ;
#212 = ADVANCED_FACE ( 'NONE', ( #215, #119 ), #9, .T. ) ;
#213 = PLANE ( 'NONE',  #198 ) ;
#214 = SECURITY_CLASSIFICATION_LEVEL ( 'unclassified' ) ;
#215 = FACE_OUTER_BOUND ( 'NONE', #64, .T. ) ;
#216 = EDGE_CURVE ( 'NONE', #30, #30, #50, .T. ) ;
#217 = DIRECTION ( 'NONE',  ( -3.491481338843133355E-15, 1.224646799147353207E-16, -1.000000000000000000 ) ) ;
#218 = CARTESIAN_POINT ( 'NONE',  ( 6.633814543801952113E-14, -2.326828918379970970E-15, 19.00000000000000000 ) ) ;
#219 = ADVANCED_FACE ( 'NONE', ( #24 ), #180, .F. ) ;
#220 = DIRECTION ( 'NONE',  ( 0.0000000000000000000, 0.0000000000000000000, 1.000000000000000000 ) ) ;
#221 = LOCAL_TIME ( 9, 56, 57.00000000000000000, #148 ) ;
#222 = CIRCLE ( 'NONE', #25, 3.499999999999999556 ) ;
#223 = DIRECTION ( 'NONE',  ( 1.000000000000000000, 0.0000000000000000000, 0.0000000000000000000 ) ) ;
ENDSEC;
END-ISO-10303-21;
