ISO-10303-21;
HEADER;
FILE_DESCRIPTION (( 'STEP AP203' ),
    '1' );
FILE_NAME ('997941.step',
    '2021-11-18T08:56:57',
    ( '' ),
    ( '' ),
    'SwSTEP 2.0',
    'SolidWorks 2019',
    '' );
FILE_SCHEMA (( 'CONFIG_CONTROL_DESIGN' ));
ENDSEC;

DATA;
#1 = EDGE_LOOP ( 'NONE', ( #3 ) ) ;
#2 = APPROVAL ( #46, 'UNSPECIFIED' ) ;
#3 = ORIENTED_EDGE ( 'NONE', *, *, #223, .F. ) ;
#4 = DATE_AND_TIME ( #85, #56 ) ;
#5 = DIRECTION ( 'NONE',  ( 0.0000000000000000000, 1.000000000000000000, 0.0000000000000000000 ) ) ;
#6 = APPROVAL_DATE_TIME ( #4, #41 ) ;
#7 = DIRECTION ( 'NONE',  ( -3.491481338843133355E-15, 1.224646799147353207E-16, -1.000000000000000000 ) ) ;
#8 = VERTEX_POINT ( 'NONE', #151 ) ;
#9 = DIRECTION ( 'NONE',  ( 4.275831445896959482E-31, 1.000000000000000000, 1.224646799147353207E-16 ) ) ;
#10 = CIRCLE ( 'NONE', #215, 3.000000000000000000 ) ;
#11 = PERSON_AND_ORGANIZATION_ROLE ( 'design_supplier' ) ;
#12 = DATE_AND_TIME ( #153, #186 ) ;
#13 = CC_DESIGN_SECURITY_CLASSIFICATION ( #168, ( #203 ) ) ;
#14 = AXIS2_PLACEMENT_3D ( 'NONE', #166, #128, #214 ) ;
#15 = PERSON ( 'UNSPECIFIED', 'UNSPECIFIED', 'UNSPECIFIED', ('UNSPECIFIED'), ('UNSPECIFIED'), ('UNSPECIFIED') ) ;
#16 = ADVANCED_FACE ( 'NONE', ( #77 ), #197, .F. ) ;
#17 = APPROVAL_PERSON_ORGANIZATION ( #154, #91, #42 ) ;
#18 = ORIENTED_EDGE ( 'NONE', *, *, #191, .F. ) ;
#19 = EDGE_LOOP ( 'NONE', ( #83 ) ) ;
#20 = CIRCLE ( 'NONE', #129, 3.000000000000000000 ) ;
#21 = CARTESIAN_POINT ( 'NONE',  ( 4.538925740496073362E-14, -1.592040838891559095E-15, 13.00000000000000000 ) ) ;
#22 = PLANE ( 'NONE',  #222 ) ;
#23 = FACE_OUTER_BOUND ( 'NONE', #176, .T. ) ;
#24 = DIRECTION ( 'NONE',  ( 1.000000000000000000, 0.0000000000000000000, -3.491481338843133355E-15 ) ) ;
#25 = FACE_OUTER_BOUND ( 'NONE', #1, .T. ) ;
#26 = CC_DESIGN_PERSON_AND_ORGANIZATION_ASSIGNMENT ( #120, #66, ( #94 ) ) ;
#27 = VERTEX_POINT ( 'NONE', #206 ) ;
#28 = COORDINATED_UNIVERSAL_TIME_OFFSET ( 1, 0, .AHEAD. ) ;
#29 = APPROVAL_STATUS ( 'not_yet_approved' ) ;
#30 = SHAPE_DEFINITION_REPRESENTATION ( #126, #99 ) ;
#31 = DESIGN_CONTEXT ( 'detailed design', #37, 'design' ) ;
#32 = CARTESIAN_POINT ( 'NONE',  ( 4.538925740496073362E-14, 2.999999999999998224, 13.00000000000000000 ) ) ;
#33 = APPROVAL_ROLE ( '' ) ;
#34 = ORIENTED_EDGE ( 'NONE', *, *, #217, .T. ) ;
#35 = DIRECTION ( 'NONE',  ( -3.491481338843133355E-15, 1.224646799147353207E-16, -1.000000000000000000 ) ) ;
#36 = DIRECTION ( 'NONE',  ( 4.275831445896958607E-31, 1.000000000000000000, 1.224646799147353207E-16 ) ) ;
#37 = APPLICATION_CONTEXT ( 'configuration controlled 3d designs of mechanical parts and assemblies' ) ;
#38 = DIRECTION ( 'NONE',  ( 3.491481338843133355E-15, -0.0000000000000000000, 1.000000000000000000 ) ) ;
#39 = FACE_OUTER_BOUND ( 'NONE', #19, .T. ) ;
#40 = CONICAL_SURFACE ( 'NONE', #112, 3.000000000000000000, 0.7853981633974516097 ) ;
#41 = APPROVAL ( #144, 'UNSPECIFIED' ) ;
#42 = APPROVAL_ROLE ( '' ) ;
#43 = CALENDAR_DATE ( 2021, 18, 11 ) ;
#44 = DIRECTION ( 'NONE',  ( 1.000000000000000000, 0.0000000000000000000, 0.0000000000000000000 ) ) ;
#45 = EDGE_CURVE ( 'NONE', #67, #67, #101, .T. ) ;
#46 = APPROVAL_STATUS ( 'not_yet_approved' ) ;
#47 = VERTEX_POINT ( 'NONE', #208 ) ;
#48 = ORIENTED_EDGE ( 'NONE', *, *, #217, .F. ) ;
#49 = PRODUCT_RELATED_PRODUCT_CATEGORY ( 'detail', '', ( #167 ) ) ;
#50 = DIRECTION ( 'NONE',  ( 3.491481338843133355E-15, -1.224646799147353207E-16, 1.000000000000000000 ) ) ;
#51 = DIRECTION ( 'NONE',  ( -3.491481338843133355E-15, 1.224646799147353207E-16, -1.000000000000000000 ) ) ;
#52 = FACE_OUTER_BOUND ( 'NONE', #62, .T. ) ;
#53 = FACE_BOUND ( 'NONE', #162, .T. ) ;
#54 = CARTESIAN_POINT ( 'NONE',  ( 0.0000000000000000000, 0.0000000000000000000, 0.0000000000000000000 ) ) ;
#55 = PERSON_AND_ORGANIZATION_ROLE ( 'creator' ) ;
#56 = LOCAL_TIME ( 9, 56, 57.00000000000000000, #28 ) ;
#57 = APPLICATION_CONTEXT ( 'configuration controlled 3d designs of mechanical parts and assemblies' ) ;
#58 = CARTESIAN_POINT ( 'NONE',  ( 0.0000000000000000000, 0.0000000000000000000, 0.0000000000000000000 ) ) ;
#59 = CC_DESIGN_PERSON_AND_ORGANIZATION_ASSIGNMENT ( #127, #55, ( #203 ) ) ;
#60 = UNCERTAINTY_MEASURE_WITH_UNIT (LENGTH_MEASURE( 1.000000000000000082E-05 ), #114, 'distance_accuracy_value', 'NONE');
#61 = DATE_TIME_ROLE ( 'creation_date' ) ;
#62 = EDGE_LOOP ( 'NONE', ( #210 ) ) ;
#63 = AXIS2_PLACEMENT_3D ( 'NONE', #58, #135, #44 ) ;
#64 = TOROIDAL_SURFACE ( 'NONE', #95, 2.000000000000000000, 0.9999999999999997780 ) ;
#65 = DIRECTION ( 'NONE',  ( -3.491481338843133355E-15, 1.224646799147353207E-16, -1.000000000000000000 ) ) ;
#66 = PERSON_AND_ORGANIZATION_ROLE ( 'creator' ) ;
#67 = VERTEX_POINT ( 'NONE', #169 ) ;
#68 = FACE_OUTER_BOUND ( 'NONE', #195, .T. ) ;
#69 = DIRECTION ( 'NONE',  ( 0.0000000000000000000, 1.000000000000000000, 0.0000000000000000000 ) ) ;
#70 = DIRECTION ( 'NONE',  ( -4.275831445896958607E-31, -1.000000000000000000, -1.224646799147353207E-16 ) ) ;
#71 = CARTESIAN_POINT ( 'NONE',  ( 1.990144363140586139E-13, 2.599999999999992983, 57.00000000000000000 ) ) ;
#72 = AXIS2_PLACEMENT_3D ( 'NONE', #122, #221, #125 ) ;
#73 = SECURITY_CLASSIFICATION_LEVEL ( 'unclassified' ) ;
#74 = PERSON_AND_ORGANIZATION ( #15, #97 ) ;
#75 = AXIS2_PLACEMENT_3D ( 'NONE', #145, #38, #220 ) ;
#76 = CC_DESIGN_PERSON_AND_ORGANIZATION_ASSIGNMENT ( #175, #188, ( #167 ) ) ;
#77 = FACE_OUTER_BOUND ( 'NONE', #96, .T. ) ;
#78 = ORIENTED_EDGE ( 'NONE', *, *, #45, .F. ) ;
#79 = AXIS2_PLACEMENT_3D ( 'NONE', #156, #171, #70 ) ;
#80 = CIRCLE ( 'NONE', #109, 2.600000000000000089 ) ;
#81 =( NAMED_UNIT ( * ) SI_UNIT ( $, .STERADIAN. ) SOLID_ANGLE_UNIT ( ) );
#82 = ORIENTED_EDGE ( 'NONE', *, *, #223, .T. ) ;
#83 = ORIENTED_EDGE ( 'NONE', *, *, #148, .F. ) ;
#84 = EDGE_LOOP ( 'NONE', ( #157 ) ) ;
#85 = CALENDAR_DATE ( 2021, 18, 11 ) ;
#86 = CC_DESIGN_PERSON_AND_ORGANIZATION_ASSIGNMENT ( #74, #11, ( #203 ) ) ;
#87 = CARTESIAN_POINT ( 'NONE',  ( 1.990144363140586139E-13, 1.949687717460404490E-32, 57.00000000000000000 ) ) ;
#88 = CYLINDRICAL_SURFACE ( 'NONE', #72, 3.000000000000000000 ) ;
#89 = FACE_OUTER_BOUND ( 'NONE', #117, .T. ) ;
#90 = DIRECTION ( 'NONE',  ( 0.0000000000000000000, 1.000000000000000000, 0.0000000000000000000 ) ) ;
#91 = APPROVAL ( #29, 'UNSPECIFIED' ) ;
#92 = DATE_TIME_ROLE ( 'classification_date' ) ;
#93 = CC_DESIGN_DATE_AND_TIME_ASSIGNMENT ( #118, #61, ( #94 ) ) ;
#94 = PRODUCT_DEFINITION ( 'UNKNOWN', '', #203, #31 ) ;
#95 = AXIS2_PLACEMENT_3D ( 'NONE', #152, #124, #24 ) ;
#96 = EDGE_LOOP ( 'NONE', ( #121 ) ) ;
#97 = ORGANIZATION ( 'UNSPECIFIED', 'UNSPECIFIED', '' ) ;
#98 = EDGE_LOOP ( 'NONE', ( #113 ) ) ;
#99 = ADVANCED_BREP_SHAPE_REPRESENTATION ( '997941', ( #219, #142, #63 ), #131 ) ;
#100 = PLANE ( 'NONE',  #209 ) ;
#101 = CIRCLE ( 'NONE', #75, 2.999999999999999556 ) ;
#102 = CYLINDRICAL_SURFACE ( 'NONE', #204, 3.000000000000000000 ) ;
#103 = DIRECTION ( 'NONE',  ( -4.275831445896958607E-31, -1.000000000000000000, -1.224646799147353207E-16 ) ) ;
#104 = FACE_OUTER_BOUND ( 'NONE', #98, .T. ) ;
#105 = CIRCLE ( 'NONE', #14, 2.000000000000000000 ) ;
#106 = DIRECTION ( 'NONE',  ( -3.491481338843133355E-15, 1.224646799147353207E-16, -1.000000000000000000 ) ) ;
#107 = MECHANICAL_CONTEXT ( 'NONE', #57, 'mechanical' ) ;
#108 = ADVANCED_FACE ( 'NONE', ( #25 ), #100, .F. ) ;
#109 = AXIS2_PLACEMENT_3D ( 'NONE', #164, #51, #205 ) ;
#110 = ADVANCED_FACE ( 'NONE', ( #68 ), #182, .T. ) ;
#111 = COORDINATED_UNIVERSAL_TIME_OFFSET ( 1, 0, .AHEAD. ) ;
#112 = AXIS2_PLACEMENT_3D ( 'NONE', #218, #106, #90 ) ;
#113 = ORIENTED_EDGE ( 'NONE', *, *, #191, .T. ) ;
#114 =( LENGTH_UNIT ( ) NAMED_UNIT ( * ) SI_UNIT ( .MILLI., .METRE. ) );
#115 = PERSON_AND_ORGANIZATION ( #15, #97 ) ;
#116 = CC_DESIGN_APPROVAL ( #2, ( #203 ) ) ;
#117 = EDGE_LOOP ( 'NONE', ( #34 ) ) ;
#118 = DATE_AND_TIME ( #211, #139 ) ;
#119 = CC_DESIGN_APPROVAL ( #41, ( #94 ) ) ;
#120 = PERSON_AND_ORGANIZATION ( #15, #97 ) ;
#121 = ORIENTED_EDGE ( 'NONE', *, *, #170, .T. ) ;
#122 = CARTESIAN_POINT ( 'NONE',  ( 0.0000000000000000000, 0.0000000000000000000, 0.0000000000000000000 ) ) ;
#123 = LOCAL_TIME ( 9, 56, 57.00000000000000000, #136 ) ;
#124 = DIRECTION ( 'NONE',  ( 3.491481338843133355E-15, -0.0000000000000000000, 1.000000000000000000 ) ) ;
#125 = DIRECTION ( 'NONE',  ( 4.275831445896959482E-31, 1.000000000000000000, 1.224646799147353207E-16 ) ) ;
#126 = PRODUCT_DEFINITION_SHAPE ( 'NONE', 'NONE',  #94 ) ;
#127 = PERSON_AND_ORGANIZATION ( #15, #97 ) ;
#128 = DIRECTION ( 'NONE',  ( 3.491481338843133355E-15, -0.0000000000000000000, 1.000000000000000000 ) ) ;
#129 = AXIS2_PLACEMENT_3D ( 'NONE', #21, #65, #213 ) ;
#130 = CARTESIAN_POINT ( 'NONE',  ( 1.976178437785213605E-13, -6.931500883174019483E-15, 56.60000000000000142 ) ) ;
#131 =( GEOMETRIC_REPRESENTATION_CONTEXT ( 3 ) GLOBAL_UNCERTAINTY_ASSIGNED_CONTEXT ( ( #60 ) ) GLOBAL_UNIT_ASSIGNED_CONTEXT ( ( #114, #174, #81 ) ) REPRESENTATION_CONTEXT ( 'NONE', 'WORKASPACE' ) );
#132 = APPROVAL_ROLE ( '' ) ;
#133 = PERSON_AND_ORGANIZATION_ROLE ( 'classification_officer' ) ;
#134 = VERTEX_POINT ( 'NONE', #71 ) ;
#135 = DIRECTION ( 'NONE',  ( 0.0000000000000000000, 0.0000000000000000000, 1.000000000000000000 ) ) ;
#136 = COORDINATED_UNIVERSAL_TIME_OFFSET ( 1, 0, .AHEAD. ) ;
#137 = AXIS2_PLACEMENT_3D ( 'NONE', #130, #35, #69 ) ;
#138 = ADVANCED_FACE ( 'NONE', ( #39 ), #22, .T. ) ;
#139 = LOCAL_TIME ( 9, 56, 57.00000000000000000, #146 ) ;
#140 = ORIENTED_EDGE ( 'NONE', *, *, #148, .T. ) ;
#141 = APPROVAL_DATE_TIME ( #196, #2 ) ;
#142 = MANIFOLD_SOLID_BREP ( 'Corps-Déplacer/Copier1[2]', #189 ) ;
#143 = EDGE_LOOP ( 'NONE', ( #48 ) ) ;
#144 = APPROVAL_STATUS ( 'not_yet_approved' ) ;
#145 = CARTESIAN_POINT ( 'NONE',  ( 3.491481338843134933E-15, 0.0000000000000000000, 1.000000000000000444 ) ) ;
#146 = COORDINATED_UNIVERSAL_TIME_OFFSET ( 1, 0, .AHEAD. ) ;
#147 = DIRECTION ( 'NONE',  ( 4.275831445896958607E-31, 1.000000000000000000, 1.224646799147353207E-16 ) ) ;
#148 = EDGE_CURVE ( 'NONE', #8, #8, #105, .T. ) ;
#149 = APPROVAL_PERSON_ORGANIZATION ( #115, #2, #33 ) ;
#150 = FACE_OUTER_BOUND ( 'NONE', #143, .T. ) ;
#151 = CARTESIAN_POINT ( 'NONE',  ( 2.000000000000000000, 0.0000000000000000000, -6.982962677686266711E-15 ) ) ;
#152 = CARTESIAN_POINT ( 'NONE',  ( 3.491481338843133355E-15, 0.0000000000000000000, 1.000000000000000000 ) ) ;
#153 = CALENDAR_DATE ( 2021, 18, 11 ) ;
#154 = PERSON_AND_ORGANIZATION ( #15, #97 ) ;
#155 = APPLICATION_PROTOCOL_DEFINITION ( 'international standard', 'config_control_design', 1994, #37 ) ;
#156 = CARTESIAN_POINT ( 'NONE',  ( 4.538925740496073362E-14, 2.249639673992783675E-32, 13.00000000000000000 ) ) ;
#157 = ORIENTED_EDGE ( 'NONE', *, *, #45, .T. ) ;
#158 = APPLICATION_PROTOCOL_DEFINITION ( 'international standard', 'config_control_design', 1994, #57 ) ;
#159 = CALENDAR_DATE ( 2021, 18, 11 ) ;
#160 = ADVANCED_FACE ( 'NONE', ( #53, #150 ), #40, .T. ) ;
#161 = PERSON_AND_ORGANIZATION ( #15, #97 ) ;
#162 = EDGE_LOOP ( 'NONE', ( #82 ) ) ;
#163 = DIRECTION ( 'NONE',  ( -3.491481338843133355E-15, 1.224646799147353207E-16, -1.000000000000000000 ) ) ;
#164 = CARTESIAN_POINT ( 'NONE',  ( 1.990144363140586139E-13, -6.980486755139912911E-15, 57.00000000000000000 ) ) ;
#165 = CC_DESIGN_DATE_AND_TIME_ASSIGNMENT ( #12, #92, ( #168 ) ) ;
#166 = CARTESIAN_POINT ( 'NONE',  ( 0.0000000000000000000, 0.0000000000000000000, 0.0000000000000000000 ) ) ;
#167 = PRODUCT ( '997941', '997941', '', ( #107 ) ) ;
#168 = SECURITY_CLASSIFICATION ( '', '', #73 ) ;
#169 = CARTESIAN_POINT ( 'NONE',  ( 3.000000000000003109, 0.0000000000000000000, 0.9999999999999900080 ) ) ;
#170 = EDGE_CURVE ( 'NONE', #193, #193, #10, .T. ) ;
#171 = DIRECTION ( 'NONE',  ( 3.491481338843133355E-15, -1.224646799147353207E-16, 1.000000000000000000 ) ) ;
#172 = DATE_AND_TIME ( #43, #123 ) ;
#173 = LOCAL_TIME ( 9, 56, 57.00000000000000000, #177 ) ;
#174 =( NAMED_UNIT ( * ) PLANE_ANGLE_UNIT ( ) SI_UNIT ( $, .RADIAN. ) );
#175 = PERSON_AND_ORGANIZATION ( #15, #97 ) ;
#176 = EDGE_LOOP ( 'NONE', ( #78 ) ) ;
#177 = COORDINATED_UNIVERSAL_TIME_OFFSET ( 1, 0, .AHEAD. ) ;
#178 = ADVANCED_FACE ( 'NONE', ( #183, #104 ), #102, .T. ) ;
#179 = EDGE_LOOP ( 'NONE', ( #140 ) ) ;
#180 = DIRECTION ( 'NONE',  ( -3.491481338843133355E-15, 1.224646799147353207E-16, -1.000000000000000000 ) ) ;
#181 = CIRCLE ( 'NONE', #137, 3.000000000000000000 ) ;
#182 = PLANE ( 'NONE',  #207 ) ;
#183 = FACE_OUTER_BOUND ( 'NONE', #84, .T. ) ;
#184 = ADVANCED_FACE ( 'NONE', ( #200, #23 ), #64, .T. ) ;
#185 = CLOSED_SHELL ( 'NONE', ( #16, #212, #160, #108 ) ) ;
#186 = LOCAL_TIME ( 9, 56, 57.00000000000000000, #111 ) ;
#187 = CARTESIAN_POINT ( 'NONE',  ( 4.538925740496073362E-14, 2.249639673992783675E-32, 13.00000000000000000 ) ) ;
#188 = PERSON_AND_ORGANIZATION_ROLE ( 'design_owner' ) ;
#189 = CLOSED_SHELL ( 'NONE', ( #178, #110, #184, #138 ) ) ;
#190 = PERSON_AND_ORGANIZATION ( #15, #97 ) ;
#191 = EDGE_CURVE ( 'NONE', #27, #27, #20, .T. ) ;
#192 = APPROVAL_DATE_TIME ( #172, #91 ) ;
#193 = VERTEX_POINT ( 'NONE', #32 ) ;
#194 = APPROVAL_PERSON_ORGANIZATION ( #161, #41, #132 ) ;
#195 = EDGE_LOOP ( 'NONE', ( #18 ) ) ;
#196 = DATE_AND_TIME ( #159, #173 ) ;
#197 = PLANE ( 'NONE',  #79 ) ;
#198 = CC_DESIGN_PERSON_AND_ORGANIZATION_ASSIGNMENT ( #190, #133, ( #168 ) ) ;
#199 = DIRECTION ( 'NONE',  ( -3.491481338843133355E-15, 1.224646799147353207E-16, -1.000000000000000000 ) ) ;
#200 = FACE_OUTER_BOUND ( 'NONE', #179, .T. ) ;
#201 = CARTESIAN_POINT ( 'NONE',  ( 4.538925740496073362E-14, -1.592040838891559095E-15, 13.00000000000000000 ) ) ;
#202 = CARTESIAN_POINT ( 'NONE',  ( -6.413747168845438786E-31, 2.249639673992786412E-32, -1.836970198721029934E-16 ) ) ;
#203 = PRODUCT_DEFINITION_FORMATION_WITH_SPECIFIED_SOURCE ( 'ANY', '', #167, .NOT_KNOWN. ) ;
#204 = AXIS2_PLACEMENT_3D ( 'NONE', #54, #163, #9 ) ;
#205 = DIRECTION ( 'NONE',  ( 0.0000000000000000000, 1.000000000000000000, 0.0000000000000000000 ) ) ;
#206 = CARTESIAN_POINT ( 'NONE',  ( 4.538925740496073362E-14, 2.999999999999998224, 13.00000000000000000 ) ) ;
#207 = AXIS2_PLACEMENT_3D ( 'NONE', #187, #50, #103 ) ;
#208 = CARTESIAN_POINT ( 'NONE',  ( 1.976178437785213605E-13, 2.999999999999993339, 56.60000000000000142 ) ) ;
#209 = AXIS2_PLACEMENT_3D ( 'NONE', #87, #199, #36 ) ;
#210 = ORIENTED_EDGE ( 'NONE', *, *, #170, .F. ) ;
#211 = CALENDAR_DATE ( 2021, 18, 11 ) ;
#212 = ADVANCED_FACE ( 'NONE', ( #89, #52 ), #88, .T. ) ;
#213 = DIRECTION ( 'NONE',  ( 0.0000000000000000000, 1.000000000000000000, 0.0000000000000000000 ) ) ;
#214 = DIRECTION ( 'NONE',  ( 1.000000000000000000, 0.0000000000000000000, -3.491481338843133355E-15 ) ) ;
#215 = AXIS2_PLACEMENT_3D ( 'NONE', #201, #180, #5 ) ;
#216 = CC_DESIGN_APPROVAL ( #91, ( #168 ) ) ;
#217 = EDGE_CURVE ( 'NONE', #47, #47, #181, .T. ) ;
#218 = CARTESIAN_POINT ( 'NONE',  ( 1.976178437785213605E-13, -6.931500883174019483E-15, 56.60000000000000142 ) ) ;
#219 = MANIFOLD_SOLID_BREP ( 'Corps-Déplacer/Copier1[1]', #185 ) ;
#220 = DIRECTION ( 'NONE',  ( 1.000000000000000000, 0.0000000000000000000, -3.469446951953614583E-15 ) ) ;
#221 = DIRECTION ( 'NONE',  ( -3.491481338843133355E-15, 1.224646799147353207E-16, -1.000000000000000000 ) ) ;
#222 = AXIS2_PLACEMENT_3D ( 'NONE', #202, #7, #147 ) ;
#223 = EDGE_CURVE ( 'NONE', #134, #134, #80, .T. ) ;
ENDSEC;
END-ISO-10303-21;
