ISO-10303-21;
HEADER;
FILE_DESCRIPTION (( 'STEP AP203' ),
    '1' );
FILE_NAME ('997940.step',
    '2021-11-18T08:56:56',
    ( '' ),
    ( '' ),
    'SwSTEP 2.0',
    'SolidWorks 2019',
    '' );
FILE_SCHEMA (( 'CONFIG_CONTROL_DESIGN' ));
ENDSEC;

DATA;
#1 = EDGE_LOOP ( 'NONE', ( #76 ) ) ;
#2 = DIRECTION ( 'NONE',  ( 4.275831445896959482E-31, 1.000000000000000000, 1.224646799147353207E-16 ) ) ;
#3 = FACE_OUTER_BOUND ( 'NONE', #1, .T. ) ;
#4 = DIRECTION ( 'NONE',  ( 3.491481338843133355E-15, -0.0000000000000000000, 1.000000000000000000 ) ) ;
#5 = PERSON_AND_ORGANIZATION_ROLE ( 'design_supplier' ) ;
#6 = APPROVAL_STATUS ( 'not_yet_approved' ) ;
#7 = ADVANCED_FACE ( 'NONE', ( #97, #28 ), #219, .T. ) ;
#8 = CALENDAR_DATE ( 2021, 18, 11 ) ;
#9 = AXIS2_PLACEMENT_3D ( 'NONE', #206, #119, #47 ) ;
#10 = PERSON ( 'UNSPECIFIED', 'UNSPECIFIED', 'UNSPECIFIED', ('UNSPECIFIED'), ('UNSPECIFIED'), ('UNSPECIFIED') ) ;
#11 = CARTESIAN_POINT ( 'NONE',  ( 1.976178437785213605E-13, -6.931500883174019483E-15, 56.60000000000000142 ) ) ;
#12 = CC_DESIGN_PERSON_AND_ORGANIZATION_ASSIGNMENT ( #175, #59, ( #178 ) ) ;
#13 = VERTEX_POINT ( 'NONE', #145 ) ;
#14 = PLANE ( 'NONE',  #169 ) ;
#15 = APPLICATION_CONTEXT ( 'configuration controlled 3d designs of mechanical parts and assemblies' ) ;
#16 = CC_DESIGN_DATE_AND_TIME_ASSIGNMENT ( #38, #57, ( #33 ) ) ;
#17 = ORIENTED_EDGE ( 'NONE', *, *, #81, .F. ) ;
#18 = PERSON_AND_ORGANIZATION ( #10, #63 ) ;
#19 = ADVANCED_FACE ( 'NONE', ( #165 ), #14, .F. ) ;
#20 = COORDINATED_UNIVERSAL_TIME_OFFSET ( 1, 0, .AHEAD. ) ;
#21 = CALENDAR_DATE ( 2021, 18, 11 ) ;
#22 = APPROVAL_PERSON_ORGANIZATION ( #156, #149, #89 ) ;
#23 = PERSON_AND_ORGANIZATION ( #10, #63 ) ;
#24 = PRODUCT_DEFINITION_FORMATION_WITH_SPECIFIED_SOURCE ( 'ANY', '', #198, .NOT_KNOWN. ) ;
#25 = FACE_OUTER_BOUND ( 'NONE', #215, .T. ) ;
#26 = AXIS2_PLACEMENT_3D ( 'NONE', #177, #209, #58 ) ;
#27 = DIRECTION ( 'NONE',  ( -3.491481338843133355E-15, 1.224646799147353207E-16, -1.000000000000000000 ) ) ;
#28 = FACE_OUTER_BOUND ( 'NONE', #203, .T. ) ;
#29 = ADVANCED_FACE ( 'NONE', ( #78 ), #143, .F. ) ;
#30 = COORDINATED_UNIVERSAL_TIME_OFFSET ( 1, 0, .AHEAD. ) ;
#31 = CYLINDRICAL_SURFACE ( 'NONE', #141, 3.000000000000000000 ) ;
#32 = LOCAL_TIME ( 9, 56, 56.00000000000000000, #20 ) ;
#33 = PRODUCT_DEFINITION ( 'UNKNOWN', '', #24, #181 ) ;
#34 = DIRECTION ( 'NONE',  ( 0.0000000000000000000, 0.0000000000000000000, 1.000000000000000000 ) ) ;
#35 = ORIENTED_EDGE ( 'NONE', *, *, #211, .F. ) ;
#36 = PERSON_AND_ORGANIZATION_ROLE ( 'design_owner' ) ;
#37 = AXIS2_PLACEMENT_3D ( 'NONE', #46, #34, #192 ) ;
#38 = DATE_AND_TIME ( #94, #218 ) ;
#39 =( GEOMETRIC_REPRESENTATION_CONTEXT ( 3 ) GLOBAL_UNCERTAINTY_ASSIGNED_CONTEXT ( ( #73 ) ) GLOBAL_UNIT_ASSIGNED_CONTEXT ( ( #131, #167, #150 ) ) REPRESENTATION_CONTEXT ( 'NONE', 'WORKASPACE' ) );
#40 = DATE_TIME_ROLE ( 'classification_date' ) ;
#41 = DIRECTION ( 'NONE',  ( -3.491481338843133355E-15, 1.224646799147353207E-16, -1.000000000000000000 ) ) ;
#42 = VERTEX_POINT ( 'NONE', #187 ) ;
#43 = AXIS2_PLACEMENT_3D ( 'NONE', #99, #144, #162 ) ;
#44 = CARTESIAN_POINT ( 'NONE',  ( 1.990144363140586139E-13, 2.599999999999992983, 57.00000000000000000 ) ) ;
#45 = CIRCLE ( 'NONE', #56, 3.000000000000000000 ) ;
#46 = CARTESIAN_POINT ( 'NONE',  ( 0.0000000000000000000, 0.0000000000000000000, 0.0000000000000000000 ) ) ;
#47 = DIRECTION ( 'NONE',  ( 1.000000000000000000, 0.0000000000000000000, -3.505587024369797538E-15 ) ) ;
#48 = CARTESIAN_POINT ( 'NONE',  ( 4.538925740496073362E-14, 2.999999999999998224, 13.00000000000000000 ) ) ;
#49 = CC_DESIGN_PERSON_AND_ORGANIZATION_ASSIGNMENT ( #66, #36, ( #198 ) ) ;
#50 = APPLICATION_PROTOCOL_DEFINITION ( 'international standard', 'config_control_design', 1994, #15 ) ;
#51 = ORIENTED_EDGE ( 'NONE', *, *, #180, .T. ) ;
#52 = APPLICATION_PROTOCOL_DEFINITION ( 'international standard', 'config_control_design', 1994, #68 ) ;
#53 = ADVANCED_FACE ( 'NONE', ( #217 ), #127, .T. ) ;
#54 = CALENDAR_DATE ( 2021, 18, 11 ) ;
#55 = DIRECTION ( 'NONE',  ( 1.000000000000000000, 0.0000000000000000000, -3.491481338843133355E-15 ) ) ;
#56 = AXIS2_PLACEMENT_3D ( 'NONE', #65, #132, #88 ) ;
#57 = DATE_TIME_ROLE ( 'creation_date' ) ;
#58 = DIRECTION ( 'NONE',  ( 0.0000000000000000000, 1.000000000000000000, 0.0000000000000000000 ) ) ;
#59 = PERSON_AND_ORGANIZATION_ROLE ( 'classification_officer' ) ;
#60 = CARTESIAN_POINT ( 'NONE',  ( 4.538925740496073362E-14, -1.592040838891559095E-15, 13.00000000000000000 ) ) ;
#61 = DIRECTION ( 'NONE',  ( 4.275831445896958607E-31, 1.000000000000000000, 1.224646799147353207E-16 ) ) ;
#62 = CC_DESIGN_PERSON_AND_ORGANIZATION_ASSIGNMENT ( #202, #223, ( #33 ) ) ;
#63 = ORGANIZATION ( 'UNSPECIFIED', 'UNSPECIFIED', '' ) ;
#64 = APPROVAL_DATE_TIME ( #104, #138 ) ;
#65 = CARTESIAN_POINT ( 'NONE',  ( 1.976178437785213605E-13, -6.931500883174019483E-15, 56.60000000000000142 ) ) ;
#66 = PERSON_AND_ORGANIZATION ( #10, #63 ) ;
#67 = AXIS2_PLACEMENT_3D ( 'NONE', #11, #184, #103 ) ;
#68 = APPLICATION_CONTEXT ( 'configuration controlled 3d designs of mechanical parts and assemblies' ) ;
#69 = FACE_OUTER_BOUND ( 'NONE', #207, .T. ) ;
#70 = DATE_AND_TIME ( #21, #158 ) ;
#71 = APPROVAL_DATE_TIME ( #173, #149 ) ;
#72 = FACE_OUTER_BOUND ( 'NONE', #186, .T. ) ;
#73 = UNCERTAINTY_MEASURE_WITH_UNIT (LENGTH_MEASURE( 1.000000000000000082E-05 ), #131, 'distance_accuracy_value', 'NONE');
#74 = ADVANCED_FACE ( 'NONE', ( #136, #25 ), #31, .T. ) ;
#75 = APPROVAL_PERSON_ORGANIZATION ( #190, #138, #114 ) ;
#76 = ORIENTED_EDGE ( 'NONE', *, *, #91, .T. ) ;
#77 = AXIS2_PLACEMENT_3D ( 'NONE', #60, #199, #197 ) ;
#78 = FACE_OUTER_BOUND ( 'NONE', #112, .T. ) ;
#79 = VERTEX_POINT ( 'NONE', #161 ) ;
#80 = DIRECTION ( 'NONE',  ( -3.491481338843133355E-15, 1.224646799147353207E-16, -1.000000000000000000 ) ) ;
#81 = EDGE_CURVE ( 'NONE', #42, #42, #45, .T. ) ;
#82 = ORIENTED_EDGE ( 'NONE', *, *, #101, .F. ) ;
#83 = CARTESIAN_POINT ( 'NONE',  ( 1.990144363140586139E-13, 1.949687717460404490E-32, 57.00000000000000000 ) ) ;
#84 = ADVANCED_FACE ( 'NONE', ( #3, #69 ), #117, .T. ) ;
#85 = APPROVAL_STATUS ( 'not_yet_approved' ) ;
#86 = ORIENTED_EDGE ( 'NONE', *, *, #220, .T. ) ;
#87 = AXIS2_PLACEMENT_3D ( 'NONE', #124, #4, #55 ) ;
#88 = DIRECTION ( 'NONE',  ( 0.0000000000000000000, 1.000000000000000000, 0.0000000000000000000 ) ) ;
#89 = APPROVAL_ROLE ( '' ) ;
#90 = EDGE_LOOP ( 'NONE', ( #82 ) ) ;
#91 = EDGE_CURVE ( 'NONE', #79, #79, #121, .T. ) ;
#92 = CC_DESIGN_APPROVAL ( #138, ( #33 ) ) ;
#93 = SHAPE_DEFINITION_REPRESENTATION ( #125, #168 ) ;
#94 = CALENDAR_DATE ( 2021, 18, 11 ) ;
#95 = PLANE ( 'NONE',  #183 ) ;
#96 = CARTESIAN_POINT ( 'NONE',  ( 4.538925740496073362E-14, -1.592040838891559095E-15, 13.00000000000000000 ) ) ;
#97 = FACE_BOUND ( 'NONE', #142, .T. ) ;
#98 = CIRCLE ( 'NONE', #26, 2.600000000000000089 ) ;
#99 = CARTESIAN_POINT ( 'NONE',  ( 4.538925740496073362E-14, 2.249639673992783675E-32, 13.00000000000000000 ) ) ;
#100 = DIRECTION ( 'NONE',  ( 0.0000000000000000000, 1.000000000000000000, 0.0000000000000000000 ) ) ;
#101 = EDGE_CURVE ( 'NONE', #13, #13, #193, .T. ) ;
#102 = VERTEX_POINT ( 'NONE', #128 ) ;
#103 = DIRECTION ( 'NONE',  ( 0.0000000000000000000, 1.000000000000000000, 0.0000000000000000000 ) ) ;
#104 = DATE_AND_TIME ( #106, #135 ) ;
#105 = VERTEX_POINT ( 'NONE', #48 ) ;
#106 = CALENDAR_DATE ( 2021, 18, 11 ) ;
#107 = CC_DESIGN_SECURITY_CLASSIFICATION ( #178, ( #24 ) ) ;
#108 = APPROVAL_DATE_TIME ( #208, #204 ) ;
#109 = CC_DESIGN_APPROVAL ( #149, ( #178 ) ) ;
#110 = APPROVAL_STATUS ( 'not_yet_approved' ) ;
#111 = EDGE_LOOP ( 'NONE', ( #134 ) ) ;
#112 = EDGE_LOOP ( 'NONE', ( #185 ) ) ;
#113 = AXIS2_PLACEMENT_3D ( 'NONE', #96, #41, #100 ) ;
#114 = APPROVAL_ROLE ( '' ) ;
#115 = ORIENTED_EDGE ( 'NONE', *, *, #220, .F. ) ;
#116 = CARTESIAN_POINT ( 'NONE',  ( 0.0000000000000000000, 0.0000000000000000000, 0.0000000000000000000 ) ) ;
#117 = CYLINDRICAL_SURFACE ( 'NONE', #160, 3.000000000000000000 ) ;
#118 = CC_DESIGN_APPROVAL ( #204, ( #24 ) ) ;
#119 = DIRECTION ( 'NONE',  ( 3.491481338843133355E-15, -0.0000000000000000000, 1.000000000000000000 ) ) ;
#120 = CARTESIAN_POINT ( 'NONE',  ( 0.0000000000000000000, 0.0000000000000000000, 0.0000000000000000000 ) ) ;
#121 = CIRCLE ( 'NONE', #9, 3.000000000000000000 ) ;
#122 = DIRECTION ( 'NONE',  ( 1.000000000000000000, 0.0000000000000000000, -3.491481338843133355E-15 ) ) ;
#123 = ORIENTED_EDGE ( 'NONE', *, *, #101, .T. ) ;
#124 = CARTESIAN_POINT ( 'NONE',  ( 1.745740669421566678E-15, 0.0000000000000000000, 0.5000000000000000000 ) ) ;
#125 = PRODUCT_DEFINITION_SHAPE ( 'NONE', 'NONE',  #33 ) ;
#126 = CC_DESIGN_PERSON_AND_ORGANIZATION_ASSIGNMENT ( #23, #5, ( #24 ) ) ;
#127 = PLANE ( 'NONE',  #212 ) ;
#128 = CARTESIAN_POINT ( 'NONE',  ( 4.538925740496073362E-14, 2.999999999999998224, 13.00000000000000000 ) ) ;
#129 = MANIFOLD_SOLID_BREP ( 'Corps-Déplacer/Copier1[2]', #221 ) ;
#130 = COORDINATED_UNIVERSAL_TIME_OFFSET ( 1, 0, .AHEAD. ) ;
#131 =( LENGTH_UNIT ( ) NAMED_UNIT ( * ) SI_UNIT ( .MILLI., .METRE. ) );
#132 = DIRECTION ( 'NONE',  ( -3.491481338843133355E-15, 1.224646799147353207E-16, -1.000000000000000000 ) ) ;
#133 = MANIFOLD_SOLID_BREP ( 'Corps-Déplacer/Copier1[1]', #205 ) ;
#134 = ORIENTED_EDGE ( 'NONE', *, *, #81, .T. ) ;
#135 = LOCAL_TIME ( 9, 56, 56.00000000000000000, #30 ) ;
#136 = FACE_OUTER_BOUND ( 'NONE', #111, .T. ) ;
#137 = DIRECTION ( 'NONE',  ( 4.275831445896959482E-31, 1.000000000000000000, 1.224646799147353207E-16 ) ) ;
#138 = APPROVAL ( #85, 'UNSPECIFIED' ) ;
#139 = COORDINATED_UNIVERSAL_TIME_OFFSET ( 1, 0, .AHEAD. ) ;
#140 = FACE_OUTER_BOUND ( 'NONE', #151, .T. ) ;
#141 = AXIS2_PLACEMENT_3D ( 'NONE', #170, #148, #2 ) ;
#142 = EDGE_LOOP ( 'NONE', ( #51 ) ) ;
#143 = PLANE ( 'NONE',  #43 ) ;
#144 = DIRECTION ( 'NONE',  ( 3.491481338843133355E-15, -1.224646799147353207E-16, 1.000000000000000000 ) ) ;
#145 = CARTESIAN_POINT ( 'NONE',  ( 2.500000000000000000, 0.0000000000000000000, -8.728703347107833388E-15 ) ) ;
#146 = TOROIDAL_SURFACE ( 'NONE', #87, 2.500000000000000000, 0.5000000000000000000 ) ;
#147 = MECHANICAL_CONTEXT ( 'NONE', #68, 'mechanical' ) ;
#148 = DIRECTION ( 'NONE',  ( -3.491481338843133355E-15, 1.224646799147353207E-16, -1.000000000000000000 ) ) ;
#149 = APPROVAL ( #110, 'UNSPECIFIED' ) ;
#150 =( NAMED_UNIT ( * ) SI_UNIT ( $, .STERADIAN. ) SOLID_ANGLE_UNIT ( ) );
#151 = EDGE_LOOP ( 'NONE', ( #115 ) ) ;
#152 = DIRECTION ( 'NONE',  ( 4.275831445896958607E-31, 1.000000000000000000, 1.224646799147353207E-16 ) ) ;
#153 = PERSON_AND_ORGANIZATION_ROLE ( 'creator' ) ;
#154 = DIRECTION ( 'NONE',  ( 3.491481338843133355E-15, -1.224646799147353207E-16, 1.000000000000000000 ) ) ;
#155 = SECURITY_CLASSIFICATION_LEVEL ( 'unclassified' ) ;
#156 = PERSON_AND_ORGANIZATION ( #10, #63 ) ;
#157 = DIRECTION ( 'NONE',  ( 3.491481338843133355E-15, -0.0000000000000000000, 1.000000000000000000 ) ) ;
#158 = LOCAL_TIME ( 9, 56, 56.00000000000000000, #139 ) ;
#159 = ADVANCED_FACE ( 'NONE', ( #140 ), #95, .T. ) ;
#160 = AXIS2_PLACEMENT_3D ( 'NONE', #116, #189, #137 ) ;
#161 = CARTESIAN_POINT ( 'NONE',  ( 3.000000000000001776, 0.0000000000000000000, 0.4999999999999896194 ) ) ;
#162 = DIRECTION ( 'NONE',  ( -4.275831445896958607E-31, -1.000000000000000000, -1.224646799147353207E-16 ) ) ;
#163 = PRODUCT_RELATED_PRODUCT_CATEGORY ( 'detail', '', ( #198 ) ) ;
#164 = APPROVAL_PERSON_ORGANIZATION ( #213, #204, #195 ) ;
#165 = FACE_OUTER_BOUND ( 'NONE', #191, .T. ) ;
#166 = CARTESIAN_POINT ( 'NONE',  ( -6.413747168845438786E-31, 2.249639673992786412E-32, -1.836970198721029934E-16 ) ) ;
#167 =( NAMED_UNIT ( * ) PLANE_ANGLE_UNIT ( ) SI_UNIT ( $, .RADIAN. ) );
#168 = ADVANCED_BREP_SHAPE_REPRESENTATION ( '997940', ( #133, #129, #37 ), #39 ) ;
#169 = AXIS2_PLACEMENT_3D ( 'NONE', #83, #80, #61 ) ;
#170 = CARTESIAN_POINT ( 'NONE',  ( 0.0000000000000000000, 0.0000000000000000000, 0.0000000000000000000 ) ) ;
#171 = ORIENTED_EDGE ( 'NONE', *, *, #91, .F. ) ;
#172 = CIRCLE ( 'NONE', #77, 3.000000000000000000 ) ;
#173 = DATE_AND_TIME ( #8, #32 ) ;
#174 = DIRECTION ( 'NONE',  ( -4.275831445896958607E-31, -1.000000000000000000, -1.224646799147353207E-16 ) ) ;
#175 = PERSON_AND_ORGANIZATION ( #10, #63 ) ;
#176 = CC_DESIGN_DATE_AND_TIME_ASSIGNMENT ( #70, #40, ( #178 ) ) ;
#177 = CARTESIAN_POINT ( 'NONE',  ( 1.990144363140586139E-13, -6.980486755139912911E-15, 57.00000000000000000 ) ) ;
#178 = SECURITY_CLASSIFICATION ( '', '', #155 ) ;
#179 = CARTESIAN_POINT ( 'NONE',  ( 4.538925740496073362E-14, 2.249639673992783675E-32, 13.00000000000000000 ) ) ;
#180 = EDGE_CURVE ( 'NONE', #200, #200, #98, .T. ) ;
#181 = DESIGN_CONTEXT ( 'detailed design', #15, 'design' ) ;
#182 = EDGE_LOOP ( 'NONE', ( #171 ) ) ;
#183 = AXIS2_PLACEMENT_3D ( 'NONE', #179, #154, #174 ) ;
#184 = DIRECTION ( 'NONE',  ( -3.491481338843133355E-15, 1.224646799147353207E-16, -1.000000000000000000 ) ) ;
#185 = ORIENTED_EDGE ( 'NONE', *, *, #211, .T. ) ;
#186 = EDGE_LOOP ( 'NONE', ( #123 ) ) ;
#187 = CARTESIAN_POINT ( 'NONE',  ( 1.976178437785213605E-13, 2.999999999999993339, 56.60000000000000142 ) ) ;
#188 = ORIENTED_EDGE ( 'NONE', *, *, #180, .F. ) ;
#189 = DIRECTION ( 'NONE',  ( -3.491481338843133355E-15, 1.224646799147353207E-16, -1.000000000000000000 ) ) ;
#190 = PERSON_AND_ORGANIZATION ( #10, #63 ) ;
#191 = EDGE_LOOP ( 'NONE', ( #188 ) ) ;
#192 = DIRECTION ( 'NONE',  ( 1.000000000000000000, 0.0000000000000000000, 0.0000000000000000000 ) ) ;
#193 = CIRCLE ( 'NONE', #222, 2.500000000000000000 ) ;
#194 = ADVANCED_FACE ( 'NONE', ( #72, #210 ), #146, .T. ) ;
#195 = APPROVAL_ROLE ( '' ) ;
#196 = CC_DESIGN_PERSON_AND_ORGANIZATION_ASSIGNMENT ( #18, #153, ( #24 ) ) ;
#197 = DIRECTION ( 'NONE',  ( 0.0000000000000000000, 1.000000000000000000, 0.0000000000000000000 ) ) ;
#198 = PRODUCT ( '997940', '997940', '', ( #147 ) ) ;
#199 = DIRECTION ( 'NONE',  ( -3.491481338843133355E-15, 1.224646799147353207E-16, -1.000000000000000000 ) ) ;
#200 = VERTEX_POINT ( 'NONE', #44 ) ;
#201 = LOCAL_TIME ( 9, 56, 56.00000000000000000, #214 ) ;
#202 = PERSON_AND_ORGANIZATION ( #10, #63 ) ;
#203 = EDGE_LOOP ( 'NONE', ( #17 ) ) ;
#204 = APPROVAL ( #6, 'UNSPECIFIED' ) ;
#205 = CLOSED_SHELL ( 'NONE', ( #29, #74, #7, #19 ) ) ;
#206 = CARTESIAN_POINT ( 'NONE',  ( 1.745740669421567072E-15, 0.0000000000000000000, 0.5000000000000001110 ) ) ;
#207 = EDGE_LOOP ( 'NONE', ( #86 ) ) ;
#208 = DATE_AND_TIME ( #54, #201 ) ;
#209 = DIRECTION ( 'NONE',  ( -3.491481338843133355E-15, 1.224646799147353207E-16, -1.000000000000000000 ) ) ;
#210 = FACE_OUTER_BOUND ( 'NONE', #182, .T. ) ;
#211 = EDGE_CURVE ( 'NONE', #102, #102, #172, .T. ) ;
#212 = AXIS2_PLACEMENT_3D ( 'NONE', #166, #27, #152 ) ;
#213 = PERSON_AND_ORGANIZATION ( #10, #63 ) ;
#214 = COORDINATED_UNIVERSAL_TIME_OFFSET ( 1, 0, .AHEAD. ) ;
#215 = EDGE_LOOP ( 'NONE', ( #35 ) ) ;
#216 = CIRCLE ( 'NONE', #113, 3.000000000000000000 ) ;
#217 = FACE_OUTER_BOUND ( 'NONE', #90, .T. ) ;
#218 = LOCAL_TIME ( 9, 56, 56.00000000000000000, #130 ) ;
#219 = CONICAL_SURFACE ( 'NONE', #67, 3.000000000000000000, 0.7853981633974516097 ) ;
#220 = EDGE_CURVE ( 'NONE', #105, #105, #216, .T. ) ;
#221 = CLOSED_SHELL ( 'NONE', ( #84, #159, #194, #53 ) ) ;
#222 = AXIS2_PLACEMENT_3D ( 'NONE', #120, #157, #122 ) ;
#223 = PERSON_AND_ORGANIZATION_ROLE ( 'creator' ) ;
ENDSEC;
END-ISO-10303-21;
