ISO-10303-21;
HEADER;
FILE_DESCRIPTION (( 'STEP AP203' ),
    '1' );
FILE_NAME ('997939.step',
    '2021-11-18T08:56:56',
    ( '' ),
    ( '' ),
    'SwSTEP 2.0',
    'SolidWorks 2019',
    '' );
FILE_SCHEMA (( 'CONFIG_CONTROL_DESIGN' ));
ENDSEC;

DATA;
#1 = ORIENTED_EDGE ( 'NONE', *, *, #76, .T. ) ;
#2 = EDGE_LOOP ( 'NONE', ( #169 ) ) ;
#3 = VERTEX_POINT ( 'NONE', #81 ) ;
#4 = DIRECTION ( 'NONE',  ( 3.491481338843133355E-15, -1.245781538759969447E-16, 1.000000000000000000 ) ) ;
#5 = APPLICATION_PROTOCOL_DEFINITION ( 'international standard', 'config_control_design', 1994, #7 ) ;
#6 = DIRECTION ( 'NONE',  ( -3.491481338843133355E-15, 1.224646799147353207E-16, -1.000000000000000000 ) ) ;
#7 = APPLICATION_CONTEXT ( 'configuration controlled 3d designs of mechanical parts and assemblies' ) ;
#8 = DIRECTION ( 'NONE',  ( 3.491481338843133355E-15, -1.245781538759969447E-16, 1.000000000000000000 ) ) ;
#9 = PRODUCT_DEFINITION_SHAPE ( 'NONE', 'NONE',  #145 ) ;
#10 = APPROVAL_ROLE ( '' ) ;
#11 = CLOSED_SHELL ( 'NONE', ( #141, #240, #40, #165, #85 ) ) ;
#12 = DIRECTION ( 'NONE',  ( 4.275831445896958607E-31, 1.000000000000000000, 1.224646799147353207E-16 ) ) ;
#13 = APPROVAL_STATUS ( 'not_yet_approved' ) ;
#14 = FACE_OUTER_BOUND ( 'NONE', #78, .T. ) ;
#15 = LOCAL_TIME ( 9, 56, 56.00000000000000000, #70 ) ;
#16 = AXIS2_PLACEMENT_3D ( 'NONE', #216, #159, #202 ) ;
#17 = DATE_AND_TIME ( #184, #126 ) ;
#18 = APPLICATION_CONTEXT ( 'configuration controlled 3d designs of mechanical parts and assemblies' ) ;
#19 =( GEOMETRIC_REPRESENTATION_CONTEXT ( 3 ) GLOBAL_UNCERTAINTY_ASSIGNED_CONTEXT ( ( #223 ) ) GLOBAL_UNIT_ASSIGNED_CONTEXT ( ( #155, #103, #193 ) ) REPRESENTATION_CONTEXT ( 'NONE', 'WORKASPACE' ) );
#20 = CC_DESIGN_PERSON_AND_ORGANIZATION_ASSIGNMENT ( #35, #104, ( #57 ) ) ;
#21 = APPROVAL_STATUS ( 'not_yet_approved' ) ;
#22 = ORIENTED_EDGE ( 'NONE', *, *, #36, .T. ) ;
#23 = ORIENTED_EDGE ( 'NONE', *, *, #230, .T. ) ;
#24 = ADVANCED_FACE ( 'NONE', ( #61, #74 ), #199, .T. ) ;
#25 = CARTESIAN_POINT ( 'NONE',  ( 4.538925740496072731E-14, -2.499999999999995115, 12.99999999999999822 ) ) ;
#26 = CARTESIAN_POINT ( 'NONE',  ( 4.538925740496072731E-14, -1.734723475976807094E-15, 12.99999999999999822 ) ) ;
#27 = DIRECTION ( 'NONE',  ( 1.000000000000000000, 0.0000000000000000000, 0.0000000000000000000 ) ) ;
#28 = DIRECTION ( 'NONE',  ( 3.491481338843133355E-15, -0.0000000000000000000, 1.000000000000000000 ) ) ;
#29 = DIRECTION ( 'NONE',  ( 0.0000000000000000000, -1.000000000000000000, 0.0000000000000000000 ) ) ;
#30 = PRODUCT ( '997939', '997939', '', ( #213 ) ) ;
#31 = AXIS2_PLACEMENT_3D ( 'NONE', #157, #52, #120 ) ;
#32 = APPLICATION_PROTOCOL_DEFINITION ( 'international standard', 'config_control_design', 1994, #18 ) ;
#33 = AXIS2_PLACEMENT_3D ( 'NONE', #55, #239, #180 ) ;
#34 = DIRECTION ( 'NONE',  ( 3.491481338843133355E-15, -1.245781538759969447E-16, 1.000000000000000000 ) ) ;
#35 = PERSON_AND_ORGANIZATION ( #56, #92 ) ;
#36 = EDGE_CURVE ( 'NONE', #84, #84, #121, .T. ) ;
#37 = ADVANCED_BREP_SHAPE_REPRESENTATION ( '997939', ( #67, #222, #49 ), #19 ) ;
#38 = CARTESIAN_POINT ( 'NONE',  ( 1.745740669421567072E-15, 0.0000000000000000000, 0.5000000000000001110 ) ) ;
#39 = CC_DESIGN_APPROVAL ( #197, ( #145 ) ) ;
#40 = ADVANCED_FACE ( 'NONE', ( #14 ), #138, .F. ) ;
#41 = APPROVAL_ROLE ( '' ) ;
#42 = AXIS2_PLACEMENT_3D ( 'NONE', #150, #28, #50 ) ;
#43 = ORIENTED_EDGE ( 'NONE', *, *, #110, .F. ) ;
#44 = EDGE_LOOP ( 'NONE', ( #132 ) ) ;
#45 = CARTESIAN_POINT ( 'NONE',  ( 4.538925740496072731E-14, -1.619516000387959886E-15, 12.99999999999999822 ) ) ;
#46 = VERTEX_POINT ( 'NONE', #133 ) ;
#47 = DIRECTION ( 'NONE',  ( 0.0000000000000000000, 1.000000000000000000, 0.0000000000000000000 ) ) ;
#48 = CARTESIAN_POINT ( 'NONE',  ( 4.538925740496073362E-14, 2.249639673992783675E-32, 13.00000000000000000 ) ) ;
#49 = AXIS2_PLACEMENT_3D ( 'NONE', #232, #228, #27 ) ;
#50 = DIRECTION ( 'NONE',  ( 1.000000000000000000, 0.0000000000000000000, -3.491481338843133355E-15 ) ) ;
#51 = SECURITY_CLASSIFICATION_LEVEL ( 'unclassified' ) ;
#52 = DIRECTION ( 'NONE',  ( 3.491481338843133355E-15, -1.245781538759969447E-16, 1.000000000000000000 ) ) ;
#53 = CC_DESIGN_DATE_AND_TIME_ASSIGNMENT ( #206, #128, ( #98 ) ) ;
#54 = COORDINATED_UNIVERSAL_TIME_OFFSET ( 1, 0, .AHEAD. ) ;
#55 = CARTESIAN_POINT ( 'NONE',  ( 1.976178437785213605E-13, -6.931500883174019483E-15, 56.60000000000000142 ) ) ;
#56 = PERSON ( 'UNSPECIFIED', 'UNSPECIFIED', 'UNSPECIFIED', ('UNSPECIFIED'), ('UNSPECIFIED'), ('UNSPECIFIED') ) ;
#57 = PRODUCT_DEFINITION_FORMATION_WITH_SPECIFIED_SOURCE ( 'ANY', '', #30, .NOT_KNOWN. ) ;
#58 = APPROVAL_DATE_TIME ( #17, #127 ) ;
#59 = AXIS2_PLACEMENT_3D ( 'NONE', #45, #8, #29 ) ;
#60 = EDGE_LOOP ( 'NONE', ( #208 ) ) ;
#61 = FACE_OUTER_BOUND ( 'NONE', #112, .T. ) ;
#62 = DIRECTION ( 'NONE',  ( 3.491481338843133355E-15, -1.224646799147353207E-16, 1.000000000000000000 ) ) ;
#63 = CIRCLE ( 'NONE', #219, 2.500000000000000000 ) ;
#64 = CARTESIAN_POINT ( 'NONE',  ( 1.990144363140586139E-13, -6.980486755139912911E-15, 57.00000000000000000 ) ) ;
#65 = DIRECTION ( 'NONE',  ( 4.275831445896959482E-31, 1.000000000000000000, 1.224646799147353207E-16 ) ) ;
#66 = DIRECTION ( 'NONE',  ( -3.491481338843133355E-15, 1.224646799147353207E-16, -1.000000000000000000 ) ) ;
#67 = MANIFOLD_SOLID_BREP ( 'Corps-Déplacer/Copier1[1]', #11 ) ;
#68 = CC_DESIGN_APPROVAL ( #127, ( #98 ) ) ;
#69 = APPROVAL ( #13, 'UNSPECIFIED' ) ;
#70 = COORDINATED_UNIVERSAL_TIME_OFFSET ( 1, 0, .AHEAD. ) ;
#71 = DIRECTION ( 'NONE',  ( 1.000000000000000000, 0.0000000000000000000, -3.512815038853034366E-15 ) ) ;
#72 = EDGE_CURVE ( 'NONE', #134, #134, #63, .T. ) ;
#73 = PERSON_AND_ORGANIZATION_ROLE ( 'creator' ) ;
#74 = FACE_OUTER_BOUND ( 'NONE', #95, .T. ) ;
#75 = CIRCLE ( 'NONE', #59, 2.499999999999993339 ) ;
#76 = EDGE_CURVE ( 'NONE', #153, #153, #200, .T. ) ;
#77 = CALENDAR_DATE ( 2021, 18, 11 ) ;
#78 = EDGE_LOOP ( 'NONE', ( #79 ) ) ;
#79 = ORIENTED_EDGE ( 'NONE', *, *, #230, .F. ) ;
#80 = PLANE ( 'NONE',  #87 ) ;
#81 = CARTESIAN_POINT ( 'NONE',  ( 4.538925740496072731E-14, -2.499999999999995115, 12.99999999999999822 ) ) ;
#82 = FACE_OUTER_BOUND ( 'NONE', #44, .T. ) ;
#83 = CC_DESIGN_PERSON_AND_ORGANIZATION_ASSIGNMENT ( #158, #237, ( #57 ) ) ;
#84 = VERTEX_POINT ( 'NONE', #214 ) ;
#85 = ADVANCED_FACE ( 'NONE', ( #140 ), #218, .F. ) ;
#86 = DIRECTION ( 'NONE',  ( 0.0000000000000000000, 1.000000000000000000, 0.0000000000000000000 ) ) ;
#87 = AXIS2_PLACEMENT_3D ( 'NONE', #48, #62, #117 ) ;
#88 = PERSON_AND_ORGANIZATION ( #56, #92 ) ;
#89 = DIRECTION ( 'NONE',  ( 3.491481338843133355E-15, -1.224646799147353207E-16, 1.000000000000000000 ) ) ;
#90 = CALENDAR_DATE ( 2021, 18, 11 ) ;
#91 = DIRECTION ( 'NONE',  ( -3.491481338843133355E-15, 1.224646799147353207E-16, -1.000000000000000000 ) ) ;
#92 = ORGANIZATION ( 'UNSPECIFIED', 'UNSPECIFIED', '' ) ;
#93 = PRODUCT_RELATED_PRODUCT_CATEGORY ( 'detail', '', ( #30 ) ) ;
#94 = CC_DESIGN_PERSON_AND_ORGANIZATION_ASSIGNMENT ( #201, #73, ( #145 ) ) ;
#95 = EDGE_LOOP ( 'NONE', ( #113 ) ) ;
#96 = EDGE_LOOP ( 'NONE', ( #187 ) ) ;
#97 = PLANE ( 'NONE',  #130 ) ;
#98 = SECURITY_CLASSIFICATION ( '', '', #51 ) ;
#99 = DIRECTION ( 'NONE',  ( 3.491481338843133355E-15, -1.245781538759969447E-16, 1.000000000000000000 ) ) ;
#100 = EDGE_CURVE ( 'NONE', #189, #189, #182, .T. ) ;
#101 = CARTESIAN_POINT ( 'NONE',  ( 1.976178437785213605E-13, -6.931500883174019483E-15, 56.60000000000000142 ) ) ;
#102 = CYLINDRICAL_SURFACE ( 'NONE', #185, 3.000000000000000000 ) ;
#103 =( NAMED_UNIT ( * ) PLANE_ANGLE_UNIT ( ) SI_UNIT ( $, .RADIAN. ) );
#104 = PERSON_AND_ORGANIZATION_ROLE ( 'design_supplier' ) ;
#105 = PERSON_AND_ORGANIZATION_ROLE ( 'design_owner' ) ;
#106 = DIRECTION ( 'NONE',  ( -4.349622994855717495E-31, -1.000000000000000000, -1.245781538759969693E-16 ) ) ;
#107 = APPROVAL_DATE_TIME ( #179, #197 ) ;
#108 = DIRECTION ( 'NONE',  ( 3.491481338843133355E-15, -0.0000000000000000000, 1.000000000000000000 ) ) ;
#109 = CC_DESIGN_DATE_AND_TIME_ASSIGNMENT ( #156, #122, ( #145 ) ) ;
#110 = EDGE_CURVE ( 'NONE', #3, #3, #75, .T. ) ;
#111 = COORDINATED_UNIVERSAL_TIME_OFFSET ( 1, 0, .AHEAD. ) ;
#112 = EDGE_LOOP ( 'NONE', ( #188 ) ) ;
#113 = ORIENTED_EDGE ( 'NONE', *, *, #72, .T. ) ;
#114 = FACE_OUTER_BOUND ( 'NONE', #2, .T. ) ;
#115 = FACE_OUTER_BOUND ( 'NONE', #168, .T. ) ;
#116 = APPROVAL_PERSON_ORGANIZATION ( #235, #69, #10 ) ;
#117 = DIRECTION ( 'NONE',  ( -4.275831445896958607E-31, -1.000000000000000000, -1.224646799147353207E-16 ) ) ;
#118 = DIRECTION ( 'NONE',  ( 4.275831445896958607E-31, 1.000000000000000000, 1.224646799147353207E-16 ) ) ;
#119 = APPROVAL_STATUS ( 'not_yet_approved' ) ;
#120 = DIRECTION ( 'NONE',  ( 0.0000000000000000000, -1.000000000000000000, 0.0000000000000000000 ) ) ;
#121 = CIRCLE ( 'NONE', #33, 3.000000000000000000 ) ;
#122 = DATE_TIME_ROLE ( 'creation_date' ) ;
#123 = CARTESIAN_POINT ( 'NONE',  ( 4.538925740496073362E-14, 2.249639673992783675E-32, 13.00000000000000000 ) ) ;
#124 = CIRCLE ( 'NONE', #142, 2.600000000000000089 ) ;
#125 = ORIENTED_EDGE ( 'NONE', *, *, #76, .F. ) ;
#126 = LOCAL_TIME ( 9, 56, 56.00000000000000000, #186 ) ;
#127 = APPROVAL ( #21, 'UNSPECIFIED' ) ;
#128 = DATE_TIME_ROLE ( 'classification_date' ) ;
#129 = EDGE_LOOP ( 'NONE', ( #22 ) ) ;
#130 = AXIS2_PLACEMENT_3D ( 'NONE', #172, #170, #118 ) ;
#131 = ORIENTED_EDGE ( 'NONE', *, *, #72, .F. ) ;
#132 = ORIENTED_EDGE ( 'NONE', *, *, #147, .T. ) ;
#133 = CARTESIAN_POINT ( 'NONE',  ( 1.990144363140586139E-13, 2.599999999999992983, 57.00000000000000000 ) ) ;
#134 = VERTEX_POINT ( 'NONE', #195 ) ;
#135 = DIRECTION ( 'NONE',  ( 0.0000000000000000000, 1.000000000000000000, 0.0000000000000000000 ) ) ;
#136 = LOCAL_TIME ( 9, 56, 56.00000000000000000, #111 ) ;
#137 = DATE_AND_TIME ( #90, #15 ) ;
#138 = PLANE ( 'NONE',  #162 ) ;
#139 = APPROVAL_DATE_TIME ( #137, #69 ) ;
#140 = FACE_OUTER_BOUND ( 'NONE', #225, .T. ) ;
#141 = ADVANCED_FACE ( 'NONE', ( #149, #82 ), #102, .T. ) ;
#142 = AXIS2_PLACEMENT_3D ( 'NONE', #64, #66, #47 ) ;
#143 = AXIS2_PLACEMENT_3D ( 'NONE', #181, #34, #106 ) ;
#144 = LOCAL_TIME ( 9, 56, 56.00000000000000000, #176 ) ;
#145 = PRODUCT_DEFINITION ( 'UNKNOWN', '', #57, #163 ) ;
#146 = EDGE_LOOP ( 'NONE', ( #1 ) ) ;
#147 = EDGE_CURVE ( 'NONE', #229, #229, #161, .T. ) ;
#148 = ORIENTED_EDGE ( 'NONE', *, *, #36, .F. ) ;
#149 = FACE_OUTER_BOUND ( 'NONE', #129, .T. ) ;
#150 = CARTESIAN_POINT ( 'NONE',  ( 1.745740669421566678E-15, 0.0000000000000000000, 0.5000000000000000000 ) ) ;
#151 = AXIS2_PLACEMENT_3D ( 'NONE', #123, #89, #236 ) ;
#152 = CARTESIAN_POINT ( 'NONE',  ( 0.0000000000000000000, 0.0000000000000000000, 0.0000000000000000000 ) ) ;
#153 = VERTEX_POINT ( 'NONE', #233 ) ;
#154 = AXIS2_PLACEMENT_3D ( 'NONE', #192, #99, #86 ) ;
#155 =( LENGTH_UNIT ( ) NAMED_UNIT ( * ) SI_UNIT ( .MILLI., .METRE. ) );
#156 = DATE_AND_TIME ( #215, #144 ) ;
#157 = CARTESIAN_POINT ( 'NONE',  ( 4.538925740496072731E-14, -1.619516000387959886E-15, 12.99999999999999822 ) ) ;
#158 = PERSON_AND_ORGANIZATION ( #56, #92 ) ;
#159 = DIRECTION ( 'NONE',  ( 3.491481338843133355E-15, -0.0000000000000000000, 1.000000000000000000 ) ) ;
#160 = APPROVAL_PERSON_ORGANIZATION ( #88, #197, #217 ) ;
#161 = CIRCLE ( 'NONE', #154, 3.000000000000000000 ) ;
#162 = AXIS2_PLACEMENT_3D ( 'NONE', #177, #91, #12 ) ;
#163 = DESIGN_CONTEXT ( 'detailed design', #18, 'design' ) ;
#164 = PERSON_AND_ORGANIZATION ( #56, #92 ) ;
#165 = ADVANCED_FACE ( 'NONE', ( #114, #190 ), #234, .F. ) ;
#166 = CC_DESIGN_APPROVAL ( #69, ( #57 ) ) ;
#167 = PERSON_AND_ORGANIZATION_ROLE ( 'classification_officer' ) ;
#168 = EDGE_LOOP ( 'NONE', ( #148 ) ) ;
#169 = ORIENTED_EDGE ( 'NONE', *, *, #147, .F. ) ;
#170 = DIRECTION ( 'NONE',  ( -3.491481338843133355E-15, 1.224646799147353207E-16, -1.000000000000000000 ) ) ;
#171 = FACE_OUTER_BOUND ( 'NONE', #96, .T. ) ;
#172 = CARTESIAN_POINT ( 'NONE',  ( -6.413747168845438786E-31, 2.249639673992786412E-32, -1.836970198721029934E-16 ) ) ;
#173 = FACE_OUTER_BOUND ( 'NONE', #146, .T. ) ;
#174 = PERSON_AND_ORGANIZATION ( #56, #92 ) ;
#175 = ADVANCED_FACE ( 'NONE', ( #171 ), #80, .T. ) ;
#176 = COORDINATED_UNIVERSAL_TIME_OFFSET ( 1, 0, .AHEAD. ) ;
#177 = CARTESIAN_POINT ( 'NONE',  ( 1.990144363140586139E-13, 1.949687717460404490E-32, 57.00000000000000000 ) ) ;
#178 = CLOSED_SHELL ( 'NONE', ( #24, #175, #183, #242 ) ) ;
#179 = DATE_AND_TIME ( #198, #224 ) ;
#180 = DIRECTION ( 'NONE',  ( 0.0000000000000000000, 1.000000000000000000, 0.0000000000000000000 ) ) ;
#181 = CARTESIAN_POINT ( 'NONE',  ( -6.413747168845438786E-31, 0.0000000000000000000, -1.836970198721029934E-16 ) ) ;
#182 = CIRCLE ( 'NONE', #31, 2.499999999999993339 ) ;
#183 = ADVANCED_FACE ( 'NONE', ( #173, #227 ), #220, .T. ) ;
#184 = CALENDAR_DATE ( 2021, 18, 11 ) ;
#185 = AXIS2_PLACEMENT_3D ( 'NONE', #152, #231, #65 ) ;
#186 = COORDINATED_UNIVERSAL_TIME_OFFSET ( 1, 0, .AHEAD. ) ;
#187 = ORIENTED_EDGE ( 'NONE', *, *, #100, .T. ) ;
#188 = ORIENTED_EDGE ( 'NONE', *, *, #100, .F. ) ;
#189 = VERTEX_POINT ( 'NONE', #25 ) ;
#190 = FACE_OUTER_BOUND ( 'NONE', #60, .T. ) ;
#191 = FACE_OUTER_BOUND ( 'NONE', #226, .T. ) ;
#192 = CARTESIAN_POINT ( 'NONE',  ( 5.510913009090920497E-14, -2.081534378745774391E-15, 15.78388218141502364 ) ) ;
#193 =( NAMED_UNIT ( * ) SI_UNIT ( $, .STERADIAN. ) SOLID_ANGLE_UNIT ( ) );
#194 = CC_DESIGN_PERSON_AND_ORGANIZATION_ASSIGNMENT ( #174, #105, ( #30 ) ) ;
#195 = CARTESIAN_POINT ( 'NONE',  ( 2.500000000000001776, 0.0000000000000000000, 0.4999999999999913403 ) ) ;
#196 = CONICAL_SURFACE ( 'NONE', #207, 3.000000000000000000, 0.7853981633974516097 ) ;
#197 = APPROVAL ( #119, 'UNSPECIFIED' ) ;
#198 = CALENDAR_DATE ( 2021, 18, 11 ) ;
#199 = CYLINDRICAL_SURFACE ( 'NONE', #143, 2.499999999999992895 ) ;
#200 = CIRCLE ( 'NONE', #16, 2.000000000000000000 ) ;
#201 = PERSON_AND_ORGANIZATION ( #56, #92 ) ;
#202 = DIRECTION ( 'NONE',  ( 1.000000000000000000, 0.0000000000000000000, -3.491481338843133355E-15 ) ) ;
#203 = CC_DESIGN_SECURITY_CLASSIFICATION ( #98, ( #57 ) ) ;
#204 = EDGE_LOOP ( 'NONE', ( #131 ) ) ;
#205 = SHAPE_DEFINITION_REPRESENTATION ( #9, #37 ) ;
#206 = DATE_AND_TIME ( #77, #136 ) ;
#207 = AXIS2_PLACEMENT_3D ( 'NONE', #101, #6, #135 ) ;
#208 = ORIENTED_EDGE ( 'NONE', *, *, #110, .T. ) ;
#209 = EDGE_LOOP ( 'NONE', ( #23 ) ) ;
#210 = CARTESIAN_POINT ( 'NONE',  ( 5.510913009090920497E-14, 2.999999999999997780, 15.78388218141502364 ) ) ;
#211 = FACE_BOUND ( 'NONE', #209, .T. ) ;
#212 = DIRECTION ( 'NONE',  ( -4.407039847619520917E-31, -1.000000000000000000, -1.245781538759969447E-16 ) ) ;
#213 = MECHANICAL_CONTEXT ( 'NONE', #7, 'mechanical' ) ;
#214 = CARTESIAN_POINT ( 'NONE',  ( 1.976178437785213605E-13, 2.999999999999993339, 56.60000000000000142 ) ) ;
#215 = CALENDAR_DATE ( 2021, 18, 11 ) ;
#216 = CARTESIAN_POINT ( 'NONE',  ( 0.0000000000000000000, 0.0000000000000000000, 0.0000000000000000000 ) ) ;
#217 = APPROVAL_ROLE ( '' ) ;
#218 = PLANE ( 'NONE',  #151 ) ;
#219 = AXIS2_PLACEMENT_3D ( 'NONE', #38, #108, #71 ) ;
#220 = TOROIDAL_SURFACE ( 'NONE', #42, 2.000000000000000000, 0.5000000000000000000 ) ;
#221 = CC_DESIGN_PERSON_AND_ORGANIZATION_ASSIGNMENT ( #164, #167, ( #98 ) ) ;
#222 = MANIFOLD_SOLID_BREP ( 'Corps-Déplacer/Copier1[2]', #178 ) ;
#223 = UNCERTAINTY_MEASURE_WITH_UNIT (LENGTH_MEASURE( 1.000000000000000082E-05 ), #155, 'distance_accuracy_value', 'NONE');
#224 = LOCAL_TIME ( 9, 56, 56.00000000000000000, #54 ) ;
#225 = EDGE_LOOP ( 'NONE', ( #43 ) ) ;
#226 = EDGE_LOOP ( 'NONE', ( #125 ) ) ;
#227 = FACE_OUTER_BOUND ( 'NONE', #204, .T. ) ;
#228 = DIRECTION ( 'NONE',  ( 0.0000000000000000000, 0.0000000000000000000, 1.000000000000000000 ) ) ;
#229 = VERTEX_POINT ( 'NONE', #210 ) ;
#230 = EDGE_CURVE ( 'NONE', #46, #46, #124, .T. ) ;
#231 = DIRECTION ( 'NONE',  ( -3.491481338843133355E-15, 1.224646799147353207E-16, -1.000000000000000000 ) ) ;
#232 = CARTESIAN_POINT ( 'NONE',  ( 0.0000000000000000000, 0.0000000000000000000, 0.0000000000000000000 ) ) ;
#233 = CARTESIAN_POINT ( 'NONE',  ( 2.000000000000000000, 0.0000000000000000000, -6.982962677686266711E-15 ) ) ;
#234 = TOROIDAL_SURFACE ( 'NONE', #241, 10.49999999999999289, 8.000000000000000000 ) ;
#235 = PERSON_AND_ORGANIZATION ( #56, #92 ) ;
#236 = DIRECTION ( 'NONE',  ( -4.275831445896958607E-31, -1.000000000000000000, -1.224646799147353207E-16 ) ) ;
#237 = PERSON_AND_ORGANIZATION_ROLE ( 'creator' ) ;
#238 = APPROVAL_PERSON_ORGANIZATION ( #243, #127, #41 ) ;
#239 = DIRECTION ( 'NONE',  ( -3.491481338843133355E-15, 1.224646799147353207E-16, -1.000000000000000000 ) ) ;
#240 = ADVANCED_FACE ( 'NONE', ( #211, #115 ), #196, .T. ) ;
#241 = AXIS2_PLACEMENT_3D ( 'NONE', #26, #4, #212 ) ;
#242 = ADVANCED_FACE ( 'NONE', ( #191 ), #97, .T. ) ;
#243 = PERSON_AND_ORGANIZATION ( #56, #92 ) ;
ENDSEC;
END-ISO-10303-21;
