ISO-10303-21;
HEADER;
FILE_DESCRIPTION (( 'STEP AP203' ),
    '1' );
FILE_NAME ('997938.step',
    '2021-11-18T08:56:55',
    ( '' ),
    ( '' ),
    'SwSTEP 2.0',
    'SolidWorks 2019',
    '' );
FILE_SCHEMA (( 'CONFIG_CONTROL_DESIGN' ));
ENDSEC;

DATA;
#1 = ORIENTED_EDGE ( 'NONE', *, *, #231, .F. ) ;
#2 = CC_DESIGN_PERSON_AND_ORGANIZATION_ASSIGNMENT ( #106, #74, ( #160 ) ) ;
#3 = APPROVAL_PERSON_ORGANIZATION ( #91, #105, #210 ) ;
#4 = CARTESIAN_POINT ( 'NONE',  ( 3.840629472727446060E-14, -1.734723475976807094E-15, 10.99999999999999822 ) ) ;
#5 = CC_DESIGN_PERSON_AND_ORGANIZATION_ASSIGNMENT ( #40, #176, ( #100 ) ) ;
#6 = AXIS2_PLACEMENT_3D ( 'NONE', #230, #193, #25 ) ;
#7 = FACE_OUTER_BOUND ( 'NONE', #166, .T. ) ;
#8 = AXIS2_PLACEMENT_3D ( 'NONE', #169, #88, #243 ) ;
#9 = AXIS2_PLACEMENT_3D ( 'NONE', #59, #26, #216 ) ;
#10 = ORIENTED_EDGE ( 'NONE', *, *, #67, .F. ) ;
#11 = EDGE_LOOP ( 'NONE', ( #37 ) ) ;
#12 = CARTESIAN_POINT ( 'NONE',  ( 1.500000000000000000, 0.0000000000000000000, -5.237222008264700033E-15 ) ) ;
#13 = ORIENTED_EDGE ( 'NONE', *, *, #192, .F. ) ;
#14 = CC_DESIGN_PERSON_AND_ORGANIZATION_ASSIGNMENT ( #137, #55, ( #125 ) ) ;
#15 = FACE_OUTER_BOUND ( 'NONE', #187, .T. ) ;
#16 = PLANE ( 'NONE',  #8 ) ;
#17 = EDGE_LOOP ( 'NONE', ( #1 ) ) ;
#18 = CARTESIAN_POINT ( 'NONE',  ( -6.413747168845438786E-31, 2.249639673992786412E-32, -1.836970198721029934E-16 ) ) ;
#19 = CIRCLE ( 'NONE', #94, 3.000000000000000000 ) ;
#20 = LOCAL_TIME ( 9, 56, 55.00000000000000000, #103 ) ;
#21 = CALENDAR_DATE ( 2021, 18, 11 ) ;
#22 = CARTESIAN_POINT ( 'NONE',  ( 1.745740669421567072E-15, 0.0000000000000000000, 0.5000000000000001110 ) ) ;
#23 = CALENDAR_DATE ( 2021, 18, 11 ) ;
#24 = CIRCLE ( 'NONE', #189, 1.999999999999992673 ) ;
#25 = DIRECTION ( 'NONE',  ( 0.0000000000000000000, -1.000000000000000000, 0.0000000000000000000 ) ) ;
#26 = DIRECTION ( 'NONE',  ( -3.491481338843133355E-15, 1.224646799147353207E-16, -1.000000000000000000 ) ) ;
#27 = ADVANCED_FACE ( 'NONE', ( #52 ), #185, .F. ) ;
#28 = TOROIDAL_SURFACE ( 'NONE', #159, 9.999999999999992895, 8.000000000000000000 ) ;
#29 = AXIS2_PLACEMENT_3D ( 'NONE', #217, #76, #157 ) ;
#30 = CALENDAR_DATE ( 2021, 18, 11 ) ;
#31 = PRODUCT_RELATED_PRODUCT_CATEGORY ( 'detail', '', ( #125 ) ) ;
#32 = VERTEX_POINT ( 'NONE', #85 ) ;
#33 = CC_DESIGN_APPROVAL ( #105, ( #100 ) ) ;
#34 = EDGE_LOOP ( 'NONE', ( #164 ) ) ;
#35 = FACE_OUTER_BOUND ( 'NONE', #17, .T. ) ;
#36 = ADVANCED_BREP_SHAPE_REPRESENTATION ( '997938', ( #223, #143, #236 ), #180 ) ;
#37 = ORIENTED_EDGE ( 'NONE', *, *, #97, .F. ) ;
#38 = FACE_BOUND ( 'NONE', #182, .T. ) ;
#39 = CIRCLE ( 'NONE', #83, 2.000000000000000000 ) ;
#40 = PERSON_AND_ORGANIZATION ( #225, #128 ) ;
#41 = DATE_AND_TIME ( #92, #96 ) ;
#42 = FACE_OUTER_BOUND ( 'NONE', #142, .T. ) ;
#43 = ADVANCED_FACE ( 'NONE', ( #15, #68 ), #242, .T. ) ;
#44 = CARTESIAN_POINT ( 'NONE',  ( 3.840629472727446060E-14, -1.999999999999994005, 10.99999999999999822 ) ) ;
#45 = FACE_OUTER_BOUND ( 'NONE', #205, .T. ) ;
#46 = CIRCLE ( 'NONE', #204, 1.500000000000000000 ) ;
#47 = PERSON_AND_ORGANIZATION ( #225, #128 ) ;
#48 = MECHANICAL_CONTEXT ( 'NONE', #227, 'mechanical' ) ;
#49 = APPROVAL ( #200, 'UNSPECIFIED' ) ;
#50 = APPROVAL_PERSON_ORGANIZATION ( #98, #49, #181 ) ;
#51 = DIRECTION ( 'NONE',  ( 0.0000000000000000000, 1.000000000000000000, 0.0000000000000000000 ) ) ;
#52 = FACE_OUTER_BOUND ( 'NONE', #124, .T. ) ;
#53 = CARTESIAN_POINT ( 'NONE',  ( 0.0000000000000000000, 0.0000000000000000000, 0.0000000000000000000 ) ) ;
#54 = FACE_OUTER_BOUND ( 'NONE', #239, .T. ) ;
#55 = PERSON_AND_ORGANIZATION_ROLE ( 'design_owner' ) ;
#56 = DIRECTION ( 'NONE',  ( 0.0000000000000000000, 0.0000000000000000000, 1.000000000000000000 ) ) ;
#57 = APPLICATION_PROTOCOL_DEFINITION ( 'international standard', 'config_control_design', 1994, #135 ) ;
#58 = SHAPE_DEFINITION_REPRESENTATION ( #66, #36 ) ;
#59 = CARTESIAN_POINT ( 'NONE',  ( 1.976178437785213605E-13, -6.931500883174019483E-15, 56.60000000000000142 ) ) ;
#60 = COORDINATED_UNIVERSAL_TIME_OFFSET ( 1, 0, .AHEAD. ) ;
#61 = DIRECTION ( 'NONE',  ( 0.0000000000000000000, 1.000000000000000000, 0.0000000000000000000 ) ) ;
#62 = CLOSED_SHELL ( 'NONE', ( #43, #127, #174, #168 ) ) ;
#63 = VERTEX_POINT ( 'NONE', #12 ) ;
#64 = APPROVAL_DATE_TIME ( #237, #49 ) ;
#65 = CONICAL_SURFACE ( 'NONE', #118, 3.000000000000000000, 0.7853981633974516097 ) ;
#66 = PRODUCT_DEFINITION_SHAPE ( 'NONE', 'NONE',  #228 ) ;
#67 = EDGE_CURVE ( 'NONE', #233, #233, #24, .T. ) ;
#68 = FACE_OUTER_BOUND ( 'NONE', #34, .T. ) ;
#69 = LOCAL_TIME ( 9, 56, 55.00000000000000000, #60 ) ;
#70 = CYLINDRICAL_SURFACE ( 'NONE', #108, 3.000000000000000000 ) ;
#71 = PERSON_AND_ORGANIZATION_ROLE ( 'creator' ) ;
#72 = LOCAL_TIME ( 9, 56, 55.00000000000000000, #191 ) ;
#73 = DIRECTION ( 'NONE',  ( 3.491481338843133355E-15, -0.0000000000000000000, 1.000000000000000000 ) ) ;
#74 = PERSON_AND_ORGANIZATION_ROLE ( 'design_supplier' ) ;
#75 = FACE_OUTER_BOUND ( 'NONE', #206, .T. ) ;
#76 = DIRECTION ( 'NONE',  ( 3.491481338843133355E-15, -1.224646799147353207E-16, 1.000000000000000000 ) ) ;
#77 = VERTEX_POINT ( 'NONE', #201 ) ;
#78 = LOCAL_TIME ( 9, 56, 55.00000000000000000, #162 ) ;
#79 =( LENGTH_UNIT ( ) NAMED_UNIT ( * ) SI_UNIT ( .MILLI., .METRE. ) );
#80 = ORIENTED_EDGE ( 'NONE', *, *, #104, .T. ) ;
#81 = VERTEX_POINT ( 'NONE', #107 ) ;
#82 = ORIENTED_EDGE ( 'NONE', *, *, #231, .T. ) ;
#83 = AXIS2_PLACEMENT_3D ( 'NONE', #22, #179, #120 ) ;
#84 = ADVANCED_FACE ( 'NONE', ( #38, #35 ), #65, .T. ) ;
#85 = CARTESIAN_POINT ( 'NONE',  ( 3.840629472727446060E-14, -1.999999999999994005, 10.99999999999999822 ) ) ;
#86 = CARTESIAN_POINT ( 'NONE',  ( 1.976178437785213605E-13, -6.931500883174019483E-15, 56.60000000000000142 ) ) ;
#87 = DIRECTION ( 'NONE',  ( 3.491481338843133355E-15, -1.245781538759969447E-16, 1.000000000000000000 ) ) ;
#88 = DIRECTION ( 'NONE',  ( 3.491481338843133355E-15, -1.224646799147353207E-16, 1.000000000000000000 ) ) ;
#89 = DIRECTION ( 'NONE',  ( -3.491481338843133355E-15, 1.224646799147353207E-16, -1.000000000000000000 ) ) ;
#90 = CC_DESIGN_PERSON_AND_ORGANIZATION_ASSIGNMENT ( #220, #121, ( #228 ) ) ;
#91 = PERSON_AND_ORGANIZATION ( #225, #128 ) ;
#92 = CALENDAR_DATE ( 2021, 18, 11 ) ;
#93 = FACE_OUTER_BOUND ( 'NONE', #148, .T. ) ;
#94 = AXIS2_PLACEMENT_3D ( 'NONE', #151, #209, #170 ) ;
#95 = PLANE ( 'NONE',  #29 ) ;
#96 = LOCAL_TIME ( 9, 56, 55.00000000000000000, #173 ) ;
#97 = EDGE_CURVE ( 'NONE', #63, #63, #46, .T. ) ;
#98 = PERSON_AND_ORGANIZATION ( #225, #128 ) ;
#99 = CLOSED_SHELL ( 'NONE', ( #147, #84, #27, #186, #238 ) ) ;
#100 = SECURITY_CLASSIFICATION ( '', '', #133 ) ;
#101 = ORIENTED_EDGE ( 'NONE', *, *, #67, .T. ) ;
#102 = VERTEX_POINT ( 'NONE', #198 ) ;
#103 = COORDINATED_UNIVERSAL_TIME_OFFSET ( 1, 0, .AHEAD. ) ;
#104 = EDGE_CURVE ( 'NONE', #183, #183, #19, .T. ) ;
#105 = APPROVAL ( #115, 'UNSPECIFIED' ) ;
#106 = PERSON_AND_ORGANIZATION ( #225, #128 ) ;
#107 = CARTESIAN_POINT ( 'NONE',  ( 1.976178437785213605E-13, 2.999999999999993339, 56.60000000000000142 ) ) ;
#108 = AXIS2_PLACEMENT_3D ( 'NONE', #53, #113, #132 ) ;
#109 = DIRECTION ( 'NONE',  ( -4.349622994855717495E-31, -1.000000000000000000, -1.245781538759969693E-16 ) ) ;
#110 = CARTESIAN_POINT ( 'NONE',  ( 1.990144363140586139E-13, 1.949687717460404490E-32, 57.00000000000000000 ) ) ;
#111 = CARTESIAN_POINT ( 'NONE',  ( 0.0000000000000000000, 0.0000000000000000000, 0.0000000000000000000 ) ) ;
#112 = ORIENTED_EDGE ( 'NONE', *, *, #97, .T. ) ;
#113 = DIRECTION ( 'NONE',  ( -3.491481338843133355E-15, 1.224646799147353207E-16, -1.000000000000000000 ) ) ;
#114 = PLANE ( 'NONE',  #208 ) ;
#115 = APPROVAL_STATUS ( 'not_yet_approved' ) ;
#116 = FACE_OUTER_BOUND ( 'NONE', #163, .T. ) ;
#117 = FACE_OUTER_BOUND ( 'NONE', #11, .T. ) ;
#118 = AXIS2_PLACEMENT_3D ( 'NONE', #86, #240, #51 ) ;
#119 = CC_DESIGN_APPROVAL ( #49, ( #160 ) ) ;
#120 = DIRECTION ( 'NONE',  ( 1.000000000000000000, 0.0000000000000000000, -3.469446951953614189E-15 ) ) ;
#121 = PERSON_AND_ORGANIZATION_ROLE ( 'creator' ) ;
#122 =( NAMED_UNIT ( * ) SI_UNIT ( $, .STERADIAN. ) SOLID_ANGLE_UNIT ( ) );
#123 = CC_DESIGN_PERSON_AND_ORGANIZATION_ASSIGNMENT ( #47, #71, ( #160 ) ) ;
#124 = EDGE_LOOP ( 'NONE', ( #144 ) ) ;
#125 = PRODUCT ( '997938', '997938', '', ( #48 ) ) ;
#126 = APPLICATION_PROTOCOL_DEFINITION ( 'international standard', 'config_control_design', 1994, #227 ) ;
#127 = ADVANCED_FACE ( 'NONE', ( #116 ), #16, .T. ) ;
#128 = ORGANIZATION ( 'UNSPECIFIED', 'UNSPECIFIED', '' ) ;
#129 = CC_DESIGN_DATE_AND_TIME_ASSIGNMENT ( #224, #152, ( #100 ) ) ;
#130 = DIRECTION ( 'NONE',  ( 4.275831445896958607E-31, 1.000000000000000000, 1.224646799147353207E-16 ) ) ;
#131 = CARTESIAN_POINT ( 'NONE',  ( -6.413747168845438786E-31, 0.0000000000000000000, -1.836970198721029934E-16 ) ) ;
#132 = DIRECTION ( 'NONE',  ( 4.275831445896959482E-31, 1.000000000000000000, 1.224646799147353207E-16 ) ) ;
#133 = SECURITY_CLASSIFICATION_LEVEL ( 'unclassified' ) ;
#134 = APPROVAL_ROLE ( '' ) ;
#135 = APPLICATION_CONTEXT ( 'configuration controlled 3d designs of mechanical parts and assemblies' ) ;
#136 = DIRECTION ( 'NONE',  ( -3.491481338843133355E-15, 1.224646799147353207E-16, -1.000000000000000000 ) ) ;
#137 = PERSON_AND_ORGANIZATION ( #225, #128 ) ;
#138 = DIRECTION ( 'NONE',  ( -4.408634760196294281E-31, -1.000000000000000000, -1.245781538759969447E-16 ) ) ;
#139 = AXIS2_PLACEMENT_3D ( 'NONE', #235, #172, #61 ) ;
#140 = DESIGN_CONTEXT ( 'detailed design', #135, 'design' ) ;
#141 = CALENDAR_DATE ( 2021, 18, 11 ) ;
#142 = EDGE_LOOP ( 'NONE', ( #112 ) ) ;
#143 = MANIFOLD_SOLID_BREP ( 'Corps-Déplacer/Copier1[2]', #62 ) ;
#144 = ORIENTED_EDGE ( 'NONE', *, *, #199, .F. ) ;
#145 = CIRCLE ( 'NONE', #9, 3.000000000000000000 ) ;
#146 = AXIS2_PLACEMENT_3D ( 'NONE', #196, #175, #158 ) ;
#147 = ADVANCED_FACE ( 'NONE', ( #153, #54 ), #70, .T. ) ;
#148 = EDGE_LOOP ( 'NONE', ( #13 ) ) ;
#149 = DIRECTION ( 'NONE',  ( 1.000000000000000000, 0.0000000000000000000, -3.491481338843133355E-15 ) ) ;
#150 = CARTESIAN_POINT ( 'NONE',  ( 3.840629472727446060E-14, -1.370359692635966194E-15, 10.99999999999999822 ) ) ;
#151 = CARTESIAN_POINT ( 'NONE',  ( 5.192874380620793607E-14, -2.217212591239809611E-15, 14.87298334620742679 ) ) ;
#152 = DATE_TIME_ROLE ( 'classification_date' ) ;
#153 = FACE_OUTER_BOUND ( 'NONE', #167, .T. ) ;
#154 = PERSON_AND_ORGANIZATION ( #225, #128 ) ;
#155 = CC_DESIGN_DATE_AND_TIME_ASSIGNMENT ( #195, #197, ( #228 ) ) ;
#156 = DIRECTION ( 'NONE',  ( 3.491481338843133355E-15, -1.245781538759969447E-16, 1.000000000000000000 ) ) ;
#157 = DIRECTION ( 'NONE',  ( -4.275831445896958607E-31, -1.000000000000000000, -1.224646799147353207E-16 ) ) ;
#158 = DIRECTION ( 'NONE',  ( 1.000000000000000000, 0.0000000000000000000, -3.491481338843133355E-15 ) ) ;
#159 = AXIS2_PLACEMENT_3D ( 'NONE', #4, #156, #138 ) ;
#160 = PRODUCT_DEFINITION_FORMATION_WITH_SPECIFIED_SOURCE ( 'ANY', '', #125, .NOT_KNOWN. ) ;
#161 =( NAMED_UNIT ( * ) PLANE_ANGLE_UNIT ( ) SI_UNIT ( $, .RADIAN. ) );
#162 = COORDINATED_UNIVERSAL_TIME_OFFSET ( 1, 0, .AHEAD. ) ;
#163 = EDGE_LOOP ( 'NONE', ( #218 ) ) ;
#164 = ORIENTED_EDGE ( 'NONE', *, *, #192, .T. ) ;
#165 = ORIENTED_EDGE ( 'NONE', *, *, #213, .F. ) ;
#166 = EDGE_LOOP ( 'NONE', ( #10 ) ) ;
#167 = EDGE_LOOP ( 'NONE', ( #82 ) ) ;
#168 = ADVANCED_FACE ( 'NONE', ( #117 ), #114, .T. ) ;
#169 = CARTESIAN_POINT ( 'NONE',  ( 3.840629472727446691E-14, 2.249639673992784496E-32, 11.00000000000000000 ) ) ;
#170 = DIRECTION ( 'NONE',  ( 0.0000000000000000000, 1.000000000000000000, 0.0000000000000000000 ) ) ;
#171 = AXIS2_PLACEMENT_3D ( 'NONE', #110, #89, #130 ) ;
#172 = DIRECTION ( 'NONE',  ( -3.491481338843133355E-15, 1.224646799147353207E-16, -1.000000000000000000 ) ) ;
#173 = COORDINATED_UNIVERSAL_TIME_OFFSET ( 1, 0, .AHEAD. ) ;
#174 = ADVANCED_FACE ( 'NONE', ( #42, #93 ), #194, .T. ) ;
#175 = DIRECTION ( 'NONE',  ( 3.491481338843133355E-15, -0.0000000000000000000, 1.000000000000000000 ) ) ;
#176 = PERSON_AND_ORGANIZATION_ROLE ( 'classification_officer' ) ;
#177 = APPROVAL_STATUS ( 'not_yet_approved' ) ;
#178 = APPROVAL ( #177, 'UNSPECIFIED' ) ;
#179 = DIRECTION ( 'NONE',  ( 3.491481338843133355E-15, -0.0000000000000000000, 1.000000000000000000 ) ) ;
#180 =( GEOMETRIC_REPRESENTATION_CONTEXT ( 3 ) GLOBAL_UNCERTAINTY_ASSIGNED_CONTEXT ( ( #234 ) ) GLOBAL_UNIT_ASSIGNED_CONTEXT ( ( #79, #161, #122 ) ) REPRESENTATION_CONTEXT ( 'NONE', 'WORKASPACE' ) );
#181 = APPROVAL_ROLE ( '' ) ;
#182 = EDGE_LOOP ( 'NONE', ( #202 ) ) ;
#183 = VERTEX_POINT ( 'NONE', #203 ) ;
#184 = ORIENTED_EDGE ( 'NONE', *, *, #104, .F. ) ;
#185 = PLANE ( 'NONE',  #171 ) ;
#186 = ADVANCED_FACE ( 'NONE', ( #45, #75 ), #28, .F. ) ;
#187 = EDGE_LOOP ( 'NONE', ( #165 ) ) ;
#188 = APPROVAL_DATE_TIME ( #41, #105 ) ;
#189 = AXIS2_PLACEMENT_3D ( 'NONE', #150, #222, #207 ) ;
#190 = APPROVAL_PERSON_ORGANIZATION ( #154, #178, #134 ) ;
#191 = COORDINATED_UNIVERSAL_TIME_OFFSET ( 1, 0, .AHEAD. ) ;
#192 = EDGE_CURVE ( 'NONE', #102, #102, #39, .T. ) ;
#193 = DIRECTION ( 'NONE',  ( 3.491481338843133355E-15, -1.245781538759969447E-16, 1.000000000000000000 ) ) ;
#194 = TOROIDAL_SURFACE ( 'NONE', #146, 1.500000000000000000, 0.5000000000000000000 ) ;
#195 = DATE_AND_TIME ( #141, #20 ) ;
#196 = CARTESIAN_POINT ( 'NONE',  ( 1.745740669421566678E-15, 0.0000000000000000000, 0.5000000000000000000 ) ) ;
#197 = DATE_TIME_ROLE ( 'creation_date' ) ;
#198 = CARTESIAN_POINT ( 'NONE',  ( 2.000000000000001776, 0.0000000000000000000, 0.4999999999999931721 ) ) ;
#199 = EDGE_CURVE ( 'NONE', #77, #77, #226, .T. ) ;
#200 = APPROVAL_STATUS ( 'not_yet_approved' ) ;
#201 = CARTESIAN_POINT ( 'NONE',  ( 1.990144363140586139E-13, 2.599999999999992983, 57.00000000000000000 ) ) ;
#202 = ORIENTED_EDGE ( 'NONE', *, *, #199, .T. ) ;
#203 = CARTESIAN_POINT ( 'NONE',  ( 5.192874380620793607E-14, 2.999999999999997780, 14.87298334620742679 ) ) ;
#204 = AXIS2_PLACEMENT_3D ( 'NONE', #111, #73, #149 ) ;
#205 = EDGE_LOOP ( 'NONE', ( #184 ) ) ;
#206 = EDGE_LOOP ( 'NONE', ( #101 ) ) ;
#207 = DIRECTION ( 'NONE',  ( 0.0000000000000000000, -1.000000000000000000, 0.0000000000000000000 ) ) ;
#208 = AXIS2_PLACEMENT_3D ( 'NONE', #18, #136, #214 ) ;
#209 = DIRECTION ( 'NONE',  ( 3.491481338843133355E-15, -1.245781538759969447E-16, 1.000000000000000000 ) ) ;
#210 = APPROVAL_ROLE ( '' ) ;
#211 = APPROVAL_DATE_TIME ( #232, #178 ) ;
#212 = DIRECTION ( 'NONE',  ( 1.000000000000000000, 0.0000000000000000000, 0.0000000000000000000 ) ) ;
#213 = EDGE_CURVE ( 'NONE', #32, #32, #219, .T. ) ;
#214 = DIRECTION ( 'NONE',  ( 4.275831445896958607E-31, 1.000000000000000000, 1.224646799147353207E-16 ) ) ;
#215 = CC_DESIGN_APPROVAL ( #178, ( #228 ) ) ;
#216 = DIRECTION ( 'NONE',  ( 0.0000000000000000000, 1.000000000000000000, 0.0000000000000000000 ) ) ;
#217 = CARTESIAN_POINT ( 'NONE',  ( 3.840629472727446691E-14, 2.249639673992784496E-32, 11.00000000000000000 ) ) ;
#218 = ORIENTED_EDGE ( 'NONE', *, *, #213, .T. ) ;
#219 = CIRCLE ( 'NONE', #6, 1.999999999999992673 ) ;
#220 = PERSON_AND_ORGANIZATION ( #225, #128 ) ;
#221 = CC_DESIGN_SECURITY_CLASSIFICATION ( #100, ( #160 ) ) ;
#222 = DIRECTION ( 'NONE',  ( 3.491481338843133355E-15, -1.245781538759969447E-16, 1.000000000000000000 ) ) ;
#223 = MANIFOLD_SOLID_BREP ( 'Corps-Déplacer/Copier1[1]', #99 ) ;
#224 = DATE_AND_TIME ( #21, #72 ) ;
#225 = PERSON ( 'UNSPECIFIED', 'UNSPECIFIED', 'UNSPECIFIED', ('UNSPECIFIED'), ('UNSPECIFIED'), ('UNSPECIFIED') ) ;
#226 = CIRCLE ( 'NONE', #139, 2.600000000000000089 ) ;
#227 = APPLICATION_CONTEXT ( 'configuration controlled 3d designs of mechanical parts and assemblies' ) ;
#228 = PRODUCT_DEFINITION ( 'UNKNOWN', '', #160, #140 ) ;
#229 = CARTESIAN_POINT ( 'NONE',  ( 0.0000000000000000000, 0.0000000000000000000, 0.0000000000000000000 ) ) ;
#230 = CARTESIAN_POINT ( 'NONE',  ( 3.840629472727446060E-14, -1.370359692635966194E-15, 10.99999999999999822 ) ) ;
#231 = EDGE_CURVE ( 'NONE', #81, #81, #145, .T. ) ;
#232 = DATE_AND_TIME ( #23, #69 ) ;
#233 = VERTEX_POINT ( 'NONE', #44 ) ;
#234 = UNCERTAINTY_MEASURE_WITH_UNIT (LENGTH_MEASURE( 1.000000000000000082E-05 ), #79, 'distance_accuracy_value', 'NONE');
#235 = CARTESIAN_POINT ( 'NONE',  ( 1.990144363140586139E-13, -6.980486755139912911E-15, 57.00000000000000000 ) ) ;
#236 = AXIS2_PLACEMENT_3D ( 'NONE', #229, #56, #212 ) ;
#237 = DATE_AND_TIME ( #30, #78 ) ;
#238 = ADVANCED_FACE ( 'NONE', ( #7 ), #95, .F. ) ;
#239 = EDGE_LOOP ( 'NONE', ( #80 ) ) ;
#240 = DIRECTION ( 'NONE',  ( -3.491481338843133355E-15, 1.224646799147353207E-16, -1.000000000000000000 ) ) ;
#241 = AXIS2_PLACEMENT_3D ( 'NONE', #131, #87, #109 ) ;
#242 = CYLINDRICAL_SURFACE ( 'NONE', #241, 1.999999999999993117 ) ;
#243 = DIRECTION ( 'NONE',  ( -4.275831445896958607E-31, -1.000000000000000000, -1.224646799147353207E-16 ) ) ;
ENDSEC;
END-ISO-10303-21;
