ISO-10303-21;
HEADER;
FILE_DESCRIPTION (( 'STEP AP203' ),
    '1' );
FILE_NAME ('997937.step',
    '2021-11-18T08:56:54',
    ( '' ),
    ( '' ),
    'SwSTEP 2.0',
    'SolidWorks 2019',
    '' );
FILE_SCHEMA (( 'CONFIG_CONTROL_DESIGN' ));
ENDSEC;

DATA;
#1 = CARTESIAN_POINT ( 'NONE',  ( 4.421503566283304632E-14, -2.315717307444532212E-15, 12.66368952654441138 ) ) ;
#2 = CC_DESIGN_PERSON_AND_ORGANIZATION_ASSIGNMENT ( #10, #35, ( #40 ) ) ;
#3 = CONICAL_SURFACE ( 'NONE', #134, 3.000000000000000000, 0.7853981633974516097 ) ;
#4 = DIRECTION ( 'NONE',  ( -3.491481338843133355E-15, 1.224646799147353207E-16, -1.000000000000000000 ) ) ;
#5 = CC_DESIGN_PERSON_AND_ORGANIZATION_ASSIGNMENT ( #239, #232, ( #190 ) ) ;
#6 = CARTESIAN_POINT ( 'NONE',  ( 1.976178437785213605E-13, 2.999999999999993339, 56.60000000000000142 ) ) ;
#7 = VERTEX_POINT ( 'NONE', #114 ) ;
#8 = ORIENTED_EDGE ( 'NONE', *, *, #73, .F. ) ;
#9 = APPROVAL_STATUS ( 'not_yet_approved' ) ;
#10 = PERSON_AND_ORGANIZATION ( #173, #128 ) ;
#11 = APPROVAL_STATUS ( 'not_yet_approved' ) ;
#12 = PERSON_AND_ORGANIZATION_ROLE ( 'design_supplier' ) ;
#13 = ORIENTED_EDGE ( 'NONE', *, *, #237, .T. ) ;
#14 = CC_DESIGN_PERSON_AND_ORGANIZATION_ASSIGNMENT ( #29, #219, ( #53 ) ) ;
#15 = FACE_OUTER_BOUND ( 'NONE', #146, .T. ) ;
#16 = DIRECTION ( 'NONE',  ( -3.491481338843133355E-15, 1.224646799147353207E-16, -1.000000000000000000 ) ) ;
#17 = PLANE ( 'NONE',  #149 ) ;
#18 = FACE_OUTER_BOUND ( 'NONE', #160, .T. ) ;
#19 = CIRCLE ( 'NONE', #189, 1.499999999999995559 ) ;
#20 = PRODUCT_DEFINITION_SHAPE ( 'NONE', 'NONE',  #153 ) ;
#21 = VERTEX_POINT ( 'NONE', #6 ) ;
#22 = CARTESIAN_POINT ( 'NONE',  ( 1.976178437785213605E-13, -6.931500883174019483E-15, 56.60000000000000142 ) ) ;
#23 = CLOSED_SHELL ( 'NONE', ( #28, #203, #95, #196 ) ) ;
#24 = CARTESIAN_POINT ( 'NONE',  ( 1.990144363140586139E-13, 1.949687717460404490E-32, 57.00000000000000000 ) ) ;
#25 = VERTEX_POINT ( 'NONE', #218 ) ;
#26 = UNCERTAINTY_MEASURE_WITH_UNIT (LENGTH_MEASURE( 1.000000000000000082E-05 ), #62, 'distance_accuracy_value', 'NONE');
#27 = CARTESIAN_POINT ( 'NONE',  ( 4.421503566283304632E-14, 2.999999999999997780, 12.66368952654441138 ) ) ;
#28 = ADVANCED_FACE ( 'NONE', ( #207, #192 ), #242, .T. ) ;
#29 = PERSON_AND_ORGANIZATION ( #173, #128 ) ;
#30 = APPROVAL_ROLE ( '' ) ;
#31 = PRODUCT_RELATED_PRODUCT_CATEGORY ( 'detail', '', ( #40 ) ) ;
#32 = CALENDAR_DATE ( 2021, 18, 11 ) ;
#33 = EDGE_LOOP ( 'NONE', ( #221 ) ) ;
#34 = COORDINATED_UNIVERSAL_TIME_OFFSET ( 1, 0, .AHEAD. ) ;
#35 = PERSON_AND_ORGANIZATION_ROLE ( 'design_owner' ) ;
#36 = DIRECTION ( 'NONE',  ( 3.491481338843133355E-15, -1.245781538759969447E-16, 1.000000000000000000 ) ) ;
#37 = DIRECTION ( 'NONE',  ( -4.275831445896958607E-31, -1.000000000000000000, -1.224646799147353207E-16 ) ) ;
#38 = FACE_OUTER_BOUND ( 'NONE', #209, .T. ) ;
#39 = AXIS2_PLACEMENT_3D ( 'NONE', #117, #68, #201 ) ;
#40 = PRODUCT ( '997937', '997937', '', ( #87 ) ) ;
#41 =( NAMED_UNIT ( * ) PLANE_ANGLE_UNIT ( ) SI_UNIT ( $, .RADIAN. ) );
#42 = CARTESIAN_POINT ( 'NONE',  ( -6.413747168845438786E-31, 2.249639673992786412E-32, -1.836970198721029934E-16 ) ) ;
#43 = CARTESIAN_POINT ( 'NONE',  ( 2.793185071074506053E-14, -1.499999999999996669, 7.999999999999998224 ) ) ;
#44 = CIRCLE ( 'NONE', #51, 3.000000000000000000 ) ;
#45 = ADVANCED_FACE ( 'NONE', ( #38 ), #17, .F. ) ;
#46 = DIRECTION ( 'NONE',  ( 3.491481338843133355E-15, -1.245781538759969447E-16, 1.000000000000000000 ) ) ;
#47 = PLANE ( 'NONE',  #102 ) ;
#48 = AXIS2_PLACEMENT_3D ( 'NONE', #129, #16, #150 ) ;
#49 = ORIENTED_EDGE ( 'NONE', *, *, #227, .F. ) ;
#50 = DATE_AND_TIME ( #100, #113 ) ;
#51 = AXIS2_PLACEMENT_3D ( 'NONE', #1, #36, #169 ) ;
#52 = APPROVAL ( #202, 'UNSPECIFIED' ) ;
#53 = PRODUCT_DEFINITION_FORMATION_WITH_SPECIFIED_SOURCE ( 'ANY', '', #40, .NOT_KNOWN. ) ;
#54 = ORIENTED_EDGE ( 'NONE', *, *, #73, .T. ) ;
#55 = EDGE_LOOP ( 'NONE', ( #183 ) ) ;
#56 = DIRECTION ( 'NONE',  ( -3.491481338843133355E-15, 1.224646799147353207E-16, -1.000000000000000000 ) ) ;
#57 = FACE_OUTER_BOUND ( 'NONE', #84, .T. ) ;
#58 = AXIS2_PLACEMENT_3D ( 'NONE', #215, #112, #231 ) ;
#59 = LOCAL_TIME ( 9, 56, 54.00000000000000000, #141 ) ;
#60 = PLANE ( 'NONE',  #63 ) ;
#61 = DIRECTION ( 'NONE',  ( -4.275831445896958607E-31, -1.000000000000000000, -1.224646799147353207E-16 ) ) ;
#62 =( LENGTH_UNIT ( ) NAMED_UNIT ( * ) SI_UNIT ( .MILLI., .METRE. ) );
#63 = AXIS2_PLACEMENT_3D ( 'NONE', #97, #154, #61 ) ;
#64 = LOCAL_TIME ( 9, 56, 54.00000000000000000, #235 ) ;
#65 = PLANE ( 'NONE',  #230 ) ;
#66 = DATE_TIME_ROLE ( 'classification_date' ) ;
#67 = EDGE_LOOP ( 'NONE', ( #119 ) ) ;
#68 = DIRECTION ( 'NONE',  ( 0.0000000000000000000, 0.0000000000000000000, 1.000000000000000000 ) ) ;
#69 = ORIENTED_EDGE ( 'NONE', *, *, #143, .F. ) ;
#70 = PERSON_AND_ORGANIZATION ( #173, #128 ) ;
#71 = EDGE_LOOP ( 'NONE', ( #138 ) ) ;
#72 = DATE_AND_TIME ( #233, #94 ) ;
#73 = EDGE_CURVE ( 'NONE', #199, #199, #44, .T. ) ;
#74 = DIRECTION ( 'NONE',  ( 0.0000000000000000000, 1.000000000000000000, 0.0000000000000000000 ) ) ;
#75 = APPROVAL_PERSON_ORGANIZATION ( #70, #99, #122 ) ;
#76 = CARTESIAN_POINT ( 'NONE',  ( 1.976178437785213605E-13, -6.931500883174019483E-15, 56.60000000000000142 ) ) ;
#77 = CIRCLE ( 'NONE', #93, 3.000000000000000000 ) ;
#78 = AXIS2_PLACEMENT_3D ( 'NONE', #133, #46, #217 ) ;
#79 = LOCAL_TIME ( 9, 56, 54.00000000000000000, #34 ) ;
#80 = DIRECTION ( 'NONE',  ( 4.275831445896958607E-31, 1.000000000000000000, 1.224646799147353207E-16 ) ) ;
#81 = DIRECTION ( 'NONE',  ( 4.275831445896958607E-31, 1.000000000000000000, 1.224646799147353207E-16 ) ) ;
#82 = DESIGN_CONTEXT ( 'detailed design', #187, 'design' ) ;
#83 = EDGE_LOOP ( 'NONE', ( #69 ) ) ;
#84 = EDGE_LOOP ( 'NONE', ( #91 ) ) ;
#85 = APPLICATION_PROTOCOL_DEFINITION ( 'international standard', 'config_control_design', 1994, #187 ) ;
#86 = EDGE_CURVE ( 'NONE', #7, #7, #225, .T. ) ;
#87 = MECHANICAL_CONTEXT ( 'NONE', #168, 'mechanical' ) ;
#88 = EDGE_LOOP ( 'NONE', ( #54 ) ) ;
#89 = FACE_OUTER_BOUND ( 'NONE', #162, .T. ) ;
#90 = DIRECTION ( 'NONE',  ( 3.491481338843133355E-15, -0.0000000000000000000, 1.000000000000000000 ) ) ;
#91 = ORIENTED_EDGE ( 'NONE', *, *, #227, .T. ) ;
#92 = SHAPE_DEFINITION_REPRESENTATION ( #20, #147 ) ;
#93 = AXIS2_PLACEMENT_3D ( 'NONE', #76, #56, #108 ) ;
#94 = LOCAL_TIME ( 9, 56, 54.00000000000000000, #220 ) ;
#95 = ADVANCED_FACE ( 'NONE', ( #15, #89 ), #241, .T. ) ;
#96 = APPLICATION_PROTOCOL_DEFINITION ( 'international standard', 'config_control_design', 1994, #168 ) ;
#97 = CARTESIAN_POINT ( 'NONE',  ( 2.793185071074506684E-14, 2.249639673992785317E-32, 8.000000000000000000 ) ) ;
#98 = CARTESIAN_POINT ( 'NONE',  ( 2.793185071074506053E-14, -9.966252310079753601E-16, 7.999999999999998224 ) ) ;
#99 = APPROVAL ( #11, 'UNSPECIFIED' ) ;
#100 = CALENDAR_DATE ( 2021, 18, 11 ) ;
#101 = EDGE_CURVE ( 'NONE', #25, #25, #118, .T. ) ;
#102 = AXIS2_PLACEMENT_3D ( 'NONE', #24, #223, #80 ) ;
#103 = PERSON_AND_ORGANIZATION ( #173, #128 ) ;
#104 = CARTESIAN_POINT ( 'NONE',  ( -6.413747168845438786E-31, 0.0000000000000000000, -1.836970198721029934E-16 ) ) ;
#105 = CARTESIAN_POINT ( 'NONE',  ( 2.793185071074506684E-14, 2.249639673992785317E-32, 8.000000000000000000 ) ) ;
#106 = DIRECTION ( 'NONE',  ( 3.491481338843133355E-15, -0.0000000000000000000, 1.000000000000000000 ) ) ;
#107 = EDGE_LOOP ( 'NONE', ( #13 ) ) ;
#108 = DIRECTION ( 'NONE',  ( 0.0000000000000000000, 1.000000000000000000, 0.0000000000000000000 ) ) ;
#109 = DIRECTION ( 'NONE',  ( 1.000000000000000000, 0.0000000000000000000, -3.491481338843133355E-15 ) ) ;
#110 = CYLINDRICAL_SURFACE ( 'NONE', #48, 3.000000000000000000 ) ;
#111 = CARTESIAN_POINT ( 'NONE',  ( 1.745740669421567072E-15, 0.0000000000000000000, 0.5000000000000001110 ) ) ;
#112 = DIRECTION ( 'NONE',  ( 3.491481338843133355E-15, -1.245781538759969447E-16, 1.000000000000000000 ) ) ;
#113 = LOCAL_TIME ( 9, 56, 54.00000000000000000, #137 ) ;
#114 = CARTESIAN_POINT ( 'NONE',  ( 1.990144363140586139E-13, 2.599999999999992983, 57.00000000000000000 ) ) ;
#115 = VERTEX_POINT ( 'NONE', #151 ) ;
#116 = ADVANCED_FACE ( 'NONE', ( #18, #172 ), #110, .T. ) ;
#117 = CARTESIAN_POINT ( 'NONE',  ( 0.0000000000000000000, 0.0000000000000000000, 0.0000000000000000000 ) ) ;
#118 = CIRCLE ( 'NONE', #152, 1.000000000000000000 ) ;
#119 = ORIENTED_EDGE ( 'NONE', *, *, #237, .F. ) ;
#120 = APPROVAL_DATE_TIME ( #50, #125 ) ;
#121 = EDGE_CURVE ( 'NONE', #115, #115, #124, .T. ) ;
#122 = APPROVAL_ROLE ( '' ) ;
#123 = APPROVAL_DATE_TIME ( #204, #52 ) ;
#124 = CIRCLE ( 'NONE', #174, 1.499999999999999778 ) ;
#125 = APPROVAL ( #9, 'UNSPECIFIED' ) ;
#126 = DIRECTION ( 'NONE',  ( 3.491481338843133355E-15, -1.224646799147353207E-16, 1.000000000000000000 ) ) ;
#127 = DIRECTION ( 'NONE',  ( -4.349622994855716619E-31, -1.000000000000000000, -1.245781538759969447E-16 ) ) ;
#128 = ORGANIZATION ( 'UNSPECIFIED', 'UNSPECIFIED', '' ) ;
#129 = CARTESIAN_POINT ( 'NONE',  ( 0.0000000000000000000, 0.0000000000000000000, 0.0000000000000000000 ) ) ;
#130 = FACE_OUTER_BOUND ( 'NONE', #83, .T. ) ;
#131 = MANIFOLD_SOLID_BREP ( 'Corps-Déplacer/Copier1[2]', #23 ) ;
#132 = VERTEX_POINT ( 'NONE', #43 ) ;
#133 = CARTESIAN_POINT ( 'NONE',  ( 2.793185071074506053E-14, -9.966252310079753601E-16, 7.999999999999998224 ) ) ;
#134 = AXIS2_PLACEMENT_3D ( 'NONE', #22, #157, #178 ) ;
#135 = APPROVAL_PERSON_ORGANIZATION ( #103, #52, #30 ) ;
#136 = PERSON_AND_ORGANIZATION ( #173, #128 ) ;
#137 = COORDINATED_UNIVERSAL_TIME_OFFSET ( 1, 0, .AHEAD. ) ;
#138 = ORIENTED_EDGE ( 'NONE', *, *, #101, .F. ) ;
#139 = CALENDAR_DATE ( 2021, 18, 11 ) ;
#140 = MANIFOLD_SOLID_BREP ( 'Corps-Déplacer/Copier1[1]', #165 ) ;
#141 = COORDINATED_UNIVERSAL_TIME_OFFSET ( 1, 0, .AHEAD. ) ;
#142 = SECURITY_CLASSIFICATION_LEVEL ( 'unclassified' ) ;
#143 = EDGE_CURVE ( 'NONE', #21, #21, #77, .T. ) ;
#144 = ORIENTED_EDGE ( 'NONE', *, *, #101, .T. ) ;
#145 = DIRECTION ( 'NONE',  ( 1.000000000000000000, 0.0000000000000000000, -3.491481338843133355E-15 ) ) ;
#146 = EDGE_LOOP ( 'NONE', ( #144 ) ) ;
#147 = ADVANCED_BREP_SHAPE_REPRESENTATION ( '997937', ( #140, #131, #39 ), #197 ) ;
#148 = DIRECTION ( 'NONE',  ( 3.491481338843133355E-15, -0.0000000000000000000, 1.000000000000000000 ) ) ;
#149 = AXIS2_PLACEMENT_3D ( 'NONE', #105, #126, #37 ) ;
#150 = DIRECTION ( 'NONE',  ( 4.275831445896959482E-31, 1.000000000000000000, 1.224646799147353207E-16 ) ) ;
#151 = CARTESIAN_POINT ( 'NONE',  ( 1.500000000000001554, 0.0000000000000000000, 0.4999999999999948930 ) ) ;
#152 = AXIS2_PLACEMENT_3D ( 'NONE', #213, #106, #109 ) ;
#153 = PRODUCT_DEFINITION ( 'UNKNOWN', '', #53, #82 ) ;
#154 = DIRECTION ( 'NONE',  ( 3.491481338843133355E-15, -1.224646799147353207E-16, 1.000000000000000000 ) ) ;
#155 = DIRECTION ( 'NONE',  ( 3.491481338843133355E-15, -1.245781538759969447E-16, 1.000000000000000000 ) ) ;
#156 =( NAMED_UNIT ( * ) SI_UNIT ( $, .STERADIAN. ) SOLID_ANGLE_UNIT ( ) );
#157 = DIRECTION ( 'NONE',  ( -3.491481338843133355E-15, 1.224646799147353207E-16, -1.000000000000000000 ) ) ;
#158 = APPROVAL_PERSON_ORGANIZATION ( #181, #125, #182 ) ;
#159 = DATE_TIME_ROLE ( 'creation_date' ) ;
#160 = EDGE_LOOP ( 'NONE', ( #164 ) ) ;
#161 = APPROVAL_DATE_TIME ( #205, #99 ) ;
#162 = EDGE_LOOP ( 'NONE', ( #167 ) ) ;
#163 = PERSON_AND_ORGANIZATION_ROLE ( 'creator' ) ;
#164 = ORIENTED_EDGE ( 'NONE', *, *, #143, .T. ) ;
#165 = CLOSED_SHELL ( 'NONE', ( #116, #191, #179, #170, #45 ) ) ;
#166 = DIRECTION ( 'NONE',  ( 3.491481338843133355E-15, -1.245781538759969447E-16, 1.000000000000000000 ) ) ;
#167 = ORIENTED_EDGE ( 'NONE', *, *, #121, .F. ) ;
#168 = APPLICATION_CONTEXT ( 'configuration controlled 3d designs of mechanical parts and assemblies' ) ;
#169 = DIRECTION ( 'NONE',  ( 0.0000000000000000000, 1.000000000000000000, 0.0000000000000000000 ) ) ;
#170 = ADVANCED_FACE ( 'NONE', ( #171, #57 ), #216, .F. ) ;
#171 = FACE_OUTER_BOUND ( 'NONE', #206, .T. ) ;
#172 = FACE_OUTER_BOUND ( 'NONE', #88, .T. ) ;
#173 = PERSON ( 'UNSPECIFIED', 'UNSPECIFIED', 'UNSPECIFIED', ('UNSPECIFIED'), ('UNSPECIFIED'), ('UNSPECIFIED') ) ;
#174 = AXIS2_PLACEMENT_3D ( 'NONE', #111, #90, #243 ) ;
#175 = CC_DESIGN_APPROVAL ( #52, ( #153 ) ) ;
#176 = FACE_OUTER_BOUND ( 'NONE', #107, .T. ) ;
#177 = CC_DESIGN_PERSON_AND_ORGANIZATION_ASSIGNMENT ( #186, #12, ( #53 ) ) ;
#178 = DIRECTION ( 'NONE',  ( 0.0000000000000000000, 1.000000000000000000, 0.0000000000000000000 ) ) ;
#179 = ADVANCED_FACE ( 'NONE', ( #198 ), #47, .F. ) ;
#180 = FACE_BOUND ( 'NONE', #33, .T. ) ;
#181 = PERSON_AND_ORGANIZATION ( #173, #128 ) ;
#182 = APPROVAL_ROLE ( '' ) ;
#183 = ORIENTED_EDGE ( 'NONE', *, *, #121, .T. ) ;
#184 = AXIS2_PLACEMENT_3D ( 'NONE', #104, #166, #127 ) ;
#185 = CALENDAR_DATE ( 2021, 18, 11 ) ;
#186 = PERSON_AND_ORGANIZATION ( #173, #128 ) ;
#187 = APPLICATION_CONTEXT ( 'configuration controlled 3d designs of mechanical parts and assemblies' ) ;
#188 = DIRECTION ( 'NONE',  ( -3.491481338843133355E-15, 1.224646799147353207E-16, -1.000000000000000000 ) ) ;
#189 = AXIS2_PLACEMENT_3D ( 'NONE', #98, #155, #229 ) ;
#190 = SECURITY_CLASSIFICATION ( '', '', #142 ) ;
#191 = ADVANCED_FACE ( 'NONE', ( #180, #130 ), #3, .T. ) ;
#192 = FACE_OUTER_BOUND ( 'NONE', #55, .T. ) ;
#193 = CC_DESIGN_DATE_AND_TIME_ASSIGNMENT ( #72, #66, ( #190 ) ) ;
#194 = CIRCLE ( 'NONE', #78, 1.499999999999995559 ) ;
#195 = CC_DESIGN_APPROVAL ( #125, ( #190 ) ) ;
#196 = ADVANCED_FACE ( 'NONE', ( #200 ), #65, .T. ) ;
#197 =( GEOMETRIC_REPRESENTATION_CONTEXT ( 3 ) GLOBAL_UNCERTAINTY_ASSIGNED_CONTEXT ( ( #26 ) ) GLOBAL_UNIT_ASSIGNED_CONTEXT ( ( #62, #41, #156 ) ) REPRESENTATION_CONTEXT ( 'NONE', 'WORKASPACE' ) );
#198 = FACE_OUTER_BOUND ( 'NONE', #208, .T. ) ;
#199 = VERTEX_POINT ( 'NONE', #27 ) ;
#200 = FACE_OUTER_BOUND ( 'NONE', #71, .T. ) ;
#201 = DIRECTION ( 'NONE',  ( 1.000000000000000000, 0.0000000000000000000, 0.0000000000000000000 ) ) ;
#202 = APPROVAL_STATUS ( 'not_yet_approved' ) ;
#203 = ADVANCED_FACE ( 'NONE', ( #176 ), #60, .T. ) ;
#204 = DATE_AND_TIME ( #185, #59 ) ;
#205 = DATE_AND_TIME ( #139, #64 ) ;
#206 = EDGE_LOOP ( 'NONE', ( #8 ) ) ;
#207 = FACE_OUTER_BOUND ( 'NONE', #67, .T. ) ;
#208 = EDGE_LOOP ( 'NONE', ( #234 ) ) ;
#209 = EDGE_LOOP ( 'NONE', ( #49 ) ) ;
#210 = AXIS2_PLACEMENT_3D ( 'NONE', #240, #188, #74 ) ;
#211 = CARTESIAN_POINT ( 'NONE',  ( 1.745740669421566678E-15, 0.0000000000000000000, 0.5000000000000000000 ) ) ;
#212 = CC_DESIGN_PERSON_AND_ORGANIZATION_ASSIGNMENT ( #136, #163, ( #153 ) ) ;
#213 = CARTESIAN_POINT ( 'NONE',  ( 0.0000000000000000000, 0.0000000000000000000, 0.0000000000000000000 ) ) ;
#214 = CC_DESIGN_SECURITY_CLASSIFICATION ( #190, ( #53 ) ) ;
#215 = CARTESIAN_POINT ( 'NONE',  ( 2.793185071074506053E-14, -1.734723475976807094E-15, 7.999999999999998224 ) ) ;
#216 = TOROIDAL_SURFACE ( 'NONE', #58, 9.499999999999996447, 8.000000000000000000 ) ;
#217 = DIRECTION ( 'NONE',  ( 0.0000000000000000000, -1.000000000000000000, 0.0000000000000000000 ) ) ;
#218 = CARTESIAN_POINT ( 'NONE',  ( 1.000000000000000000, 0.0000000000000000000, -3.491481338843133355E-15 ) ) ;
#219 = PERSON_AND_ORGANIZATION_ROLE ( 'creator' ) ;
#220 = COORDINATED_UNIVERSAL_TIME_OFFSET ( 1, 0, .AHEAD. ) ;
#221 = ORIENTED_EDGE ( 'NONE', *, *, #86, .T. ) ;
#222 = CC_DESIGN_DATE_AND_TIME_ASSIGNMENT ( #238, #159, ( #153 ) ) ;
#223 = DIRECTION ( 'NONE',  ( -3.491481338843133355E-15, 1.224646799147353207E-16, -1.000000000000000000 ) ) ;
#224 = VERTEX_POINT ( 'NONE', #228 ) ;
#225 = CIRCLE ( 'NONE', #210, 2.600000000000000089 ) ;
#226 = CC_DESIGN_APPROVAL ( #99, ( #53 ) ) ;
#227 = EDGE_CURVE ( 'NONE', #132, #132, #19, .T. ) ;
#228 = CARTESIAN_POINT ( 'NONE',  ( 2.793185071074506053E-14, -1.499999999999996669, 7.999999999999998224 ) ) ;
#229 = DIRECTION ( 'NONE',  ( 0.0000000000000000000, -1.000000000000000000, 0.0000000000000000000 ) ) ;
#230 = AXIS2_PLACEMENT_3D ( 'NONE', #42, #4, #81 ) ;
#231 = DIRECTION ( 'NONE',  ( -4.410320810634595474E-31, -1.000000000000000000, -1.245781538759969447E-16 ) ) ;
#232 = PERSON_AND_ORGANIZATION_ROLE ( 'classification_officer' ) ;
#233 = CALENDAR_DATE ( 2021, 18, 11 ) ;
#234 = ORIENTED_EDGE ( 'NONE', *, *, #86, .F. ) ;
#235 = COORDINATED_UNIVERSAL_TIME_OFFSET ( 1, 0, .AHEAD. ) ;
#236 = AXIS2_PLACEMENT_3D ( 'NONE', #211, #148, #145 ) ;
#237 = EDGE_CURVE ( 'NONE', #224, #224, #194, .T. ) ;
#238 = DATE_AND_TIME ( #32, #79 ) ;
#239 = PERSON_AND_ORGANIZATION ( #173, #128 ) ;
#240 = CARTESIAN_POINT ( 'NONE',  ( 1.990144363140586139E-13, -6.980486755139912911E-15, 57.00000000000000000 ) ) ;
#241 = TOROIDAL_SURFACE ( 'NONE', #236, 1.000000000000000000, 0.4999999999999998890 ) ;
#242 = CYLINDRICAL_SURFACE ( 'NONE', #184, 1.499999999999995781 ) ;
#243 = DIRECTION ( 'NONE',  ( 1.000000000000000000, 0.0000000000000000000, -3.469446951953614583E-15 ) ) ;
ENDSEC;
END-ISO-10303-21;
